  0
SECTION
  2
HEADER
  9
$ACADVER
  1
AC1009
  9
$INSBASE
 10
0.0
 20
0.0
 30
0.0
  9
$EXTMIN
 10
-4.70052
 20
-21.071400000000001
 30
0.0
  9
$EXTMAX
 10
205.30099999999999
 20
275.93099999999993
 30
0.0
  9
$LIMMIN
 10
0.0
 20
0.0
  9
$LIMMAX
 10
12.0
 20
9.0
  9
$ORTHOMODE
 70
     0
  9
$REGENMODE
 70
     1
  9
$FILLMODE
 70
     1
  9
$QTEXTMODE
 70
     0
  9
$MIRRTEXT
 70
     1
  9
$DRAGMODE
 70
     2
  9
$LTSCALE
 40
1.0
  9
$OSMODE
 70
    37
  9
$ATTMODE
 70
     1
  9
$TEXTSIZE
 40
0.0
  9
$TRACEWID
 40
0.05
  9
$TEXTSTYLE
  7
STANDARD
  9
$CLAYER
  8
0
  9
$CELTYPE
  6
CONTINUOUS
  9
$CECOLOR
 62
   256
  9
$DIMSCALE
 40
1.0
  9
$DIMASZ
 40
0.18
  9
$DIMEXO
 40
0.0625
  9
$DIMDLI
 40
0.38
  9
$DIMRND
 40
0.0
  9
$DIMDLE
 40
0.0
  9
$DIMEXE
 40
0.18
  9
$DIMTP
 40
0.0
  9
$DIMTM
 40
0.0
  9
$DIMTXT
 40
0.18
  9
$DIMCEN
 40
0.09
  9
$DIMTSZ
 40
0.0
  9
$DIMTOL
 70
     0
  9
$DIMLIM
 70
     0
  9
$DIMTIH
 70
     1
  9
$DIMTOH
 70
     1
  9
$DIMSE1
 70
     0
  9
$DIMSE2
 70
     0
  9
$DIMTAD
 70
     0
  9
$DIMZIN
 70
     0
  9
$DIMBLK
  1

  9
$DIMASO
 70
     1
  9
$DIMSHO
 70
     1
  9
$DIMPOST
  1

  9
$DIMAPOST
  1

  9
$DIMALT
 70
     0
  9
$DIMALTD
 70
     2
  9
$DIMALTF
 40
25.399999999999999
  9
$DIMLFAC
 40
1.0
  9
$DIMTOFL
 70
     0
  9
$DIMTVP
 40
0.0
  9
$DIMTIX
 70
     0
  9
$DIMSOXD
 70
     0
  9
$DIMSAH
 70
     0
  9
$DIMBLK1
  1

  9
$DIMBLK2
  1

  9
$DIMSTYLE
  2
STANDARD
  9
$DIMCLRD
 70
     0
  9
$DIMCLRE
 70
     0
  9
$DIMCLRT
 70
     0
  9
$DIMTFAC
 40
1.0
  9
$DIMGAP
 40
0.09
  9
$LUNITS
 70
     2
  9
$LUPREC
 70
     4
  9
$SKETCHINC
 40
0.1
  9
$FILLETRAD
 40
0.0
  9
$AUNITS
 70
     0
  9
$AUPREC
 70
     0
  9
$MENU
  1
.
  9
$ELEVATION
 40
0.0
  9
$PELEVATION
 40
0.0
  9
$THICKNESS
 40
0.0
  9
$LIMCHECK
 70
     0
  9
$BLIPMODE
 70
     0
  9
$CHAMFERA
 40
0.0
  9
$CHAMFERB
 40
0.0
  9
$SKPOLY
 70
     0
  9
$TDCREATE
 40
2444972.375
  9
$TDUPDATE
 40
2454397.3079360072
  9
$TDINDWG
 40
0.0000103704
  9
$TDUSRTIMER
 40
0.0000103704
  9
$USRTIMER
 70
     1
  9
$ANGBASE
 50
0.0
  9
$ANGDIR
 70
     0
  9
$PDMODE
 70
     0
  9
$PDSIZE
 40
0.0
  9
$PLINEWID
 40
0.0
  9
$COORDS
 70
     1
  9
$SPLFRAME
 70
     0
  9
$SPLINETYPE
 70
     6
  9
$SPLINESEGS
 70
     8
  9
$ATTDIA
 70
     0
  9
$ATTREQ
 70
     1
  9
$HANDLING
 70
     1
  9
$HANDSEED
  5
EF
  9
$SURFTAB1
 70
     6
  9
$SURFTAB2
 70
     6
  9
$SURFTYPE
 70
     6
  9
$SURFU
 70
     6
  9
$SURFV
 70
     6
  9
$UCSNAME
  2

  9
$UCSORG
 10
0.0
 20
0.0
 30
0.0
  9
$UCSXDIR
 10
1.0
 20
0.0
 30
0.0
  9
$UCSYDIR
 10
0.0
 20
1.0
 30
0.0
  9
$PUCSNAME
  2

  9
$PUCSORG
 10
0.0
 20
0.0
 30
0.0
  9
$PUCSXDIR
 10
1.0
 20
0.0
 30
0.0
  9
$PUCSYDIR
 10
0.0
 20
1.0
 30
0.0
  9
$USERI1
 70
     0
  9
$USERI2
 70
     0
  9
$USERI3
 70
     0
  9
$USERI4
 70
     0
  9
$USERI5
 70
     0
  9
$USERR1
 40
0.0
  9
$USERR2
 40
0.0
  9
$USERR3
 40
0.0
  9
$USERR4
 40
0.0
  9
$USERR5
 40
0.0
  9
$WORLDVIEW
 70
     1
  9
$SHADEDGE
 70
     3
  9
$SHADEDIF
 70
    70
  9
$TILEMODE
 70
     1
  9
$MAXACTVP
 70
    48
  9
$PLIMCHECK
 70
     0
  9
$PEXTMIN
 10
1.0000000000000000E+020
 20
1.0000000000000000E+020
 30
1.0000000000000000E+020
  9
$PEXTMAX
 10
-1.0000000000000000E+020
 20
-1.0000000000000000E+020
 30
-1.0000000000000000E+020
  9
$PLIMMIN
 10
0.0
 20
0.0
  9
$PLIMMAX
 10
12.0
 20
9.0
  9
$UNITMODE
 70
     0
  9
$VISRETAIN
 70
     1
  9
$PLINEGEN
 70
     0
  9
$PSLTSCALE
 70
     1
  0
ENDSEC
  0
SECTION
  2
TABLES
  0
TABLE
  2
VPORT
 70
     2
  0
VPORT
  2
*ACTIVE
 70
     0
 10
0.0
 20
0.0
 11
1.0
 21
1.0
 12
189.56085651407921
 22
127.4297999999999
 13
0.0
 23
0.0
 14
1.0
 24
1.0
 15
0.0
 25
0.0
 16
0.0
 26
0.0
 36
1.0
 17
0.0
 27
0.0
 37
0.0
 40
299.2467506297229
 41
2.1842105263157889
 42
50.0
 43
0.0
 44
0.0
 50
0.0
 51
0.0
 71
     0
 72
   100
 73
     1
 74
     1
 75
     0
 76
     0
 77
     0
 78
     0
  0
ENDTAB
  0
TABLE
  2
LTYPE
 70
     3
  0
LTYPE
  2
CONTINUOUS
 70
     0
  3
Solid line
 72
    65
 73
     0
 40
0.0
  0
LTYPE
  2
AIGENLINE001
 70
     0
  3
generate AI->DXF Converter
 72
    65
 73
     4
 40
5.8561449999999988
 49
3.5278
 49
-0.776115
 49
0.776115
 49
-0.776115
  0
LTYPE
  2
AIGENLINE002
 70
     0
  3
generate AI->DXF Converter
 72
    65
 73
     2
 40
1.5522299999999991
 49
0.776115
 49
-0.776115
  0
ENDTAB
  0
TABLE
  2
LAYER
 70
     2
  0
LAYER
  2
0
 70
     0
 62
     7
  6
CONTINUOUS
  0
LAYER
  2
_________2
 70
     0
 62
     7
  6
CONTINUOUS
  0
ENDTAB
  0
TABLE
  2
STYLE
 70
     1
  0
STYLE
  2
STANDARD
 70
     0
 40
0.0
 41
0.0
 50
0.0
 71
     0
 42
0.0
  3
TXT
  4
EXTFONT.SHX
  0
ENDTAB
  0
TABLE
  2
VIEW
 70
     0
  0
ENDTAB
  0
TABLE
  2
UCS
 70
     0
  0
ENDTAB
  0
TABLE
  2
APPID
 70
     1
  0
APPID
  2
ACAD
 70
     0
  0
ENDTAB
  0
TABLE
  2
DIMSTYLE
 70
     1
  0
DIMSTYLE
  2
STANDARD
 70
     0
  3

  4

  5

  6

  7

 40
1.0
 41
0.18
 42
0.0625
 43
0.38
 44
0.18
 45
0.0
 46
0.0
 47
0.0
 48
0.0
140
0.18
141
0.09
142
0.0
143
25.399999999999999
144
1.0
145
0.0
146
1.0
147
0.09
 71
     0
 72
     0
 73
     1
 74
     1
 75
     0
 76
     0
 77
     0
 78
     0
170
     0
171
     2
172
     0
173
     0
174
     0
175
     0
176
     0
177
     0
178
     0
  0
ENDTAB
  0
ENDSEC
  0
SECTION
  2
BLOCKS
  0
BLOCK
  8
0
  2
$MODEL_SPACE
 70
     0
 10
0.0
 20
0.0
 30
0.0
  3
$MODEL_SPACE
  1

  0
ENDBLK
  5
1A
  8
0
  0
BLOCK
 67
     1
  8
0
  2
$PAPER_SPACE
 70
     0
 10
0.0
 20
0.0
 30
0.0
  3
$PAPER_SPACE
  1

  0
ENDBLK
  5
17
 67
     1
  8
0
  0
ENDSEC
  0
SECTION
  2
ENTITIES
  0
TEXT
  5
23
  8
0
 62
     7
 10
131.67475999999999
 20
153.41800000000001
 30
0.0
 40
3.0923400000000001
  1
カウンター切込寸法
 41
0.5
 72
     1
 11
139.92099999999991
 21
153.41800000000001
 31
0.0
  0
TEXT
  5
24
  8
0
 62
     7
 10
59.874402499999988
 20
146.19799999999989
 30
0.0
 40
3.0923400000000001
  1
%%c260
 41
0.5
 72
     1
 11
62.580199999999998
 21
146.19799999999989
 31
0.0
  0
TEXT
  5
25
  8
0
 62
     7
 10
60.64748749999999
 20
159.1879999999999
 30
0.0
 40
3.0923400000000001
  1
%%c80
 41
0.5
 72
     1
 11
62.580199999999998
 21
159.1879999999999
 31
0.0
  0
TEXT
  5
26
  8
0
 62
     7
 10
62.358687499999988
 20
167.60799999999989
 30
0.0
 40
3.0923400000000001
  1
%%c20
 41
0.5
 72
     1
 11
64.291399999999996
 21
167.60799999999989
 31
0.0
  0
TEXT
  5
27
  8
0
 62
     7
 10
71.416939999999997
 20
190.11000000000001
 30
0.0
 40
3.0923400000000001
  1
%%c46
 41
0.5
 72
     1
 11
73.478499999999997
 21
190.11000000000001
 31
0.0
  0
TEXT
  5
28
  8
0
 62
     7
 10
129.85893012121019
 20
173.47593012121021
 30
0.0
 40
3.0923400000000001
  1
%%c180
 50
45.0
 41
0.5
 72
     1
 11
131.59
 21
175.20699999999991
 31
0.0
  0
TEXT
  5
29
  8
0
 62
     7
 10
95.706000000000003
 20
96.524272499999995
 30
0.0
 40
3.0923400000000001
  1
60
 50
90.0
 41
0.5
 72
     1
 11
95.706000000000003
 21
97.683899999999994
 31
0.0
  0
TEXT
  5
2A
  8
0
 62
     7
 10
103.583
 20
89.76908250000001
 30
0.0
 40
3.0923400000000001
  1
120
 50
90.0
 41
0.5
 72
     1
 11
103.583
 21
91.444100000000006
 31
0.0
  0
LINE
  5
2B
  8
0
  6
AIGENLINE001
 62
     7
 10
62.580199999999998
 20
156.88699999999989
 30
0.0
 11
62.580199999999998
 21
152.64500000000001
 31
0.0
  0
LINE
  5
2C
  8
0
  6
AIGENLINE001
 62
     7
 10
62.580199999999998
 20
164.95699999999991
 30
0.0
 11
62.580199999999998
 21
162.46199999999999
 31
0.0
  0
LINE
  5
2D
  8
0
 62
     7
 10
65.215400000000002
 20
84.043999999999997
 30
0.0
 11
69.980199999999996
 21
84.043999999999997
 31
0.0
  0
LINE
  5
2E
  8
0
 62
     7
 10
60.080100000000002
 20
79.643900000000002
 30
0.0
 11
59.94489999999999
 21
84.043999999999997
 31
0.0
  0
LINE
  5
2F
  8
0
 62
     7
 10
65.215400000000002
 20
84.043999999999997
 30
0.0
 11
65.079999999999998
 21
79.643900000000002
 31
0.0
  0
ARC
  5
30
  8
0
 62
     7
 10
62.580123999999998
 20
97.425231999999994
 30
0.0
 40
13.638273
 50
258.85895499999998
 51
281.14106499999991
  0
LINE
  5
31
  8
0
 62
     7
 10
52.180100000000003
 20
88.910600000000017
 30
0.0
 11
72.980199999999996
 21
88.910600000000017
 31
0.0
  0
LINE
  5
32
  8
0
 62
     7
 10
53.513500000000001
 20
85.426199999999994
 30
0.0
 11
71.646699999999996
 21
85.426199999999994
 31
0.0
  0
LINE
  5
33
  8
0
 62
     7
 10
55.180100000000003
 20
84.043999999999997
 30
0.0
 11
59.94489999999999
 21
84.043999999999997
 31
0.0
  0
ARC
  5
34
  8
0
 62
     7
 10
71.630346000000003
 20
86.073767000000004
 30
0.0
 40
1.0176979999999991
 50
298.51112199999989
 51
352.92628400000001
  0
LINE
  5
35
  8
0
 62
     7
 10
72.640299999999996
 20
85.948400000000007
 30
0.0
 11
72.910399999999996
 21
88.301500000000004
 31
0.0
  0
ARC
  5
36
  8
0
 62
     7
 10
73.924467000000007
 20
88.171994999999995
 30
0.0
 40
1.0223029999999991
 50
111.76901599999989
 51
172.72471799999991
  0
LINE
  5
37
  8
0
 62
     7
 10
69.580200000000005
 20
79.643900000000002
 30
0.0
 11
69.980199999999996
 21
84.043999999999997
 31
0.0
  0
LINE
  5
38
  8
0
 62
     7
 10
69.980199999999996
 20
84.043999999999997
 30
0.0
 11
72.116100000000003
 21
85.179500000000004
 31
0.0
  0
LINE
  5
39
  8
0
 62
     7
 10
55.580100000000002
 20
79.643900000000002
 30
0.0
 11
55.180100000000003
 21
84.043999999999997
 31
0.0
  0
LINE
  5
3A
  8
0
 62
     7
 10
55.180100000000003
 20
84.043999999999997
 30
0.0
 11
53.0441
 21
85.179500000000004
 31
0.0
  0
ARC
  5
3B
  8
0
 62
     7
 10
51.236429000000001
 20
88.172495999999995
 30
0.0
 40
1.021598
 50
7.2519990000000014
 51
68.254226000000003
  0
ARC
  5
3C
  8
0
 62
     7
 10
53.530366000000001
 20
86.073856000000006
 30
0.0
 40
1.017997
 50
187.07670400000001
 51
241.468402
  0
LINE
  5
3D
  8
0
 62
     7
 10
52.520099999999999
 20
85.948400000000007
 30
0.0
 11
52.249899999999997
 21
88.301500000000004
 31
0.0
  0
ARC
  5
3E
  8
0
 62
     7
 10
139.92067800000001
 20
181.14546799999991
 30
0.0
 40
18.000052
 50
0.00001
 51
89.999980000000008
  0
ARC
  5
3F
  8
0
 62
     7
 10
139.92068499999999
 20
181.14546799999991
 30
0.0
 40
18.000052
 50
90.0
 51
179.99996999999991
  0
ARC
  5
40
  8
0
 62
     7
 10
139.9207649999999
 20
181.14538200000001
 30
0.0
 40
18.000132000000001
 50
179.999696
 51
269.99974600000002
  0
ARC
  5
41
  8
0
 62
     7
 10
139.92059199999991
 20
181.14538899999991
 30
0.0
 40
18.000138
 50
270.000294
 51
0.000264
  0
ARC
  5
42
  8
0
 62
     7
 10
62.580205999999997
 20
181.145467
 30
0.0
 40
26.200120999999999
 50
0.00001
 51
89.999980000000008
  0
ARC
  5
43
  8
0
 62
     7
 10
62.580215000000003
 20
181.145467
 30
0.0
 40
26.200120999999999
 50
90.0
 51
179.99996999999991
  0
ARC
  5
44
  8
0
 62
     7
 10
62.580292000000007
 20
181.14538099999999
 30
0.0
 40
26.200198
 50
179.99978200000001
 51
269.99983099999997
  0
ARC
  5
45
  8
0
 62
     7
 10
62.580119999999987
 20
181.14538999999999
 30
0.0
 40
26.200206999999999
 50
270.00020799999987
 51
0.000178
  0
ARC
  5
46
  8
0
 62
     7
 10
88.172252000000015
 20
103.229193
 30
0.0
 40
0.415007
 50
2.9441890000000002
 51
87.976495
  0
ARC
  5
47
  8
0
 62
     7
 10
36.988233999999999
 20
103.228951
 30
0.0
 40
0.415257
 50
92.055072999999979
 51
177.024203
  0
ARC
  5
48
  8
0
 62
     7
 10
62.576853
 20
117.68658000000001
 30
0.0
 40
30.596303999999989
 50
238.33922000000001
 51
249.00563099999991
  0
ARC
  5
49
  8
0
 62
     7
 10
62.563496000000001
 20
117.726795
 30
0.0
 40
30.640979000000002
 50
291.00218799999999
 51
301.65300200000001
  0
ARC
  5
4A
  8
0
 62
     7
 10
62.580123
 20
181.14555599999991
 30
0.0
 40
7.999994
 50
359.999393
 51
89.999362999999988
  0
ARC
  5
4B
  8
0
 62
     7
 10
62.580212000000003
 20
181.1454699999999
 30
0.0
 40
8.0000800000000005
 50
90.0
 51
179.99996999999991
  0
ARC
  5
4C
  8
0
 62
     7
 10
62.580208999999989
 20
181.1454699999999
 30
0.0
 40
8.0000780000000002
 50
179.99996999999991
 51
270.00002000000001
  0
ARC
  5
4D
  8
0
 62
     7
 10
62.580123
 20
181.145387
 30
0.0
 40
7.999994
 50
270.00063699999998
 51
0.000607
  0
ARC
  5
4E
  8
0
 62
     7
 10
62.580123999999998
 20
181.14555699999991
 30
0.0
 40
1.9999769999999999
 50
359.99754300000001
 51
89.997512999999984
  0
ARC
  5
4F
  8
0
 62
     7
 10
62.580210999999998
 20
181.1454709999999
 30
0.0
 40
2.000062999999999
 50
90.0
 51
179.99996999999991
  0
ARC
  5
50
  8
0
 62
     7
 10
62.580210000000001
 20
181.1454709999999
 30
0.0
 40
2.0000619999999989
 50
179.99996999999991
 51
270.00002000000001
  0
ARC
  5
51
  8
0
 62
     7
 10
62.580123999999998
 20
181.145386
 30
0.0
 40
1.9999769999999999
 50
270.00248699999997
 51
0.002457
  0
LINE
  5
52
  8
0
  6
AIGENLINE001
 62
     7
 10
62.580199999999998
 20
77.577500000000001
 30
0.0
 11
62.580199999999998
 21
106.41799999999991
 31
0.0
  0
LINE
  5
53
  8
0
 62
     7
 10
88.586699999999993
 20
103.251
 30
0.0
 11
88.780299999999997
 21
91.643900000000002
 31
0.0
  0
LINE
  5
54
  8
0
 62
     7
 10
90.360600000000005
 20
91.643900000000002
 30
0.0
 11
97.335599999999999
 21
91.643900000000002
 31
0.0
  0
LINE
  5
55
  8
0
 62
     7
 10
90.527899999999988
 20
103.64400000000001
 30
0.0
 11
105.1549999999999
 21
103.64400000000001
 31
0.0
  0
LINE
  5
56
  8
0
 62
     7
 10
71.351299999999995
 20
79.643900000000002
 30
0.0
 11
105.1549999999999
 21
79.643900000000002
 31
0.0
  0
LINE
  5
57
  8
0
 62
     7
 10
36.380099999999992
 20
91.643900000000002
 30
0.0
 11
88.780299999999997
 21
91.643900000000002
 31
0.0
  0
LINE
  5
58
  8
0
 62
     7
 10
36.380099999999992
 20
91.643900000000002
 30
0.0
 11
36.573500000000003
 21
103.251
 31
0.0
  0
LINE
  5
59
  8
0
 62
     7
 10
36.973300000000002
 20
103.64400000000001
 30
0.0
 11
88.186899999999994
 21
103.64400000000001
 31
0.0
  0
LINE
  5
5A
  8
0
 62
     7
 10
55.580100000000002
 20
79.643900000000002
 30
0.0
 11
69.580200000000005
 21
79.643900000000002
 31
0.0
  0
ARC
  5
5B
  8
0
 62
     7
 10
62.580292000000007
 20
181.14538099999999
 30
0.0
 40
26.000218
 50
0.0002
 51
90.000169999999983
  0
ARC
  5
5C
  8
0
 62
     7
 10
62.580128999999999
 20
181.14538099999999
 30
0.0
 40
26.000218
 50
89.999809999999997
 51
179.99977999999999
  0
ARC
  5
5D
  8
0
 62
     7
 10
62.580119999999987
 20
181.14555300000001
 30
0.0
 40
26.000209000000002
 50
180.00020000000001
 51
270.00020999999992
  0
ARC
  5
5E
  8
0
 62
     7
 10
62.580292000000007
 20
181.14556200000001
 30
0.0
 40
26.000218
 50
269.99982999999992
 51
359.99979999999999
  0
LINE
  5
5F
  8
0
 62
     7
 10
97.203299999999999
 20
101.43299999999989
 30
0.0
 11
96.611099999999993
 21
103.64400000000001
 31
0.0
  0
LINE
  5
60
  8
0
 62
     7
 10
96.611099999999993
 20
103.64400000000001
 30
0.0
 11
96.018699999999995
 21
101.43299999999989
 31
0.0
  0
LINE
  5
61
  8
0
 62
     7
 10
96.018699999999995
 20
101.43299999999989
 30
0.0
 11
97.203299999999999
 21
101.43299999999989
 31
0.0
  0
LINE
  5
62
  8
0
 62
     7
 10
96.033299999999997
 20
93.854600000000005
 30
0.0
 11
96.625500000000017
 21
91.643900000000002
 31
0.0
  0
LINE
  5
63
  8
0
 62
     7
 10
96.625500000000017
 20
91.643900000000002
 30
0.0
 11
97.2179
 21
93.854600000000005
 31
0.0
  0
LINE
  5
64
  8
0
 62
     7
 10
97.2179
 20
93.854600000000005
 30
0.0
 11
96.033299999999997
 21
93.854600000000005
 31
0.0
  0
LINE
  5
65
  8
0
 62
     7
 10
96.618300000000005
 20
103.64400000000001
 30
0.0
 11
96.618300000000005
 21
91.643900000000002
 31
0.0
  0
LINE
  5
66
  8
0
 62
     7
 10
38.790300000000002
 20
145.37299999999999
 30
0.0
 11
36.579900000000002
 21
144.78100000000001
 31
0.0
  0
LINE
  5
67
  8
0
 62
     7
 10
36.579900000000002
 20
144.78100000000001
 30
0.0
 11
38.790300000000002
 21
144.18899999999991
 31
0.0
  0
LINE
  5
68
  8
0
 62
     7
 10
38.790300000000002
 20
144.18899999999991
 30
0.0
 11
38.790300000000002
 21
145.37299999999999
 31
0.0
  0
LINE
  5
69
  8
0
 62
     7
 10
86.370000000000005
 20
144.19599999999991
 30
0.0
 11
88.580500000000001
 21
144.7879999999999
 31
0.0
  0
LINE
  5
6A
  8
0
 62
     7
 10
88.580500000000001
 20
144.7879999999999
 30
0.0
 11
86.370000000000005
 21
145.381
 31
0.0
  0
LINE
  5
6B
  8
0
 62
     7
 10
86.370000000000005
 20
145.381
 30
0.0
 11
86.370000000000005
 21
144.19599999999991
 31
0.0
  0
LINE
  5
6C
  8
0
 62
     7
 10
128.33699999999999
 20
170.399
 30
0.0
 11
127.193
 21
168.41699999999989
 31
0.0
  0
LINE
  5
6D
  8
0
 62
     7
 10
127.193
 20
168.41699999999989
 30
0.0
 11
129.17500000000001
 21
169.56200000000001
 31
0.0
  0
LINE
  5
6E
  8
0
 62
     7
 10
129.17500000000001
 20
169.56200000000001
 30
0.0
 11
128.33699999999999
 21
170.399
 31
0.0
  0
LINE
  5
6F
  8
0
 62
     7
 10
151.50399999999991
 20
191.89199999999991
 30
0.0
 11
152.648
 21
193.874
 31
0.0
  0
LINE
  5
70
  8
0
 62
     7
 10
152.648
 20
193.874
 30
0.0
 11
150.666
 21
192.7299999999999
 31
0.0
  0
LINE
  5
71
  8
0
 62
     7
 10
150.666
 20
192.7299999999999
 30
0.0
 11
151.50399999999991
 21
191.89199999999991
 31
0.0
  0
LINE
  5
72
  8
0
 62
     7
 10
127.193
 20
168.41699999999989
 30
0.0
 11
152.648
 21
193.874
 31
0.0
  0
LINE
  5
73
  8
0
 62
     7
 10
36.579900000000002
 20
144.78100000000001
 30
0.0
 11
88.580500000000001
 21
144.78100000000001
 31
0.0
  0
LINE
  5
74
  8
0
 62
     7
 10
105.03100000000001
 20
101.43299999999989
 30
0.0
 11
104.4379999999999
 21
103.64400000000001
 31
0.0
  0
LINE
  5
75
  8
0
 62
     7
 10
104.4379999999999
 20
103.64400000000001
 30
0.0
 11
103.846
 21
101.43299999999989
 31
0.0
  0
LINE
  5
76
  8
0
 62
     7
 10
103.846
 20
101.43299999999989
 30
0.0
 11
105.03100000000001
 21
101.43299999999989
 31
0.0
  0
LINE
  5
77
  8
0
 62
     7
 10
103.861
 20
81.854600000000005
 30
0.0
 11
104.4529999999999
 21
79.643900000000002
 31
0.0
  0
LINE
  5
78
  8
0
 62
     7
 10
104.4529999999999
 20
79.643900000000002
 30
0.0
 11
105.045
 21
81.854600000000005
 31
0.0
  0
LINE
  5
79
  8
0
 62
     7
 10
105.045
 20
81.854600000000005
 30
0.0
 11
103.861
 21
81.854600000000005
 31
0.0
  0
LINE
  5
7A
  8
0
 62
     7
 10
104.4459999999999
 20
103.64400000000001
 30
0.0
 11
104.4459999999999
 21
79.643900000000002
 31
0.0
  0
LINE
  5
7B
  8
0
 62
     7
 10
88.580500000000001
 20
174.53999999999999
 30
0.0
 11
88.580500000000001
 21
144.07099999999991
 31
0.0
  0
LINE
  5
7C
  8
0
 62
     7
 10
36.579900000000002
 20
174.53999999999999
 30
0.0
 11
36.579900000000002
 21
144.07099999999991
 31
0.0
  0
LINE
  5
7D
  8
0
 62
     7
 10
56.790500000000002
 20
158.548
 30
0.0
 11
54.580100000000002
 21
157.95599999999999
 31
0.0
  0
LINE
  5
7E
  8
0
 62
     7
 10
54.580100000000002
 20
157.95599999999999
 30
0.0
 11
56.790500000000002
 21
157.364
 31
0.0
  0
LINE
  5
7F
  8
0
 62
     7
 10
56.790500000000002
 20
157.364
 30
0.0
 11
56.790500000000002
 21
158.548
 31
0.0
  0
LINE
  5
80
  8
0
 62
     7
 10
68.369600000000005
 20
157.37799999999999
 30
0.0
 11
70.580100000000002
 21
157.971
 31
0.0
  0
LINE
  5
81
  8
0
 62
     7
 10
70.580100000000002
 20
157.971
 30
0.0
 11
68.369600000000005
 21
158.5629999999999
 31
0.0
  0
LINE
  5
82
  8
0
 62
     7
 10
68.369600000000005
 20
158.5629999999999
 30
0.0
 11
68.369600000000005
 21
157.37799999999999
 31
0.0
  0
LINE
  5
83
  8
0
 62
     7
 10
54.580100000000002
 20
157.96299999999991
 30
0.0
 11
70.580100000000002
 21
157.96299999999991
 31
0.0
  0
LINE
  5
84
  8
0
 62
     7
 10
58.183199999999992
 20
175.91099999999989
 30
0.0
 11
59.327500000000001
 21
177.893
 31
0.0
  0
LINE
  5
85
  8
0
 62
     7
 10
59.327500000000001
 20
177.893
 30
0.0
 11
57.345500000000001
 21
176.74799999999991
 31
0.0
  0
LINE
  5
86
  8
0
 62
     7
 10
57.345500000000001
 20
176.74799999999991
 30
0.0
 11
58.183199999999992
 21
175.91099999999989
 31
0.0
  0
LINE
  5
87
  8
0
 62
     7
 10
66.981999999999985
 20
186.374
 30
0.0
 11
65.837699999999998
 21
184.393
 31
0.0
  0
LINE
  5
88
  8
0
 62
     7
 10
65.837699999999998
 20
184.393
 30
0.0
 11
67.819699999999997
 21
185.53700000000001
 31
0.0
  0
LINE
  5
89
  8
0
 62
     7
 10
67.819699999999997
 20
185.53700000000001
 30
0.0
 11
66.981999999999985
 21
186.374
 31
0.0
  0
LINE
  5
8A
  8
0
 62
     7
 10
70.369299999999996
 20
188.934
 30
0.0
 11
57.2179
 21
175.78299999999999
 31
0.0
  0
LINE
  5
8B
  8
0
 62
     7
 10
70.580100000000002
 20
178.65899999999999
 30
0.0
 11
70.580100000000002
 21
157.2529999999999
 31
0.0
  0
LINE
  5
8C
  8
0
 62
     7
 10
54.580100000000002
 20
178.65899999999999
 30
0.0
 11
54.580100000000002
 21
157.2529999999999
 31
0.0
  0
LINE
  5
8D
  8
0
 62
     7
 10
66.790499999999994
 20
166.61699999999999
 30
0.0
 11
64.580100000000002
 21
166.02500000000001
 31
0.0
  0
LINE
  5
8E
  8
0
 62
     7
 10
64.580100000000002
 20
166.02500000000001
 30
0.0
 11
66.790499999999994
 21
165.43199999999999
 31
0.0
  0
LINE
  5
8F
  8
0
 62
     7
 10
66.790499999999994
 20
165.43199999999999
 30
0.0
 11
66.790499999999994
 21
166.61699999999999
 31
0.0
  0
LINE
  5
90
  8
0
 62
     7
 10
58.369599999999998
 20
165.43199999999999
 30
0.0
 11
60.580100000000002
 21
166.02500000000001
 31
0.0
  0
LINE
  5
91
  8
0
 62
     7
 10
60.580100000000002
 20
166.02500000000001
 30
0.0
 11
58.369599999999998
 21
166.61699999999999
 31
0.0
  0
LINE
  5
92
  8
0
 62
     7
 10
58.369599999999998
 20
166.61699999999999
 30
0.0
 11
58.369599999999998
 21
165.43199999999999
 31
0.0
  0
LINE
  5
93
  8
0
 62
     7
 10
56.384900000000002
 20
166.02500000000001
 30
0.0
 11
68.619799999999984
 21
166.02500000000001
 31
0.0
  0
LINE
  5
94
  8
0
 62
     7
 10
64.580100000000002
 20
166.8829999999999
 30
0.0
 11
64.580100000000002
 21
165.2359999999999
 31
0.0
  0
LINE
  5
95
  8
0
 62
     7
 10
64.580100000000002
 20
179.64699999999999
 30
0.0
 11
64.580100000000002
 21
171.41499999999999
 31
0.0
  0
LINE
  5
96
  8
0
 62
     7
 10
60.580100000000002
 20
179.64699999999999
 30
0.0
 11
60.580100000000002
 21
165.315
 31
0.0
  0
ARC
  5
97
  8
0
  6
AIGENLINE002
 62
     7
 10
62.580210000000001
 20
181.1454709999999
 30
0.0
 40
4.5999210000000001
 50
0.00001
 51
89.999980000000008
  0
ARC
  5
98
  8
0
  6
AIGENLINE002
 62
     7
 10
62.580125000000002
 20
181.145385
 30
0.0
 40
4.6000069999999988
 50
89.998926999999995
 51
179.998897
  0
ARC
  5
99
  8
0
  6
AIGENLINE002
 62
     7
 10
62.580210000000001
 20
181.1454709999999
 30
0.0
 40
4.6000920000000001
 50
179.99996999999991
 51
270.00002000000001
  0
ARC
  5
9A
  8
0
  6
AIGENLINE002
 62
     7
 10
62.580123999999998
 20
181.145386
 30
0.0
 40
4.6000069999999988
 50
270.00109300000003
 51
0.001063
  0
LINE
  5
9B
  8
0
  6
AIGENLINE001
 62
     7
 10
139.92099999999991
 20
159.52999999999989
 30
0.0
 11
139.92099999999991
 21
203.19399999999999
 31
0.0
  0
LINE
  5
9C
  8
0
  6
AIGENLINE001
 62
     7
 10
118.227
 20
181.14500000000001
 30
0.0
 11
161.56999999999991
 21
181.14500000000001
 31
0.0
  0
LINE
  5
9D
  8
0
  6
AIGENLINE001
 62
     7
 10
62.580199999999998
 20
171.61299999999989
 30
0.0
 11
62.580199999999998
 21
210.15199999999999
 31
0.0
  0
LINE
  5
9E
  8
0
 62
     7
 10
70.369299999999996
 20
188.934
 30
0.0
 11
77.124600000000001
 21
188.934
 31
0.0
  0
LINE
  5
9F
  8
0
  6
AIGENLINE001
 62
     7
 10
34.082900000000002
 20
181.14500000000001
 30
0.0
 11
91.763799999999989
 21
181.14500000000001
 31
0.0
  0
LINE
  5
A0
  8
_________2
 62
     7
 10
205.30099999999999
 20
127.411
 30
0.0
 11
183.55000000000001
 21
127.411
 31
0.0
  0
LINE
  5
A1
  8
_________2
 62
     7
 10
100.2999999999999
 20
-4.0910799999999998
 30
0.0
 11
100.2999999999999
 21
-21.071400000000001
 31
0.0
  0
LINE
  5
A2
  8
_________2
 62
     7
 10
100.2999999999999
 20
275.93099999999993
 30
0.0
 11
100.2999999999999
 21
258.911
 31
0.0
  0
LINE
  5
A3
  8
_________2
 62
     7
 10
17.049499999999998
 20
127.411
 30
0.0
 11
-4.70052
 21
127.411
 31
0.0
  0
LINE
  5
A4
  8
_________2
 62
     7
 10
76.741
 20
29.8047
 30
0.0
 11
74.554699999999997
 21
29.8047
 31
0.0
  0
LINE
  5
A5
  8
_________2
 62
     7
 10
77.233699999999999
 20
29.8047
 30
0.0
 11
76.981499999999997
 21
29.8047
 31
0.0
  0
LINE
  5
A6
  8
_________2
 62
     7
 10
77.726299999999995
 20
29.8047
 30
0.0
 11
80.651200000000003
 21
29.8047
 31
0.0
  0
LINE
  5
A7
  8
_________2
 62
     7
 10
77.233699999999999
 20
29.8047
 30
0.0
 11
77.485500000000002
 21
29.8047
 31
0.0
  0
LINE
  5
A8
  8
_________2
 62
     7
 10
70.837100000000007
 20
29.8047
 30
0.0
 11
68.650499999999994
 21
29.8047
 31
0.0
  0
LINE
  5
A9
  8
_________2
 62
     7
 10
71.329400000000007
 20
29.8047
 30
0.0
 11
71.077600000000004
 21
29.8047
 31
0.0
  0
LINE
  5
AA
  8
_________2
 62
     7
 10
71.329400000000007
 20
30.2974
 30
0.0
 11
71.329400000000007
 21
32.484400000000001
 31
0.0
  0
LINE
  5
AB
  8
_________2
 62
     7
 10
71.329400000000007
 20
29.8047
 30
0.0
 11
71.329400000000007
 21
30.056899999999992
 31
0.0
  0
LINE
  5
AC
  8
_________2
 62
     7
 10
71.822100000000006
 20
29.8047
 30
0.0
 11
74.009
 21
29.8047
 31
0.0
  0
LINE
  5
AD
  8
_________2
 62
     7
 10
71.329400000000007
 20
29.8047
 30
0.0
 11
71.581599999999995
 21
29.8047
 31
0.0
  0
LINE
  5
AE
  8
_________2
 62
     7
 10
71.329400000000007
 20
29.312799999999999
 30
0.0
 11
71.329400000000007
 21
27.125800000000002
 31
0.0
  0
LINE
  5
AF
  8
_________2
 62
     7
 10
71.329400000000007
 20
29.8047
 30
0.0
 11
71.329400000000007
 21
29.5532
 31
0.0
  0
LINE
  5
B0
  8
_________2
 62
     7
 10
75.040499999999994
 20
28.5852
 30
0.0
 11
80.218500000000006
 21
27.720400000000001
 31
0.0
  0
LINE
  5
B1
  8
_________2
 62
     7
 10
75.040499999999994
 20
31.0243
 30
0.0
 11
80.218500000000006
 21
31.889700000000001
 31
0.0
  0
LINE
  5
B2
  8
_________2
 62
     7
 10
80.218500000000006
 20
27.720400000000001
 30
0.0
 11
80.218500000000006
 21
31.889700000000001
 31
0.0
  0
LINE
  5
B3
  8
_________2
 62
     7
 10
75.040499999999994
 20
28.5852
 30
0.0
 11
75.040499999999994
 21
31.0243
 31
0.0
  0
ARC
  5
B4
  8
_________2
 62
     7
 10
71.28285600000001
 20
29.757811
 30
0.0
 40
1.2673589999999999
 50
2.122214
 51
87.893958999999995
  0
ARC
  5
B5
  8
_________2
 62
     7
 10
71.375959999999992
 20
29.758213000000001
 30
0.0
 40
1.2669559999999991
 50
92.104701000000006
 51
177.8952689999999
  0
ARC
  5
B6
  8
_________2
 62
     7
 10
71.376357999999996
 20
29.851671
 30
0.0
 40
1.2673680000000001
 50
182.12203600000001
 51
267.877993
  0
ARC
  5
B7
  8
_________2
 62
     7
 10
71.282531999999989
 20
29.851998999999989
 30
0.0
 40
1.267695999999999
 50
272.12015300000002
 51
357.863674
  0
ARC
  5
B8
  8
_________2
 62
     7
 10
71.329430000000002
 20
29.804742999999998
 30
0.0
 40
2.0849849999999992
 50
0.00001
 51
89.999980000000008
  0
ARC
  5
B9
  8
_________2
 62
     7
 10
71.329603000000006
 20
29.804915000000001
 30
0.0
 40
2.084813
 50
90.004733999999999
 51
180.00474399999999
  0
ARC
  5
BA
  8
_________2
 62
     7
 10
71.409106000000008
 20
29.884775999999999
 30
0.0
 40
2.1657950000000001
 50
182.11776599999999
 51
267.89173399999999
  0
ARC
  5
BB
  8
_________2
 62
     7
 10
71.249459000000002
 20
29.885429999999989
 30
0.0
 40
2.1664590000000001
 50
272.11546800000002
 51
357.86560400000002
  0
TEXT
  5
BC
  8
_________2
 62
     7
 10
104.605
 20
1.6794899999999999
 30
0.0
 40
3.0923400000000001
  1
図番
 41
0.5
  0
LINE
  5
BD
  8
_________2
 62
     7
 10
103.55
 20
5.9087199999999989
 30
0.0
 11
183.55099999999999
 21
5.9087199999999989
 31
0.0
  0
TEXT
  5
BE
  8
_________2
 62
     7
 10
104.605
 20
11.679299999999991
 30
0.0
 40
3.0923400000000001
  1
品番
 41
0.5
  0
TEXT
  5
BF
  8
_________2
 62
     7
 10
104.605
 20
31.818100000000001
 30
0.0
 40
3.0923400000000001
  1
名称
 41
0.5
  0
TEXT
  5
C0
  8
_________2
 62
     7
 10
91.845058333333341
 20
26.821999999999989
 30
0.0
 40
3.6545800000000002
  1
mm
 41
0.5
 72
     1
 11
93.367800000000003
 21
26.821999999999989
 31
0.0
  0
TEXT
  5
C1
  8
_________2
 62
     7
 10
85.643199999999993
 20
31.818100000000001
 30
0.0
 40
3.0923400000000001
  1
単位
 41
0.5
  0
TEXT
  5
C2
  8
_________2
 62
     7
 10
85.643199999999993
 20
19.410799999999991
 30
0.0
 40
3.0923400000000001
  1
尺度
 41
0.5
  0
TEXT
  5
C3
  8
_________2
 62
     7
 10
90.548758666666686
 20
13.2179
 30
0.0
 40
3.6545800000000002
  1
1 ： 5
 41
0.5
 72
     1
 11
93.959699999999998
 21
13.2179
 31
0.0
  0
TEXT
  5
C4
  8
_________2
 62
     7
 10
138.30240000000001
 20
9.1078600000000005
 30
0.0
 40
3.9357000000000002
  1
CEL400
 41
0.5
 72
     1
 11
143.55000000000001
 21
9.1078600000000005
 31
0.0
  0
TEXT
  5
C5
  8
_________2
 62
     7
 10
138.30240000000001
 20
-0.8926299999999999
 30
0.0
 40
3.9357000000000002
  1
CEL400
 41
0.5
 72
     1
 11
143.55000000000001
 21
-0.8926299999999999
 31
0.0
  0
TEXT
  5
C6
  8
_________2
 62
     7
 10
109.179
 20
24.2257
 30
0.0
 40
3.9357000000000002
  1
手洗器（丸型）
 41
0.5
  0
TEXT
  5
C7
  8
_________2
 62
     7
 10
39.425300333333333
 20
13.603
 30
0.0
 40
3.6545800000000002
  1
福田
 41
0.5
 72
     1
 11
41.313499999999998
 21
13.603
 31
0.0
  0
TEXT
  5
C8
  8
_________2
 62
     7
 10
20.790090666666661
 20
13.603
 30
0.0
 40
3.6545800000000002
  1
石原
 41
0.5
 72
     1
 11
22.73919999999999
 21
13.603
 31
0.0
  0
TEXT
  5
C9
  8
_________2
 62
     7
 10
67.785399999999996
 20
13.2179
 30
0.0
 40
3.6545800000000002
  1
04.08.27
 41
0.5
  0
TEXT
  5
CA
  8
_________2
 62
     7
 10
66.593100000000007
 20
19.410799999999991
 30
0.0
 40
3.0923400000000001
  1
日付
 41
0.5
  0
TEXT
  5
CB
  8
_________2
 62
     7
 10
29.639399999999998
 20
19.410799999999991
 30
0.0
 40
3.0923400000000001
  1
検図
 41
0.5
  0
TEXT
  5
CC
  8
_________2
 62
     7
 10
18.021100000000001
 20
5.21143
 30
0.0
 40
3.0923400000000001
  1
備考
 41
0.5
  0
TEXT
  5
CD
  8
_________2
 62
     7
 10
18.021100000000001
 20
19.410799999999991
 30
0.0
 40
3.0923400000000001
  1
製図
 41
0.5
  0
TEXT
  5
CE
  8
_________2
 62
     7
 10
23.788465333333338
 20
27.936800000000002
 30
0.0
 40
4.4979399999999989
  1
セラトレーディング株式会社
 41
0.5
 72
     1
 11
41.180500000000002
 21
27.936800000000002
 31
0.0
  0
LINE
  5
CF
  8
_________2
 62
     7
 10
183.55099999999999
 20
-4.0910799999999998
 30
0.0
 11
17.049499999999998
 21
-4.0910799999999998
 31
0.0
  0
LINE
  5
D0
  8
_________2
 62
     7
 10
17.049499999999998
 20
-4.0910799999999998
 30
0.0
 11
17.049499999999998
 21
258.911
 31
0.0
  0
LINE
  5
D1
  8
_________2
 62
     7
 10
17.049499999999998
 20
258.911
 30
0.0
 11
183.55099999999999
 21
258.911
 31
0.0
  0
LINE
  5
D2
  8
_________2
 62
     7
 10
183.55099999999999
 20
258.911
 30
0.0
 11
183.55099999999999
 21
-4.0910799999999998
 31
0.0
  0
LINE
  5
D3
  8
_________2
 62
     7
 10
65.549599999999998
 20
9.4089600000000004
 30
0.0
 11
65.549599999999998
 21
35.908799999999999
 31
0.0
  0
LINE
  5
D4
  8
_________2
 62
     7
 10
84.549700000000016
 20
9.4089600000000004
 30
0.0
 11
84.549700000000016
 21
35.908799999999999
 31
0.0
  0
LINE
  5
D5
  8
_________2
 62
     7
 10
103.55
 20
-4.0910799999999998
 30
0.0
 11
103.55
 21
35.908799999999999
 31
0.0
  0
LINE
  5
D6
  8
_________2
 62
     7
 10
28.549299999999992
 20
9.4089600000000004
 30
0.0
 11
28.549299999999992
 21
23.409199999999998
 31
0.0
  0
LINE
  5
D7
  8
_________2
 62
     7
 10
17.049499999999998
 20
9.4089600000000004
 30
0.0
 11
103.55
 21
9.4089600000000004
 31
0.0
  0
LINE
  5
D8
  8
_________2
 62
     7
 10
17.049499999999998
 20
23.409199999999998
 30
0.0
 11
103.55
 21
23.409199999999998
 31
0.0
  0
LINE
  5
D9
  8
_________2
 62
     7
 10
103.55
 20
15.9085
 30
0.0
 11
183.55099999999999
 21
15.9085
 31
0.0
  0
LINE
  5
DA
  8
_________2
 62
     7
 10
17.049499999999998
 20
35.908799999999999
 30
0.0
 11
183.55099999999999
 21
35.908799999999999
 31
0.0
  0
ENDSEC
  0
EOF
