  0
SECTION
  2
HEADER
  9
$ACADVER
  1
AC1009
  9
$INSBASE
 10
0.0
 20
0.0
 30
0.0
  9
$EXTMIN
 10
-4.70052
 20
-21.071400000000001
 30
0.0
  9
$EXTMAX
 10
205.30099999999999
 20
275.93099999999998
 30
0.0
  9
$LIMMIN
 10
0.0
 20
0.0
  9
$LIMMAX
 10
12.0
 20
9.0
  9
$ORTHOMODE
 70
     0
  9
$REGENMODE
 70
     1
  9
$FILLMODE
 70
     1
  9
$QTEXTMODE
 70
     0
  9
$MIRRTEXT
 70
     1
  9
$DRAGMODE
 70
     2
  9
$LTSCALE
 40
1.0
  9
$OSMODE
 70
    37
  9
$ATTMODE
 70
     1
  9
$TEXTSIZE
 40
0.0
  9
$TRACEWID
 40
0.05
  9
$TEXTSTYLE
  7
STANDARD
  9
$CLAYER
  8
0
  9
$CELTYPE
  6
CONTINUOUS
  9
$CECOLOR
 62
   256
  9
$DIMSCALE
 40
1.0
  9
$DIMASZ
 40
0.18
  9
$DIMEXO
 40
0.0625
  9
$DIMDLI
 40
0.38
  9
$DIMRND
 40
0.0
  9
$DIMDLE
 40
0.0
  9
$DIMEXE
 40
0.18
  9
$DIMTP
 40
0.0
  9
$DIMTM
 40
0.0
  9
$DIMTXT
 40
0.18
  9
$DIMCEN
 40
0.09
  9
$DIMTSZ
 40
0.0
  9
$DIMTOL
 70
     0
  9
$DIMLIM
 70
     0
  9
$DIMTIH
 70
     1
  9
$DIMTOH
 70
     1
  9
$DIMSE1
 70
     0
  9
$DIMSE2
 70
     0
  9
$DIMTAD
 70
     0
  9
$DIMZIN
 70
     0
  9
$DIMBLK
  1

  9
$DIMASO
 70
     1
  9
$DIMSHO
 70
     1
  9
$DIMPOST
  1

  9
$DIMAPOST
  1

  9
$DIMALT
 70
     0
  9
$DIMALTD
 70
     2
  9
$DIMALTF
 40
25.399999999999999
  9
$DIMLFAC
 40
1.0
  9
$DIMTOFL
 70
     0
  9
$DIMTVP
 40
0.0
  9
$DIMTIX
 70
     0
  9
$DIMSOXD
 70
     0
  9
$DIMSAH
 70
     0
  9
$DIMBLK1
  1

  9
$DIMBLK2
  1

  9
$DIMSTYLE
  2
STANDARD
  9
$DIMCLRD
 70
     0
  9
$DIMCLRE
 70
     0
  9
$DIMCLRT
 70
     0
  9
$DIMTFAC
 40
1.0
  9
$DIMGAP
 40
0.09
  9
$LUNITS
 70
     2
  9
$LUPREC
 70
     4
  9
$SKETCHINC
 40
0.1
  9
$FILLETRAD
 40
0.0
  9
$AUNITS
 70
     0
  9
$AUPREC
 70
     0
  9
$MENU
  1
.
  9
$ELEVATION
 40
0.0
  9
$PELEVATION
 40
0.0
  9
$THICKNESS
 40
0.0
  9
$LIMCHECK
 70
     0
  9
$BLIPMODE
 70
     0
  9
$CHAMFERA
 40
0.0
  9
$CHAMFERB
 40
0.0
  9
$SKPOLY
 70
     0
  9
$TDCREATE
 40
2444972.375
  9
$TDUPDATE
 40
2458214.2496904288
  9
$TDINDWG
 40
0.000026794
  9
$TDUSRTIMER
 40
0.000026794
  9
$USRTIMER
 70
     1
  9
$ANGBASE
 50
0.0
  9
$ANGDIR
 70
     0
  9
$PDMODE
 70
     0
  9
$PDSIZE
 40
0.0
  9
$PLINEWID
 40
0.0
  9
$COORDS
 70
     1
  9
$SPLFRAME
 70
     0
  9
$SPLINETYPE
 70
     6
  9
$SPLINESEGS
 70
     8
  9
$ATTDIA
 70
     1
  9
$ATTREQ
 70
     1
  9
$HANDLING
 70
     1
  9
$HANDSEED
  5
2A4
  9
$SURFTAB1
 70
     6
  9
$SURFTAB2
 70
     6
  9
$SURFTYPE
 70
     6
  9
$SURFU
 70
     6
  9
$SURFV
 70
     6
  9
$UCSNAME
  2

  9
$UCSORG
 10
0.0
 20
0.0
 30
0.0
  9
$UCSXDIR
 10
1.0
 20
0.0
 30
0.0
  9
$UCSYDIR
 10
0.0
 20
1.0
 30
0.0
  9
$PUCSNAME
  2

  9
$PUCSORG
 10
0.0
 20
0.0
 30
0.0
  9
$PUCSXDIR
 10
1.0
 20
0.0
 30
0.0
  9
$PUCSYDIR
 10
0.0
 20
1.0
 30
0.0
  9
$USERI1
 70
     0
  9
$USERI2
 70
     0
  9
$USERI3
 70
     0
  9
$USERI4
 70
     0
  9
$USERI5
 70
     0
  9
$USERR1
 40
0.0
  9
$USERR2
 40
0.0
  9
$USERR3
 40
0.0
  9
$USERR4
 40
0.0
  9
$USERR5
 40
0.0
  9
$WORLDVIEW
 70
     1
  9
$SHADEDGE
 70
     3
  9
$SHADEDIF
 70
    70
  9
$TILEMODE
 70
     1
  9
$MAXACTVP
 70
    48
  9
$PLIMCHECK
 70
     0
  9
$PEXTMIN
 10
1.0000000000000000E+020
 20
1.0000000000000000E+020
 30
1.0000000000000000E+020
  9
$PEXTMAX
 10
-1.0000000000000000E+020
 20
-1.0000000000000000E+020
 30
-1.0000000000000000E+020
  9
$PLIMMIN
 10
0.0
 20
0.0
  9
$PLIMMAX
 10
12.0
 20
9.0
  9
$UNITMODE
 70
     0
  9
$VISRETAIN
 70
     1
  9
$PLINEGEN
 70
     0
  9
$PSLTSCALE
 70
     1
  0
ENDSEC
  0
SECTION
  2
TABLES
  0
TABLE
  2
VPORT
 70
     1
  0
VPORT
  2
*ACTIVE
 70
     0
 10
0.0
 20
0.0
 11
1.0
 21
1.0
 12
190.8818955579932
 22
127.4298
 13
0.0
 23
0.0
 14
1.0
 24
1.0
 15
0.0
 25
0.0
 16
0.0
 26
0.0
 36
1.0
 17
0.0
 27
0.0
 37
0.0
 40
280.9492874949953
 41
2.298642533936651
 42
50.0
 43
0.0
 44
0.0
 50
0.0
 51
0.0
 71
     0
 72
   100
 73
     1
 74
     1
 75
     0
 76
     0
 77
     0
 78
     0
  0
ENDTAB
  0
TABLE
  2
LTYPE
 70
     3
  0
LTYPE
  2
CONTINUOUS
 70
     0
  3
Solid line
 72
    65
 73
     0
 40
0.0
  0
LTYPE
  2
AIGENLINE001
 70
     0
  3
generate AI->DXF Converter
 72
    65
 73
     2
 40
1.5522299999999991
 49
0.776115
 49
-0.776115
  0
LTYPE
  2
AIGENLINE002
 70
     0
  3
generate AI->DXF Converter
 72
    65
 73
     2
 40
1.5522299999999991
 49
0.776115
 49
-0.776115
  0
ENDTAB
  0
TABLE
  2
LAYER
 70
     2
  0
LAYER
  2
0
 70
     0
 62
     7
  6
CONTINUOUS
  0
LAYER
  2
_________2
 70
     0
 62
     7
  6
CONTINUOUS
  0
ENDTAB
  0
TABLE
  2
STYLE
 70
     1
  0
STYLE
  2
STANDARD
 70
     0
 40
0.0
 41
0.0
 50
0.0
 71
     0
 42
0.0
  3
TXT
  4
EXTFONT.SHX
  0
ENDTAB
  0
TABLE
  2
VIEW
 70
     0
  0
ENDTAB
  0
TABLE
  2
UCS
 70
     0
  0
ENDTAB
  0
TABLE
  2
APPID
 70
     3
  0
APPID
  2
ACAD
 70
     0
  0
APPID
  2
ACAD_NAV_VCDISPLAY
 70
     0
  0
APPID
  2
ACAD_MLEADERVER
 70
     0
  0
ENDTAB
  0
TABLE
  2
DIMSTYLE
 70
     1
  0
DIMSTYLE
  2
STANDARD
 70
     0
  3

  4

  5

  6

  7

 40
1.0
 41
0.18
 42
0.0625
 43
0.38
 44
0.18
 45
0.0
 46
0.0
 47
0.0
 48
0.0
140
0.18
141
0.09
142
0.0
143
25.399999999999999
144
1.0
145
0.0
146
1.0
147
0.09
 71
     0
 72
     0
 73
     1
 74
     1
 75
     0
 76
     0
 77
     0
 78
     0
170
     0
171
     2
172
     0
173
     0
174
     0
175
     0
176
     0
177
     0
178
     0
  0
ENDTAB
  0
ENDSEC
  0
SECTION
  2
BLOCKS
  0
BLOCK
  8
0
  2
$MODEL_SPACE
 70
     0
 10
0.0
 20
0.0
 30
0.0
  3
$MODEL_SPACE
  1

  0
ENDBLK
  5
1A
  8
0
  0
BLOCK
 67
     1
  8
0
  2
$PAPER_SPACE
 70
     0
 10
0.0
 20
0.0
 30
0.0
  3
$PAPER_SPACE
  1

  0
ENDBLK
  5
17
 67
     1
  8
0
  0
ENDSEC
  0
SECTION
  2
ENTITIES
  0
TEXT
  5
23
  8
0
 62
     7
 10
77.139300000000006
 20
177.12299999999999
 30
0.0
 40
3.0923400000000001
  1
%%c46
 41
0.5
  0
TEXT
  5
24
  8
0
 62
     7
 10
122.92400000000001
 20
219.49199999999999
 30
0.0
 40
3.0923400000000001
  1
R10
 41
0.5
  0
TEXT
  5
25
  8
0
 62
     7
 10
167.30629200000001
 20
219.702
 30
0.0
 40
3.0923400000000001
  1
排水口中心
 41
0.5
 72
     2
 11
176.17099999999999
 21
219.702
 31
0.0
  0
TEXT
  5
26
  8
0
 62
     7
 10
138.71976000000001
 20
152.58099999999999
 30
0.0
 40
3.0923400000000001
  1
カウンター切込寸法
 41
0.5
 72
     1
 11
146.96600000000001
 21
152.58099999999999
 31
0.0
  0
TEXT
  5
27
  8
0
 62
     7
 10
149.31498250000001
 20
162.59100000000001
 30
0.0
 40
3.0923400000000001
  1
150
 41
0.5
 72
     1
 11
150.99000000000001
 21
162.59100000000001
 31
0.0
  0
TEXT
  5
28
  8
0
 62
     7
 10
138.99837249999999
 20
169.40899999999999
 30
0.0
 40
3.0923400000000001
  1
60
 41
0.5
 72
     1
 11
140.15799999999999
 21
169.40899999999999
 31
0.0
  0
TEXT
  5
29
  8
0
 62
     7
 10
157.6193725
 20
169.40899999999999
 30
0.0
 40
3.0923400000000001
  1
90
 41
0.5
 72
     1
 11
158.779
 21
169.40899999999999
 31
0.0
  0
TEXT
  5
2A
  8
0
 62
     7
 10
158.02237249999999
 20
76.362700000000004
 30
0.0
 40
3.0923400000000001
  1
90
 41
0.5
 72
     1
 11
159.18199999999999
 21
76.362700000000004
 31
0.0
  0
TEXT
  5
2B
  8
0
 62
     7
 10
60.792234999999998
 20
153.58000000000001
 30
0.0
 40
3.0923400000000001
  1
300
 41
0.5
 72
     1
 11
62.5961
 21
153.58000000000001
 31
0.0
  0
TEXT
  5
2C
  8
0
 62
     7
 10
84.847882500000011
 20
161.47900000000001
 30
0.0
 40
3.0923400000000001
  1
120
 41
0.5
 72
     1
 11
86.522900000000007
 21
161.47900000000001
 31
0.0
  0
TEXT
  5
2D
  8
0
 62
     7
 10
45.68928249999999
 20
161.47900000000001
 30
0.0
 40
3.0923400000000001
  1
180
 41
0.5
 72
     1
 11
47.3643
 21
161.47900000000001
 31
0.0
  0
TEXT
  5
2E
  8
0
 62
     7
 10
160.50299999999999
 20
201.1493725
 30
0.0
 40
3.0923400000000001
  1
70
 50
90.0
 41
0.5
 72
     1
 11
160.50299999999999
 21
202.309
 31
0.0
  0
TEXT
  5
2F
  8
0
 62
     7
 10
160.50299999999999
 20
184.17037250000001
 30
0.0
 40
3.0923400000000001
  1
70
 50
90.0
 41
0.5
 72
     1
 11
160.50299999999999
 21
185.33000000000001
 31
0.0
  0
TEXT
  5
30
  8
0
 62
     7
 10
124.798
 20
192.4959825
 30
0.0
 40
3.0923400000000001
  1
140
 50
90.0
 41
0.5
 72
     1
 11
124.798
 21
194.17099999999999
 31
0.0
  0
TEXT
  5
31
  8
0
 62
     7
 10
110.76600000000001
 20
192.4959825
 30
0.0
 40
3.0923400000000001
  1
180
 50
90.0
 41
0.5
 72
     1
 11
110.76600000000001
 21
194.17099999999999
 31
0.0
  0
TEXT
  5
32
  8
0
 62
     7
 10
114.965
 20
100.230135
 30
0.0
 40
3.0923400000000001
  1
137
 50
90.0
 41
0.5
 72
     1
 11
114.965
 21
102.03400000000001
 31
0.0
  0
TEXT
  5
33
  8
0
 62
     7
 10
107.854
 20
111.0493725
 30
0.0
 40
3.0923400000000001
  1
60
 50
90.0
 41
0.5
 72
     1
 11
107.854
 21
112.209
 31
0.0
  0
ARC
  5
34
  8
0
 62
     7
 10
81.300556999999984
 20
203.774811
 30
0.0
 40
0.257844
 50
1.3588100000000001
 51
75.394844999999989
  0
ARC
  5
35
  8
0
 62
     7
 10
61.729692999999997
 20
207.995419
 30
0.0
 40
0.249346
 50
76.841387000000012
 51
90.177052000000003
  0
ARC
  5
36
  8
0
 62
     7
 10
61.738579999999999
 20
207.985163
 30
0.0
 40
0.25978
 50
92.130477999999997
 51
177.86949300000001
  0
ARC
  5
37
  8
0
 62
     7
 10
59.562837999999999
 20
206.981729
 30
0.0
 40
1.6975679999999991
 50
61.858648999999993
 51
75.600063000000006
  0
ARC
  5
38
  8
0
 62
     7
 10
60.138065000000012
 20
208.036618
 30
0.0
 40
0.496171
 50
49.16594400000001
 51
62.977880999999996
  0
LINE
  5
39
  8
0
 62
     7
 10
61.478999999999992
 20
207.47800000000001
 30
0.0
 11
60.462499999999999
 21
208.41200000000001
 31
0.0
  0
LINE
  5
3A
  8
0
 62
     7
 10
27.958200000000001
 20
215.51900000000001
 30
0.0
 11
59.984999999999992
 21
208.626
 31
0.0
  0
LINE
  5
3B
  8
0
 62
     7
 10
61.786499999999997
 20
208.238
 30
0.0
 11
81.365600000000015
 21
204.024
 31
0.0
  0
LINE
  5
3C
  8
0
 62
     7
 10
81.558299999999988
 20
202.99799999999999
 30
0.0
 11
99.154300000000006
 21
215.16999999999999
 31
0.0
  0
LINE
  5
3D
  8
0
 62
     7
 10
81.558299999999988
 20
194.17099999999999
 30
0.0
 11
81.558299999999988
 21
203.78100000000001
 31
0.0
  0
LINE
  5
3E
  8
0
 62
     7
 10
61.478999999999992
 20
207.995
 30
0.0
 11
61.478999999999992
 21
194.17099999999999
 31
0.0
  0
LINE
  5
3F
  8
0
 62
     7
 10
60.228900000000003
 20
207.97
 30
0.0
 11
60.228900000000003
 21
194.17099999999999
 31
0.0
  0
ARC
  5
40
  8
0
 62
     7
 10
81.300556999999984
 20
184.56707499999999
 30
0.0
 40
0.257844
 50
284.60515500000002
 51
358.64118999999999
  0
ARC
  5
41
  8
0
 62
     7
 10
61.729692999999997
 20
180.34646699999999
 30
0.0
 40
0.249346
 50
269.822948
 51
283.15861300000012
  0
ARC
  5
42
  8
0
 62
     7
 10
61.738579999999999
 20
180.35672299999999
 30
0.0
 40
0.25978
 50
182.13050699999999
 51
267.86952200000002
  0
LINE
  5
43
  8
0
 62
     7
 10
131.61099999999999
 20
212.51300000000001
 30
0.0
 11
133.23500000000001
 21
210.899
 31
0.0
  0
LINE
  5
44
  8
0
 62
     7
 10
133.23500000000001
 20
210.899
 30
0.0
 11
132.63499999999999
 21
213.108
 31
0.0
  0
LINE
  5
45
  8
0
 62
     7
 10
132.63499999999999
 20
213.108
 30
0.0
 11
131.61099999999999
 21
212.51300000000001
 31
0.0
  0
LINE
  5
46
  8
0
 62
     7
 10
133.23500000000001
 20
210.899
 30
0.0
 11
128.84200000000001
 21
218.452
 31
0.0
  0
LINE
  5
47
  8
0
 62
     7
 10
148.09399999999999
 20
196.393
 30
0.0
 11
147.541
 21
194.17099999999999
 31
0.0
  0
LINE
  5
48
  8
0
 62
     7
 10
147.541
 20
194.17099999999999
 30
0.0
 11
149.131
 21
195.81899999999999
 31
0.0
  0
LINE
  5
49
  8
0
 62
     7
 10
149.131
 20
195.81899999999999
 30
0.0
 11
148.09399999999999
 21
196.393
 31
0.0
  0
LINE
  5
4A
  8
0
 62
     7
 10
147.541
 20
194.17099999999999
 30
0.0
 11
160.988
 21
218.452
 31
0.0
  0
LINE
  5
4B
  8
0
 62
     7
 10
145.32900000000001
 20
167.81299999999999
 30
0.0
 11
147.541
 21
168.40600000000001
 31
0.0
  0
LINE
  5
4C
  8
0
 62
     7
 10
147.541
 20
168.40600000000001
 30
0.0
 11
145.32900000000001
 21
168.999
 31
0.0
  0
LINE
  5
4D
  8
0
 62
     7
 10
145.32900000000001
 20
168.999
 30
0.0
 11
145.32900000000001
 21
167.81299999999999
 31
0.0
  0
LINE
  5
4E
  8
0
 62
     7
 10
167.83000000000001
 20
167.81299999999999
 30
0.0
 11
170.042
 21
168.40600000000001
 31
0.0
  0
LINE
  5
4F
  8
0
 62
     7
 10
170.042
 20
168.40600000000001
 30
0.0
 11
167.83000000000001
 21
168.999
 31
0.0
  0
LINE
  5
50
  8
0
 62
     7
 10
167.83000000000001
 20
168.999
 30
0.0
 11
167.83000000000001
 21
167.81299999999999
 31
0.0
  0
LINE
  5
51
  8
0
 62
     7
 10
149.75299999999999
 20
168.98400000000001
 30
0.0
 11
147.541
 21
168.39099999999999
 31
0.0
  0
LINE
  5
52
  8
0
 62
     7
 10
147.541
 20
168.39099999999999
 30
0.0
 11
149.75299999999999
 21
167.79900000000001
 31
0.0
  0
LINE
  5
53
  8
0
 62
     7
 10
149.75299999999999
 20
167.79900000000001
 30
0.0
 11
149.75299999999999
 21
168.98400000000001
 31
0.0
  0
LINE
  5
54
  8
0
 62
     7
 10
134.75200000000001
 20
168.98400000000001
 30
0.0
 11
132.53999999999999
 21
168.39099999999999
 31
0.0
  0
LINE
  5
55
  8
0
 62
     7
 10
132.53999999999999
 20
168.39099999999999
 30
0.0
 11
134.75200000000001
 21
167.79900000000001
 31
0.0
  0
LINE
  5
56
  8
0
 62
     7
 10
134.75200000000001
 20
167.79900000000001
 30
0.0
 11
134.75200000000001
 21
168.98400000000001
 31
0.0
  0
LINE
  5
57
  8
0
 62
     7
 10
170.041
 20
168.399
 30
0.0
 11
132.541
 21
168.399
 31
0.0
  0
LINE
  5
58
  8
0
 62
     7
 10
167.83000000000001
 20
160.88200000000001
 30
0.0
 11
170.042
 21
161.47499999999999
 31
0.0
  0
LINE
  5
59
  8
0
 62
     7
 10
170.042
 20
161.47499999999999
 30
0.0
 11
167.83000000000001
 21
162.06800000000001
 31
0.0
  0
LINE
  5
5A
  8
0
 62
     7
 10
167.83000000000001
 20
162.06800000000001
 30
0.0
 11
167.83000000000001
 21
160.88200000000001
 31
0.0
  0
LINE
  5
5B
  8
0
 62
     7
 10
134.75200000000001
 20
162.053
 30
0.0
 11
132.53999999999999
 21
161.46100000000001
 31
0.0
  0
LINE
  5
5C
  8
0
 62
     7
 10
132.53999999999999
 20
161.46100000000001
 30
0.0
 11
134.75200000000001
 21
160.86799999999999
 31
0.0
  0
LINE
  5
5D
  8
0
 62
     7
 10
134.75200000000001
 20
160.86799999999999
 30
0.0
 11
134.75200000000001
 21
162.053
 31
0.0
  0
LINE
  5
5E
  8
0
 62
     7
 10
170.041
 20
161.46799999999999
 30
0.0
 11
132.541
 21
161.46799999999999
 31
0.0
  0
LINE
  5
5F
  8
0
 62
     7
 10
132.541
 20
175.85599999999999
 30
0.0
 11
132.541
 21
160.768
 31
0.0
  0
LINE
  5
60
  8
0
 62
     7
 10
147.541
 20
172.81399999999999
 30
0.0
 11
147.541
 21
167.69900000000001
 31
0.0
  0
LINE
  5
61
  8
0
 62
     7
 10
170.041
 20
175.85599999999999
 30
0.0
 11
170.041
 21
160.768
 31
0.0
  0
LINE
  5
62
  8
0
 62
     7
 10
162.08000000000001
 20
191.959
 30
0.0
 11
161.488
 21
194.17099999999999
 31
0.0
  0
LINE
  5
63
  8
0
 62
     7
 10
161.488
 20
194.17099999999999
 30
0.0
 11
160.89500000000001
 21
191.959
 31
0.0
  0
LINE
  5
64
  8
0
 62
     7
 10
160.89500000000001
 20
191.959
 30
0.0
 11
162.08000000000001
 21
191.959
 31
0.0
  0
LINE
  5
65
  8
0
 62
     7
 10
162.08000000000001
 20
209.46000000000001
 30
0.0
 11
161.488
 21
211.672
 31
0.0
  0
LINE
  5
66
  8
0
 62
     7
 10
161.488
 20
211.672
 30
0.0
 11
160.89500000000001
 21
209.46000000000001
 31
0.0
  0
LINE
  5
67
  8
0
 62
     7
 10
160.89500000000001
 20
209.46000000000001
 30
0.0
 11
162.08000000000001
 21
209.46000000000001
 31
0.0
  0
LINE
  5
68
  8
0
 62
     7
 10
160.91
 20
196.38300000000001
 30
0.0
 11
161.50200000000001
 21
194.17099999999999
 31
0.0
  0
LINE
  5
69
  8
0
 62
     7
 10
161.50200000000001
 20
194.17099999999999
 30
0.0
 11
162.095
 21
196.38300000000001
 31
0.0
  0
LINE
  5
6A
  8
0
 62
     7
 10
162.095
 20
196.38300000000001
 30
0.0
 11
160.91
 21
196.38300000000001
 31
0.0
  0
LINE
  5
6B
  8
0
 62
     7
 10
160.91
 20
178.88200000000001
 30
0.0
 11
161.50200000000001
 21
176.66999999999999
 31
0.0
  0
LINE
  5
6C
  8
0
 62
     7
 10
161.50200000000001
 20
176.66999999999999
 30
0.0
 11
162.095
 21
178.88200000000001
 31
0.0
  0
LINE
  5
6D
  8
0
 62
     7
 10
162.095
 20
178.88200000000001
 30
0.0
 11
160.91
 21
178.88200000000001
 31
0.0
  0
LINE
  5
6E
  8
0
 62
     7
 10
161.495
 20
211.67099999999999
 30
0.0
 11
161.495
 21
176.67099999999999
 31
0.0
  0
LINE
  5
6F
  8
0
 62
     7
 10
126.315
 20
209.46000000000001
 30
0.0
 11
125.72199999999999
 21
211.672
 31
0.0
  0
LINE
  5
70
  8
0
 62
     7
 10
125.72199999999999
 20
211.672
 30
0.0
 11
125.13
 21
209.46000000000001
 31
0.0
  0
LINE
  5
71
  8
0
 62
     7
 10
125.13
 20
209.46000000000001
 30
0.0
 11
126.315
 21
209.46000000000001
 31
0.0
  0
LINE
  5
72
  8
0
 62
     7
 10
125.14400000000001
 20
178.88200000000001
 30
0.0
 11
125.73699999999999
 21
176.66999999999999
 31
0.0
  0
LINE
  5
73
  8
0
 62
     7
 10
125.73699999999999
 20
176.66999999999999
 30
0.0
 11
126.32899999999999
 21
178.88200000000001
 31
0.0
  0
LINE
  5
74
  8
0
 62
     7
 10
126.32899999999999
 20
178.88200000000001
 30
0.0
 11
125.14400000000001
 21
178.88200000000001
 31
0.0
  0
LINE
  5
75
  8
0
 62
     7
 10
125.73
 20
211.67099999999999
 30
0.0
 11
125.73
 21
176.67099999999999
 31
0.0
  0
ARC
  5
76
  8
0
 62
     7
 10
135.040931
 20
179.17098799999999
 30
0.0
 40
2.500035
 50
180.00198399999999
 51
270.00199400000002
  0
ARC
  5
77
  8
0
 62
     7
 10
167.54122000000001
 20
179.17073099999999
 30
0.0
 40
2.4997780000000001
 50
270.00002000000001
 51
359.99999000000003
  0
ARC
  5
78
  8
0
 62
     7
 10
167.541134
 20
209.17124200000001
 30
0.0
 40
2.4998640000000001
 50
359.99803600000001
 51
89.998006000000004
  0
ARC
  5
79
  8
0
 62
     7
 10
135.040932
 20
209.17106899999999
 30
0.0
 40
2.5000360000000001
 50
89.998025999999996
 51
179.997996
  0
ARC
  5
7A
  8
0
  6
AIGENLINE001
 62
     7
 10
147.54084900000001
 20
194.17085800000001
 30
0.0
 40
5.7499880000000001
 50
270.000878
 51
0.000848
  0
ARC
  5
7B
  8
0
  6
AIGENLINE001
 62
     7
 10
147.541022
 20
194.17085599999999
 30
0.0
 40
5.7499859999999989
 50
179.999112
 51
269.99916200000001
  0
ARC
  5
7C
  8
0
  6
AIGENLINE001
 62
     7
 10
147.54102399999999
 20
194.17102800000001
 30
0.0
 40
5.7499880000000001
 50
90.000857999999994
 51
180.000868
  0
ARC
  5
7D
  8
0
  6
AIGENLINE001
 62
     7
 10
147.54084900000001
 20
194.17102800000001
 30
0.0
 40
5.7499880000000001
 50
359.99915199999998
 51
89.999122
  0
LINE
  5
7E
  8
0
 62
     7
 10
170.041
 20
209.17099999999999
 30
0.0
 11
170.041
 21
179.17099999999999
 31
0.0
  0
LINE
  5
7F
  8
0
  6
AIGENLINE002
 62
     7
 10
147.541
 20
214.096
 30
0.0
 11
147.541
 21
173.7759999999999
 31
0.0
  0
LINE
  5
80
  8
0
 62
     7
 10
132.541
 20
209.17099999999999
 30
0.0
 11
132.541
 21
179.17099999999999
 31
0.0
  0
LINE
  5
81
  8
0
 62
     7
 10
135.041
 20
176.67099999999999
 30
0.0
 11
167.541
 21
176.67099999999999
 31
0.0
  0
LINE
  5
82
  8
0
  6
AIGENLINE002
 62
     7
 10
130.096
 20
194.17099999999999
 30
0.0
 11
173.297
 21
194.17099999999999
 31
0.0
  0
LINE
  5
83
  8
0
 62
     7
 10
132.459
 20
176.67099999999999
 30
0.0
 11
125.03
 21
176.67099999999999
 31
0.0
  0
LINE
  5
84
  8
0
 62
     7
 10
122.70699999999999
 20
218.452
 30
0.0
 11
128.84200000000001
 21
218.452
 31
0.0
  0
LINE
  5
85
  8
0
 62
     7
 10
160.988
 20
218.452
 30
0.0
 11
176.27000000000001
 21
218.452
 31
0.0
  0
LINE
  5
86
  8
0
 62
     7
 10
131.75200000000001
 20
211.67099999999999
 30
0.0
 11
125.03
 21
211.67099999999999
 31
0.0
  0
LINE
  5
87
  8
0
 62
     7
 10
135.041
 20
211.67099999999999
 30
0.0
 11
167.541
 21
211.67099999999999
 31
0.0
  0
ARC
  5
88
  8
0
 62
     7
 10
59.550915000000003
 20
181.390895
 30
0.0
 40
1.7303099999999989
 50
284.52920599999999
 51
298.00925100000001
  0
ARC
  5
89
  8
0
 62
     7
 10
60.137642999999997
 20
180.305825
 30
0.0
 40
0.496868
 50
297.035796
 51
310.828958
  0
LINE
  5
8A
  8
0
 62
     7
 10
61.478999999999992
 20
180.864
 30
0.0
 11
60.462499999999999
 21
179.93000000000001
 31
0.0
  0
LINE
  5
8B
  8
0
 62
     7
 10
27.958200000000001
 20
172.82300000000001
 30
0.0
 11
59.984999999999992
 21
179.71600000000001
 31
0.0
  0
LINE
  5
8C
  8
0
 62
     7
 10
61.786499999999997
 20
180.10400000000001
 30
0.0
 11
81.365600000000015
 21
184.31800000000001
 31
0.0
  0
LINE
  5
8D
  8
0
 62
     7
 10
81.558299999999988
 20
185.34399999999999
 30
0.0
 11
99.154300000000006
 21
173.172
 31
0.0
  0
ARC
  5
8E
  8
0
 62
     7
 10
26.581143999999998
 20
215.89996199999999
 30
0.0
 40
0.7798470000000001
 50
92.126459000000011
 51
177.820874
  0
ARC
  5
8F
  8
0
 62
     7
 10
26.339316
 20
216.14214799999999
 30
0.0
 40
0.779509
 50
92.128793999999999
 51
177.84485100000001
  0
ARC
  5
90
  8
0
 62
     7
 10
26.569123999999999
 20
172.44192100000001
 30
0.0
 40
0.779859
 50
182.12824499999999
 51
267.84547199999997
  0
ARC
  5
91
  8
0
 62
     7
 10
26.326826000000001
 20
172.19926599999999
 30
0.0
 40
0.7790340000000001
 50
182.07101999999989
 51
267.876372
  0
ARC
  5
92
  8
0
 62
     7
 10
100.036873
 20
172.441586
 30
0.0
 40
0.7795100000000002
 50
272.12984299999999
 51
357.87016699999998
  0
ARC
  5
93
  8
0
 62
     7
 10
100.27872000000001
 20
172.19973899999999
 30
0.0
 40
0.7795100000000002
 50
272.12984299999999
 51
357.87016699999998
  0
ARC
  5
94
  8
0
 62
     7
 10
100.27871
 20
216.14213699999999
 30
0.0
 40
0.779521
 50
2.130561999999999
 51
87.869427999999999
  0
ARC
  5
95
  8
0
 62
     7
 10
100.036862
 20
215.90029000000001
 30
0.0
 40
0.779521
 50
2.130561999999999
 51
87.869427999999999
  0
LINE
  5
96
  8
0
 62
     7
 10
139.04300000000001
 20
90.818799999999996
 30
0.0
 11
156.04300000000001
 21
90.818799999999996
 31
0.0
  0
ARC
  5
97
  8
0
 62
     7
 10
139.75797900000001
 20
93.472581000000005
 30
0.0
 40
1.0198329999999991
 50
210.64800399999999
 51
269.30844500000001
  0
LINE
  5
98
  8
0
 62
     7
 10
162.529
 20
101.26000000000001
 30
0.0
 11
162.86699999999999
 21
104.182
 31
0.0
  0
LINE
  5
99
  8
0
 62
     7
 10
162.155
 20
98.031499999999994
 30
0.0
 11
162.529
 21
101.26000000000001
 31
0.0
  0
ARC
  5
9A
  8
0
 62
     7
 10
159.59479099999999
 20
98.404596999999995
 30
0.0
 40
2.5870329999999999
 50
271.700019
 51
351.70802300000003
  0
LINE
  5
9B
  8
0
 62
     7
 10
158.845
 20
95.818700000000007
 30
0.0
 11
159.672
 21
95.818700000000007
 31
0.0
  0
ARC
  5
9C
  8
0
 62
     7
 10
158.86944
 20
94.788420000000002
 30
0.0
 40
1.030562999999999
 50
91.336673000000005
 51
165.785122
  0
LINE
  5
9D
  8
0
 62
     7
 10
157.60499999999999
 20
93.881200000000007
 30
0.0
 11
157.87
 21
95.041499999999999
 31
0.0
  0
LINE
  5
9E
  8
0
 62
     7
 10
157.34100000000001
 20
92.725699999999989
 30
0.0
 11
157.60499999999999
 21
93.881200000000007
 31
0.0
  0
ARC
  5
9F
  8
0
 62
     7
 10
156.360207
 20
92.951325999999995
 30
0.0
 40
1.0063349999999991
 50
322.60466000000002
 51
347.04242599999998
  0
LINE
  5
A0
  8
0
 62
     7
 10
156.57900000000001
 20
91.5822
 30
0.0
 11
157.16
 21
92.340199999999996
 31
0.0
  0
LINE
  5
A1
  8
0
 62
     7
 10
156.04300000000001
 20
90.818799999999996
 30
0.0
 11
156.57900000000001
 21
91.5822
 31
0.0
  0
ARC
  5
A2
  8
0
 62
     7
 10
155.31747200000001
 20
93.455104000000006
 30
0.0
 40
1.0202459999999991
 50
270.56827800000002
 51
329.33721400000002
  0
LINE
  5
A3
  8
0
 62
     7
 10
155.328
 20
92.434899999999985
 30
0.0
 11
139.74600000000001
 21
92.452799999999996
 31
0.0
  0
ARC
  5
A4
  8
0
 62
     7
 10
125.55336800000001
 20
119.049916
 30
0.0
 40
0.5194200000000001
 50
92.075022000000004
 51
176.96937700000001
  0
ARC
  5
A5
  8
0
 62
     7
 10
169.53334799999999
 20
119.05063800000001
 30
0.0
 40
0.518674
 50
2.9551729999999989
 51
88.000388000000015
  0
LINE
  5
A6
  8
0
 62
     7
 10
124.79300000000001
 20
104.569
 30
0.0
 11
125.035
 21
119.077
 31
0.0
  0
LINE
  5
A7
  8
0
 62
     7
 10
170.29300000000001
 20
104.569
 30
0.0
 11
170.05099999999999
 21
119.077
 31
0.0
  0
LINE
  5
A8
  8
0
 62
     7
 10
125.535
 20
119.569
 30
0.0
 11
169.55099999999999
 21
119.569
 31
0.0
  0
ARC
  5
A9
  8
0
 62
     7
 10
61.918354000000001
 20
93.096058999999997
 30
0.0
 40
1.2560219999999991
 50
184.23286400000001
 51
222.47930099999991
  0
LINE
  5
AA
  8
0
 62
     7
 10
59.8279
 20
104.569
 30
0.0
 11
60.665799999999997
 21
93.003399999999999
 31
0.0
  0
ARC
  5
AB
  8
0
 62
     7
 10
81.048272999999995
 20
93.496734999999987
 30
0.0
 40
1.256534
 50
303.904875
 51
322.52389399999998
  0
ARC
  5
AC
  8
0
 62
     7
 10
100.29786
 20
119.050293
 30
0.0
 40
0.518674
 50
2.9551729999999989
 51
88.000388000000015
  0
ARC
  5
AD
  8
0
 62
     7
 10
26.314698
 20
119.049572
 30
0.0
 40
0.5194200000000001
 50
92.075022000000004
 51
176.96937700000001
  0
LINE
  5
AE
  8
0
 62
     7
 10
100.316
 20
119.569
 30
0.0
 11
26.2959
 21
119.569
 31
0.0
  0
LINE
  5
AF
  8
0
 62
     7
 10
88.760199999999998
 20
176.21799999999999
 30
0.0
 11
76.816000000000003
 21
176.21799999999999
 31
0.0
  0
LINE
  5
B0
  8
0
 62
     7
 10
64.699600000000004
 20
199.441
 30
0.0
 11
66.682500000000005
 21
198.29599999999999
 31
0.0
  0
LINE
  5
B1
  8
0
 62
     7
 10
66.682500000000005
 20
198.29599999999999
 30
0.0
 11
65.537700000000001
 21
200.279
 31
0.0
  0
LINE
  5
B2
  8
0
 62
     7
 10
65.537700000000001
 20
200.279
 30
0.0
 11
64.699600000000004
 21
199.441
 31
0.0
  0
LINE
  5
B3
  8
0
 62
     7
 10
76.856099999999998
 20
188.96000000000001
 30
0.0
 11
74.8733
 21
190.10499999999999
 31
0.0
  0
LINE
  5
B4
  8
0
 62
     7
 10
74.8733
 20
190.10499999999999
 30
0.0
 11
76.018100000000004
 21
188.12200000000001
 31
0.0
  0
LINE
  5
B5
  8
0
 62
     7
 10
76.018100000000004
 20
188.12200000000001
 30
0.0
 11
76.856099999999998
 21
188.96000000000001
 31
0.0
  0
LINE
  5
B6
  8
0
 62
     7
 10
88.760199999999998
 20
176.21799999999999
 30
0.0
 11
63.183500000000002
 21
201.79499999999999
 31
0.0
  0
LINE
  5
B7
  8
0
 62
     7
 10
111.26600000000001
 20
173.88200000000001
 30
0.0
 11
111.858
 21
171.66999999999999
 31
0.0
  0
LINE
  5
B8
  8
0
 62
     7
 10
111.858
 20
171.66999999999999
 30
0.0
 11
112.45099999999999
 21
173.88200000000001
 31
0.0
  0
LINE
  5
B9
  8
0
 62
     7
 10
112.45099999999999
 20
173.88200000000001
 30
0.0
 11
111.26600000000001
 21
173.88200000000001
 31
0.0
  0
LINE
  5
BA
  8
0
 62
     7
 10
112.437
 20
214.46000000000001
 30
0.0
 11
111.84399999999999
 21
216.672
 31
0.0
  0
LINE
  5
BB
  8
0
 62
     7
 10
111.84399999999999
 20
216.672
 30
0.0
 11
111.251
 21
214.46000000000001
 31
0.0
  0
LINE
  5
BC
  8
0
 62
     7
 10
111.251
 20
214.46000000000001
 30
0.0
 11
112.437
 21
214.46000000000001
 31
0.0
  0
LINE
  5
BD
  8
0
 62
     7
 10
111.851
 20
171.67099999999999
 30
0.0
 11
111.851
 21
216.67099999999999
 31
0.0
  0
LINE
  5
BE
  8
0
 62
     7
 10
73.019800000000004
 20
160.96899999999999
 30
0.0
 11
70.808199999999999
 21
160.376
 31
0.0
  0
LINE
  5
BF
  8
0
 62
     7
 10
70.808199999999999
 20
160.376
 30
0.0
 11
73.019800000000004
 21
159.78399999999999
 31
0.0
  0
LINE
  5
C0
  8
0
 62
     7
 10
73.019800000000004
 20
159.78399999999999
 30
0.0
 11
73.019800000000004
 21
160.96899999999999
 31
0.0
  0
LINE
  5
C1
  8
0
 62
     7
 10
28.018599999999999
 20
160.96899999999999
 30
0.0
 11
25.806999999999999
 21
160.376
 31
0.0
  0
LINE
  5
C2
  8
0
 62
     7
 10
25.806999999999999
 20
160.376
 30
0.0
 11
28.018599999999999
 21
159.78399999999999
 31
0.0
  0
LINE
  5
C3
  8
0
 62
     7
 10
28.018599999999999
 20
159.78399999999999
 30
0.0
 11
28.018599999999999
 21
160.96899999999999
 31
0.0
  0
LINE
  5
C4
  8
0
 62
     7
 10
68.597099999999983
 20
159.798
 30
0.0
 11
70.808199999999999
 21
160.39099999999999
 31
0.0
  0
LINE
  5
C5
  8
0
 62
     7
 10
70.808199999999999
 20
160.39099999999999
 30
0.0
 11
68.597099999999983
 21
160.983
 31
0.0
  0
LINE
  5
C6
  8
0
 62
     7
 10
68.597099999999983
 20
160.983
 30
0.0
 11
68.597099999999983
 21
159.798
 31
0.0
  0
LINE
  5
C7
  8
0
 62
     7
 10
98.597899999999996
 20
159.798
 30
0.0
 11
100.809
 21
160.39099999999999
 31
0.0
  0
LINE
  5
C8
  8
0
 62
     7
 10
100.809
 20
160.39099999999999
 30
0.0
 11
98.597899999999996
 21
160.983
 31
0.0
  0
LINE
  5
C9
  8
0
 62
     7
 10
98.597899999999996
 20
160.983
 30
0.0
 11
98.597899999999996
 21
159.798
 31
0.0
  0
LINE
  5
CA
  8
0
 62
     7
 10
25.8079
 20
160.38399999999999
 30
0.0
 11
100.80800000000001
 21
160.38399999999999
 31
0.0
  0
LINE
  5
CB
  8
0
 62
     7
 10
28.018599999999999
 20
153.125
 30
0.0
 11
25.806999999999999
 21
152.53299999999999
 31
0.0
  0
LINE
  5
CC
  8
0
 62
     7
 10
25.806999999999999
 20
152.53299999999999
 30
0.0
 11
28.018599999999999
 21
151.94
 31
0.0
  0
LINE
  5
CD
  8
0
 62
     7
 10
28.018599999999999
 20
151.94
 30
0.0
 11
28.018599999999999
 21
153.125
 31
0.0
  0
LINE
  5
CE
  8
0
 62
     7
 10
98.597899999999996
 20
151.95500000000001
 30
0.0
 11
100.809
 21
152.547
 31
0.0
  0
LINE
  5
CF
  8
0
 62
     7
 10
100.809
 20
152.547
 30
0.0
 11
98.597899999999996
 21
153.13999999999999
 31
0.0
  0
LINE
  5
D0
  8
0
 62
     7
 10
98.597899999999996
 20
153.13999999999999
 30
0.0
 11
98.597899999999996
 21
151.95500000000001
 31
0.0
  0
LINE
  5
D1
  8
0
 62
     7
 10
25.8079
 20
152.53999999999999
 30
0.0
 11
100.80800000000001
 21
152.53999999999999
 31
0.0
  0
LINE
  5
D2
  8
0
 62
     7
 10
149.75200000000001
 20
76.084699999999998
 30
0.0
 11
147.53999999999999
 21
75.492199999999997
 31
0.0
  0
LINE
  5
D3
  8
0
 62
     7
 10
147.53999999999999
 20
75.492199999999997
 30
0.0
 11
149.75200000000001
 21
74.899600000000007
 31
0.0
  0
LINE
  5
D4
  8
0
 62
     7
 10
149.75200000000001
 20
74.899600000000007
 30
0.0
 11
149.75200000000001
 21
76.084699999999998
 31
0.0
  0
LINE
  5
D5
  8
0
 62
     7
 10
167.83000000000001
 20
74.914100000000005
 30
0.0
 11
170.042
 21
75.506600000000006
 31
0.0
  0
LINE
  5
D6
  8
0
 62
     7
 10
170.042
 20
75.506600000000006
 30
0.0
 11
167.83000000000001
 21
76.099199999999996
 31
0.0
  0
LINE
  5
D7
  8
0
 62
     7
 10
167.83000000000001
 20
76.099199999999996
 30
0.0
 11
167.83000000000001
 21
74.914100000000005
 31
0.0
  0
LINE
  5
D8
  8
0
 62
     7
 10
147.541
 20
75.499399999999994
 30
0.0
 11
170.041
 21
75.499399999999994
 31
0.0
  0
LINE
  5
D9
  8
0
 62
     7
 10
115.45699999999999
 20
87.529099999999985
 30
0.0
 11
116.04900000000001
 21
85.317999999999998
 31
0.0
  0
LINE
  5
DA
  8
0
 62
     7
 10
116.04900000000001
 20
85.317999999999998
 30
0.0
 11
116.642
 21
87.529099999999985
 31
0.0
  0
LINE
  5
DB
  8
0
 62
     7
 10
116.642
 20
87.529099999999985
 30
0.0
 11
115.45699999999999
 21
87.529099999999985
 31
0.0
  0
LINE
  5
DC
  8
0
 62
     7
 10
116.627
 20
117.35899999999999
 30
0.0
 11
116.035
 21
119.571
 31
0.0
  0
LINE
  5
DD
  8
0
 62
     7
 10
116.035
 20
119.571
 30
0.0
 11
115.44199999999999
 21
117.35899999999999
 31
0.0
  0
LINE
  5
DE
  8
0
 62
     7
 10
115.44199999999999
 20
117.35899999999999
 30
0.0
 11
116.627
 21
117.35899999999999
 31
0.0
  0
LINE
  5
DF
  8
0
 62
     7
 10
116.042
 20
85.318700000000007
 30
0.0
 11
116.042
 21
119.56999999999999
 31
0.0
  0
LINE
  5
E0
  8
0
 62
     7
 10
170.041
 20
74.799400000000006
 30
0.0
 11
170.041
 21
102.958
 31
0.0
  0
LINE
  5
E1
  8
0
 62
     7
 10
147.541
 20
74.799400000000006
 30
0.0
 11
147.541
 21
81.119399999999999
 31
0.0
  0
LINE
  5
E2
  8
0
 62
     7
 10
100.80800000000001
 20
151.84
 30
0.0
 11
100.80800000000001
 21
169.822
 31
0.0
  0
LINE
  5
E3
  8
0
 62
     7
 10
25.8079
 20
151.84
 30
0.0
 11
25.8079
 21
170.05799999999999
 31
0.0
  0
LINE
  5
E4
  8
0
 62
     7
 10
70.808199999999999
 20
159.684
 30
0.0
 11
70.808199999999999
 21
166.161
 31
0.0
  0
LINE
  5
E5
  8
0
 62
     7
 10
107.86199999999999
 20
106.779
 30
0.0
 11
108.455
 21
104.568
 31
0.0
  0
LINE
  5
E6
  8
0
 62
     7
 10
108.455
 20
104.568
 30
0.0
 11
109.047
 21
106.779
 31
0.0
  0
LINE
  5
E7
  8
0
 62
     7
 10
109.047
 20
106.779
 30
0.0
 11
107.86199999999999
 21
106.779
 31
0.0
  0
LINE
  5
E8
  8
0
 62
     7
 10
109.033
 20
117.35899999999999
 30
0.0
 11
108.44
 21
119.571
 31
0.0
  0
LINE
  5
E9
  8
0
 62
     7
 10
108.44
 20
119.571
 30
0.0
 11
107.848
 21
117.35899999999999
 31
0.0
  0
LINE
  5
EA
  8
0
 62
     7
 10
107.848
 20
117.35899999999999
 30
0.0
 11
109.033
 21
117.35899999999999
 31
0.0
  0
LINE
  5
EB
  8
0
 62
     7
 10
108.447
 20
104.569
 30
0.0
 11
108.447
 21
119.56999999999999
 31
0.0
  0
LINE
  5
EC
  8
0
 62
     7
 10
109.148
 20
104.569
 30
0.0
 11
102.432
 21
104.569
 31
0.0
  0
LINE
  5
ED
  8
0
 62
     7
 10
116.742
 20
85.318700000000007
 30
0.0
 11
81.070499999999996
 21
85.318700000000007
 31
0.0
  0
LINE
  5
EE
  8
0
 62
     7
 10
112.551
 20
171.67099999999999
 30
0.0
 11
102.27200000000001
 21
171.67099999999999
 31
0.0
  0
LINE
  5
EF
  8
0
 62
     7
 10
112.551
 20
216.67099999999999
 30
0.0
 11
102.27200000000001
 21
216.67099999999999
 31
0.0
  0
LINE
  5
F0
  8
0
 62
     7
 10
116.742
 20
119.56999999999999
 30
0.0
 11
102.197
 21
119.56999999999999
 31
0.0
  0
LINE
  5
F1
  8
0
 62
     7
 10
159.672
 20
95.818700000000007
 30
0.0
 11
159.68899999999999
 21
95.818700000000007
 31
0.0
  0
LINE
  5
F2
  8
0
 62
     7
 10
159.68899999999999
 20
95.818700000000007
 30
0.0
 11
159.67400000000001
 21
95.818700000000007
 31
0.0
  0
LINE
  5
F3
  8
0
 62
     7
 10
139.541
 20
85.318700000000007
 30
0.0
 11
155.54499999999999
 21
85.318700000000007
 31
0.0
  0
LINE
  5
F4
  8
0
 62
     7
 10
138.881
 20
92.952699999999993
 30
0.0
 11
132.17400000000001
 21
104.569
 31
0.0
  0
LINE
  5
F5
  8
0
 62
     7
 10
162.91200000000001
 20
104.569
 30
0.0
 11
156.19499999999999
 21
92.934799999999996
 31
0.0
  0
LINE
  5
F6
  8
0
 62
     7
 10
124.79300000000001
 20
104.569
 30
0.0
 11
170.29300000000001
 21
104.569
 31
0.0
  0
LINE
  5
F7
  8
0
 62
     7
 10
132.148
 20
104.569
 30
0.0
 11
132.22
 21
104.178
 31
0.0
  0
LINE
  5
F8
  8
0
 62
     7
 10
162.86699999999999
 20
104.182
 30
0.0
 11
162.93799999999999
 21
104.569
 31
0.0
  0
LINE
  5
F9
  8
0
 62
     7
 10
132.22
 20
104.178
 30
0.0
 11
132.55799999999999
 21
101.26000000000001
 31
0.0
  0
LINE
  5
FA
  8
0
 62
     7
 10
132.55799999999999
 20
101.26000000000001
 30
0.0
 11
132.93100000000001
 21
98.031499999999994
 31
0.0
  0
ARC
  5
FB
  8
0
 62
     7
 10
135.49229800000001
 20
98.405822000000001
 30
0.0
 40
2.5882800000000001
 50
188.31539299999989
 51
268.28449999999998
  0
LINE
  5
FC
  8
0
 62
     7
 10
135.41499999999999
 20
95.818700000000007
 30
0.0
 11
136.24100000000001
 21
95.818700000000007
 31
0.0
  0
ARC
  5
FD
  8
0
 62
     7
 10
136.216587
 20
94.788332999999994
 30
0.0
 40
1.030648999999999
 50
14.238388
 51
88.664540000000002
  0
LINE
  5
FE
  8
0
 62
     7
 10
137.21600000000001
 20
95.041799999999995
 30
0.0
 11
137.48099999999999
 21
93.881200000000007
 31
0.0
  0
LINE
  5
FF
  8
0
 62
     7
 10
137.48099999999999
 20
93.881200000000007
 30
0.0
 11
137.745
 21
92.725699999999989
 31
0.0
  0
ARC
  5
100
  8
0
 62
     7
 10
138.71975499999999
 20
92.948483999999993
 30
0.0
 40
0.9998079999999999
 50
192.87658300000001
 51
217.476372
  0
LINE
  5
101
  8
0
 62
     7
 10
137.92599999999999
 20
92.340199999999996
 30
0.0
 11
138.50700000000001
 21
91.5822
 31
0.0
  0
LINE
  5
102
  8
0
 62
     7
 10
138.50700000000001
 20
91.5822
 30
0.0
 11
139.04300000000001
 21
90.818799999999996
 31
0.0
  0
LINE
  5
103
  8
0
 62
     7
 10
155.54499999999999
 20
85.318700000000007
 30
0.0
 11
156.04300000000001
 21
90.818799999999996
 31
0.0
  0
LINE
  5
104
  8
0
 62
     7
 10
139.04300000000001
 20
90.818799999999996
 30
0.0
 11
139.541
 21
85.318700000000007
 31
0.0
  0
LINE
  5
105
  8
0
 62
     7
 10
62.805500000000002
 20
85.318700000000007
 30
0.0
 11
78.8095
 21
85.318700000000007
 31
0.0
  0
LINE
  5
106
  8
0
 62
     7
 10
81.749200000000002
 20
92.453900000000004
 30
0.0
 11
79.309399999999997
 21
90.818500000000014
 31
0.0
  0
LINE
  5
107
  8
0
 62
     7
 10
62.305599999999998
 20
90.818500000000014
 30
0.0
 11
60.99199999999999
 21
92.247799999999998
 31
0.0
  0
LINE
  5
108
  8
0
 62
     7
 10
91.105800000000002
 20
104.569
 30
0.0
 11
82.045500000000004
 21
92.732200000000006
 31
0.0
  0
LINE
  5
109
  8
0
 62
     7
 10
25.795999999999999
 20
119.077
 30
0.0
 11
25.557300000000001
 21
104.569
 31
0.0
  0
LINE
  5
10A
  8
0
 62
     7
 10
25.557300000000001
 20
104.569
 30
0.0
 11
101.05800000000001
 21
104.569
 31
0.0
  0
LINE
  5
10B
  8
0
 62
     7
 10
100.816
 20
119.077
 30
0.0
 11
101.05800000000001
 21
104.569
 31
0.0
  0
LINE
  5
10C
  8
0
 62
     7
 10
78.8095
 20
85.318700000000007
 30
0.0
 11
79.309399999999997
 21
90.818500000000014
 31
0.0
  0
LINE
  5
10D
  8
0
 62
     7
 10
62.305599999999998
 20
90.818500000000014
 30
0.0
 11
62.805500000000002
 21
85.318700000000007
 31
0.0
  0
LINE
  5
10E
  8
0
  6
AIGENLINE002
 62
     7
 10
147.541
 20
123.44
 30
0.0
 11
147.541
 21
82.517399999999995
 31
0.0
  0
LINE
  5
10F
  8
0
  6
AIGENLINE002
 62
     7
 10
70.808199999999999
 20
123.44
 30
0.0
 11
70.808199999999999
 21
81.106300000000005
 31
0.0
  0
LINE
  5
110
  8
0
 62
     7
 10
81.558299999999988
 20
194.17099999999999
 30
0.0
 11
81.558299999999988
 21
184.56099999999989
 31
0.0
  0
LINE
  5
111
  8
0
  6
AIGENLINE002
 62
     7
 10
70.808199999999999
 20
221.70099999999999
 30
0.0
 11
70.808199999999999
 21
167.21100000000001
 31
0.0
  0
LINE
  5
112
  8
0
  6
AIGENLINE002
 62
     7
 10
22.166599999999999
 20
194.17099999999999
 30
0.0
 11
104.91800000000001
 21
194.17099999999999
 31
0.0
  0
ARC
  5
113
  8
0
  6
AIGENLINE001
 62
     7
 10
70.807407999999995
 20
194.17102800000001
 30
0.0
 40
5.7499880000000001
 50
359.99915199999998
 51
89.999122
  0
ARC
  5
114
  8
0
  6
AIGENLINE001
 62
     7
 10
70.807581999999996
 20
194.17102800000001
 30
0.0
 40
5.7499880000000001
 50
90.000857999999994
 51
180.000868
  0
ARC
  5
115
  8
0
  6
AIGENLINE001
 62
     7
 10
70.807493999999991
 20
194.170942
 30
0.0
 40
5.7499000000000002
 50
179.99996999999999
 51
270.00002000000001
  0
ARC
  5
116
  8
0
  6
AIGENLINE001
 62
     7
 10
70.807493999999991
 20
194.17094399999999
 30
0.0
 40
5.7499019999999987
 50
270.00002000000001
 51
359.99999000000003
  0
LINE
  5
117
  8
0
 62
     7
 10
61.478999999999992
 20
180.34700000000001
 30
0.0
 11
61.478999999999992
 21
194.17099999999999
 31
0.0
  0
LINE
  5
118
  8
0
 62
     7
 10
60.228900000000003
 20
180.37200000000001
 30
0.0
 11
60.228900000000003
 21
194.17099999999999
 31
0.0
  0
LINE
  5
119
  8
0
 62
     7
 10
25.560400000000001
 20
216.17099999999999
 30
0.0
 11
25.548300000000001
 21
172.17099999999999
 31
0.0
  0
LINE
  5
11A
  8
0
 62
     7
 10
26.297999999999998
 20
171.42099999999999
 30
0.0
 11
100.30800000000001
 21
171.42099999999999
 31
0.0
  0
LINE
  5
11B
  8
0
 62
     7
 10
100.30800000000001
 20
216.92099999999999
 30
0.0
 11
26.310400000000001
 21
216.92099999999999
 31
0.0
  0
LINE
  5
11C
  8
0
 62
     7
 10
101.05800000000001
 20
172.17099999999999
 30
0.0
 11
101.05800000000001
 21
216.17099999999999
 31
0.0
  0
LINE
  5
11D
  8
0
 62
     7
 10
26.552199999999999
 20
216.679
 30
0.0
 11
100.066
 21
216.679
 31
0.0
  0
LINE
  5
11E
  8
0
 62
     7
 10
100.816
 20
215.929
 30
0.0
 11
100.816
 21
194.17099999999999
 31
0.0
  0
LINE
  5
11F
  8
0
 62
     7
 10
100.816
 20
194.17099999999999
 30
0.0
 11
100.816
 21
172.41300000000001
 31
0.0
  0
LINE
  5
120
  8
0
 62
     7
 10
99.489500000000007
 20
172.59599999999989
 30
0.0
 11
99.5274
 21
172.59599999999989
 31
0.0
  0
LINE
  5
121
  8
0
 62
     7
 10
99.489500000000007
 20
172.59599999999989
 30
0.0
 11
97.532600000000002
 21
172.59599999999989
 31
0.0
  0
LINE
  5
122
  8
0
 62
     7
 10
97.532600000000002
 20
172.59599999999989
 30
0.0
 11
95.538600000000002
 21
172.59599999999989
 31
0.0
  0
LINE
  5
123
  8
0
 62
     7
 10
95.538600000000002
 20
172.59599999999989
 30
0.0
 11
93.544600000000017
 21
172.59599999999989
 31
0.0
  0
LINE
  5
124
  8
0
 62
     7
 10
93.544600000000017
 20
172.59599999999989
 30
0.0
 11
91.549899999999994
 21
172.59599999999989
 31
0.0
  0
LINE
  5
125
  8
0
 62
     7
 10
91.549899999999994
 20
172.59599999999989
 30
0.0
 11
89.555800000000005
 21
172.59599999999989
 31
0.0
  0
LINE
  5
126
  8
0
 62
     7
 10
89.555800000000005
 20
172.59599999999989
 30
0.0
 11
87.561099999999996
 21
172.59599999999989
 31
0.0
  0
LINE
  5
127
  8
0
 62
     7
 10
87.561099999999996
 20
172.59599999999989
 30
0.0
 11
85.567099999999996
 21
172.59599999999989
 31
0.0
  0
LINE
  5
128
  8
0
 62
     7
 10
85.567099999999996
 20
172.59599999999989
 30
0.0
 11
83.572299999999984
 21
172.59599999999989
 31
0.0
  0
LINE
  5
129
  8
0
 62
     7
 10
83.572299999999984
 20
172.59599999999989
 30
0.0
 11
81.578299999999999
 21
172.59599999999989
 31
0.0
  0
LINE
  5
12A
  8
0
 62
     7
 10
81.578299999999999
 20
172.59599999999989
 30
0.0
 11
79.5839
 21
172.59599999999989
 31
0.0
  0
LINE
  5
12B
  8
0
 62
     7
 10
79.5839
 20
172.59599999999989
 30
0.0
 11
77.589600000000004
 21
172.59599999999989
 31
0.0
  0
LINE
  5
12C
  8
0
 62
     7
 10
77.589600000000004
 20
172.59599999999989
 30
0.0
 11
75.595200000000006
 21
172.59599999999989
 31
0.0
  0
LINE
  5
12D
  8
0
 62
     7
 10
75.595200000000006
 20
172.59599999999989
 30
0.0
 11
73.600800000000007
 21
172.59599999999989
 31
0.0
  0
LINE
  5
12E
  8
0
 62
     7
 10
73.600800000000007
 20
172.59599999999989
 30
0.0
 11
71.606399999999994
 21
172.59599999999989
 31
0.0
  0
LINE
  5
12F
  8
0
 62
     7
 10
71.606399999999994
 20
172.59599999999989
 30
0.0
 11
69.611999999999995
 21
172.59599999999989
 31
0.0
  0
LINE
  5
130
  8
0
 62
     7
 10
69.611999999999995
 20
172.59599999999989
 30
0.0
 11
67.617999999999995
 21
172.59599999999989
 31
0.0
  0
LINE
  5
131
  8
0
 62
     7
 10
67.617999999999995
 20
172.59599999999989
 30
0.0
 11
65.6233
 21
172.59599999999989
 31
0.0
  0
LINE
  5
132
  8
0
 62
     7
 10
65.6233
 20
172.59599999999989
 30
0.0
 11
63.62919999999999
 21
172.59599999999989
 31
0.0
  0
LINE
  5
133
  8
0
 62
     7
 10
63.62919999999999
 20
172.59599999999989
 30
0.0
 11
61.634500000000003
 21
172.59599999999989
 31
0.0
  0
LINE
  5
134
  8
0
 62
     7
 10
61.634500000000003
 20
172.59599999999989
 30
0.0
 11
59.640500000000003
 21
172.59599999999989
 31
0.0
  0
LINE
  5
135
  8
0
 62
     7
 10
59.640500000000003
 20
172.59599999999989
 30
0.0
 11
57.645800000000001
 21
172.59599999999989
 31
0.0
  0
LINE
  5
136
  8
0
 62
     7
 10
57.645800000000001
 20
172.59599999999989
 30
0.0
 11
55.651699999999998
 21
172.59599999999989
 31
0.0
  0
LINE
  5
137
  8
0
 62
     7
 10
55.651699999999998
 20
172.59599999999989
 30
0.0
 11
53.657400000000003
 21
172.59599999999989
 31
0.0
  0
LINE
  5
138
  8
0
 62
     7
 10
53.657400000000003
 20
172.59599999999989
 30
0.0
 11
51.662999999999997
 21
172.59599999999989
 31
0.0
  0
LINE
  5
139
  8
0
 62
     7
 10
51.662999999999997
 20
172.59599999999989
 30
0.0
 11
49.668599999999998
 21
172.59599999999989
 31
0.0
  0
LINE
  5
13A
  8
0
 62
     7
 10
49.668599999999998
 20
172.59599999999989
 30
0.0
 11
47.674199999999999
 21
172.59599999999989
 31
0.0
  0
LINE
  5
13B
  8
0
 62
     7
 10
47.674199999999999
 20
172.59599999999989
 30
0.0
 11
45.6798
 21
172.59599999999989
 31
0.0
  0
LINE
  5
13C
  8
0
 62
     7
 10
45.6798
 20
172.59599999999989
 30
0.0
 11
43.68549999999999
 21
172.59599999999989
 31
0.0
  0
LINE
  5
13D
  8
0
 62
     7
 10
43.68549999999999
 20
172.59599999999989
 30
0.0
 11
41.691400000000002
 21
172.59599999999989
 31
0.0
  0
LINE
  5
13E
  8
0
 62
     7
 10
41.691400000000002
 20
172.59599999999989
 30
0.0
 11
39.6967
 21
172.59599999999989
 31
0.0
  0
LINE
  5
13F
  8
0
 62
     7
 10
39.6967
 20
172.59599999999989
 30
0.0
 11
37.7027
 21
172.595
 31
0.0
  0
LINE
  5
140
  8
0
 62
     7
 10
37.7027
 20
172.595
 30
0.0
 11
35.707999999999998
 21
172.595
 31
0.0
  0
LINE
  5
141
  8
0
 62
     7
 10
35.707999999999998
 20
172.595
 30
0.0
 11
33.713900000000002
 21
172.595
 31
0.0
  0
ARC
  5
142
  8
0
 62
     7
 10
32.71672800000001
 20
-6.2075139999999989
 30
0.0
 40
178.80567400000001
 50
89.680452999999986
 51
90.319527000000008
  0
ARC
  5
143
  8
0
 62
     7
 10
30.722349999999999
 20
-5.4744409999999997
 30
0.0
 40
178.07261199999999
 50
89.679137999999995
 51
90.320841999999985
  0
LINE
  5
144
  8
0
 62
     7
 10
29.725200000000001
 20
172.595
 30
0.0
 11
27.730799999999999
 21
172.59599999999989
 31
0.0
  0
LINE
  5
145
  8
0
 62
     7
 10
100.066
 20
171.66300000000001
 30
0.0
 11
26.5398
 21
171.66300000000001
 31
0.0
  0
LINE
  5
146
  8
0
 62
     7
 10
99.9191
 20
194.17099999999999
 30
0.0
 11
99.9191
 21
172.91099999999989
 31
0.0
  0
LINE
  5
147
  8
0
 62
     7
 10
99.9191
 20
172.91099999999989
 30
0.0
 11
99.9191
 21
172.886
 31
0.0
  0
LINE
  5
148
  8
0
 62
     7
 10
27.730799999999999
 20
215.74600000000001
 30
0.0
 11
29.725200000000001
 21
215.74700000000001
 31
0.0
  0
LINE
  5
149
  8
0
 62
     7
 10
29.725200000000001
 20
215.74700000000001
 30
0.0
 11
31.719200000000001
 21
215.74700000000001
 31
0.0
  0
LINE
  5
14A
  8
0
 62
     7
 10
31.719200000000001
 20
215.74700000000001
 30
0.0
 11
33.713900000000002
 21
215.74700000000001
 31
0.0
  0
LINE
  5
14B
  8
0
 62
     7
 10
33.713900000000002
 20
215.74700000000001
 30
0.0
 11
35.707999999999998
 21
215.74700000000001
 31
0.0
  0
LINE
  5
14C
  8
0
 62
     7
 10
35.707999999999998
 20
215.74700000000001
 30
0.0
 11
37.7027
 21
215.74700000000001
 31
0.0
  0
LINE
  5
14D
  8
0
 62
     7
 10
37.7027
 20
215.74700000000001
 30
0.0
 11
39.6967
 21
215.74700000000001
 31
0.0
  0
LINE
  5
14E
  8
0
 62
     7
 10
39.6967
 20
215.74700000000001
 30
0.0
 11
41.691400000000002
 21
215.74700000000001
 31
0.0
  0
LINE
  5
14F
  8
0
 62
     7
 10
41.691400000000002
 20
215.74700000000001
 30
0.0
 11
43.68549999999999
 21
215.74700000000001
 31
0.0
  0
LINE
  5
150
  8
0
 62
     7
 10
43.68549999999999
 20
215.74700000000001
 30
0.0
 11
45.6798
 21
215.74700000000001
 31
0.0
  0
LINE
  5
151
  8
0
 62
     7
 10
45.6798
 20
215.74700000000001
 30
0.0
 11
47.674199999999999
 21
215.74700000000001
 31
0.0
  0
LINE
  5
152
  8
0
 62
     7
 10
47.674199999999999
 20
215.74700000000001
 30
0.0
 11
49.668599999999998
 21
215.74700000000001
 31
0.0
  0
LINE
  5
153
  8
0
 62
     7
 10
49.668599999999998
 20
215.74700000000001
 30
0.0
 11
51.662999999999997
 21
215.74700000000001
 31
0.0
  0
LINE
  5
154
  8
0
 62
     7
 10
51.662999999999997
 20
215.74700000000001
 30
0.0
 11
53.657400000000003
 21
215.74700000000001
 31
0.0
  0
LINE
  5
155
  8
0
 62
     7
 10
53.657400000000003
 20
215.74700000000001
 30
0.0
 11
55.651699999999998
 21
215.74700000000001
 31
0.0
  0
LINE
  5
156
  8
0
 62
     7
 10
55.651699999999998
 20
215.74700000000001
 30
0.0
 11
57.645800000000001
 21
215.74700000000001
 31
0.0
  0
LINE
  5
157
  8
0
 62
     7
 10
57.645800000000001
 20
215.74700000000001
 30
0.0
 11
59.640500000000003
 21
215.74700000000001
 31
0.0
  0
LINE
  5
158
  8
0
 62
     7
 10
59.640500000000003
 20
215.74700000000001
 30
0.0
 11
61.634500000000003
 21
215.74700000000001
 31
0.0
  0
LINE
  5
159
  8
0
 62
     7
 10
61.634500000000003
 20
215.74700000000001
 30
0.0
 11
63.62919999999999
 21
215.74700000000001
 31
0.0
  0
LINE
  5
15A
  8
0
 62
     7
 10
63.62919999999999
 20
215.74700000000001
 30
0.0
 11
65.6233
 21
215.74700000000001
 31
0.0
  0
LINE
  5
15B
  8
0
 62
     7
 10
65.6233
 20
215.74700000000001
 30
0.0
 11
67.617999999999995
 21
215.74700000000001
 31
0.0
  0
LINE
  5
15C
  8
0
 62
     7
 10
67.617999999999995
 20
215.74700000000001
 30
0.0
 11
69.611999999999995
 21
215.74700000000001
 31
0.0
  0
LINE
  5
15D
  8
0
 62
     7
 10
69.611999999999995
 20
215.74700000000001
 30
0.0
 11
71.606399999999994
 21
215.74700000000001
 31
0.0
  0
LINE
  5
15E
  8
0
 62
     7
 10
71.606399999999994
 20
215.74700000000001
 30
0.0
 11
73.600800000000007
 21
215.74700000000001
 31
0.0
  0
LINE
  5
15F
  8
0
 62
     7
 10
73.600800000000007
 20
215.74700000000001
 30
0.0
 11
75.595200000000006
 21
215.74700000000001
 31
0.0
  0
LINE
  5
160
  8
0
 62
     7
 10
75.595200000000006
 20
215.74700000000001
 30
0.0
 11
77.589600000000004
 21
215.74700000000001
 31
0.0
  0
LINE
  5
161
  8
0
 62
     7
 10
77.589600000000004
 20
215.74700000000001
 30
0.0
 11
79.5839
 21
215.74700000000001
 31
0.0
  0
LINE
  5
162
  8
0
 62
     7
 10
79.5839
 20
215.74700000000001
 30
0.0
 11
81.578299999999999
 21
215.74600000000001
 31
0.0
  0
LINE
  5
163
  8
0
 62
     7
 10
81.578299999999999
 20
215.74600000000001
 30
0.0
 11
83.572299999999984
 21
215.74600000000001
 31
0.0
  0
LINE
  5
164
  8
0
 62
     7
 10
83.572299999999984
 20
215.74600000000001
 30
0.0
 11
85.567099999999996
 21
215.74600000000001
 31
0.0
  0
LINE
  5
165
  8
0
 62
     7
 10
85.567099999999996
 20
215.74600000000001
 30
0.0
 11
87.561099999999996
 21
215.74600000000001
 31
0.0
  0
LINE
  5
166
  8
0
 62
     7
 10
87.561099999999996
 20
215.74600000000001
 30
0.0
 11
89.555800000000005
 21
215.74600000000001
 31
0.0
  0
LINE
  5
167
  8
0
 62
     7
 10
89.555800000000005
 20
215.74600000000001
 30
0.0
 11
91.549899999999994
 21
215.74600000000001
 31
0.0
  0
LINE
  5
168
  8
0
 62
     7
 10
91.549899999999994
 20
215.74600000000001
 30
0.0
 11
93.544600000000017
 21
215.74600000000001
 31
0.0
  0
LINE
  5
169
  8
0
 62
     7
 10
93.544600000000017
 20
215.74600000000001
 30
0.0
 11
95.538600000000002
 21
215.74600000000001
 31
0.0
  0
LINE
  5
16A
  8
0
 62
     7
 10
95.538600000000002
 20
215.74600000000001
 30
0.0
 11
97.532999999999987
 21
215.74600000000001
 31
0.0
  0
ARC
  5
16B
  8
0
 62
     7
 10
97.540627999999984
 20
171.29188500000001
 30
0.0
 40
44.454450999999992
 50
89.241235999999986
 51
90.009831000000005
  0
ARC
  5
16C
  8
0
 62
     7
 10
98.748508000000001
 20
244.66140100000001
 30
0.0
 40
28.925592000000002
 50
268.77341000000001
 51
271.46787599999999
  0
LINE
  5
16D
  8
0
 62
     7
 10
99.5274
 20
215.74600000000001
 30
0.0
 11
99.489500000000007
 21
215.745
 31
0.0
  0
ARC
  5
16E
  8
0
 62
     7
 10
119.235607
 20
214.573859
 30
0.0
 40
19.336601999999999
 50
177.45701600000001
 51
180.1567949999999
  0
ARC
  5
16F
  8
0
 62
     7
 10
140.27336500000001
 20
214.51713000000001
 30
0.0
 40
40.374287999999993
 50
179.99456000000001
 51
181.00860399999999
  0
ARC
  5
170
  8
0
 62
     7
 10
419.28942899999993
 20
219.58754500000001
 30
0.0
 40
319.43641400000001
 50
181.037003
 51
181.16532100000001
  0
ARC
  5
171
  8
0
 62
     7
 10
60.212712000000003
 20
212.32012
 30
0.0
 40
39.713853999999998
 50
0.338391
 51
1.1124940000000001
  0
ARC
  5
172
  8
0
 62
     7
 10
27.76417
 20
212.15337600000001
 30
0.0
 40
72.162819999999996
 50
359.585216
 51
0.318621
  0
ARC
  5
173
  8
0
 62
     7
 10
-124.400566
 20
212.67087100000001
 30
0.0
 40
224.32807500000001
 50
359.50332500000002
 51
359.734397
  0
ARC
  5
174
  8
0
 62
     7
 10
237.822948
 20
209.913386
 30
0.0
 40
137.906263
 50
179.66224500000001
 51
180.0920909999999
  0
LINE
  5
175
  8
0
 62
     7
 10
99.916899999999998
 20
209.69200000000001
 30
0.0
 11
99.918700000000001
 21
208.36099999999999
 31
0.0
  0
ARC
  5
176
  8
0
 62
     7
 10
-632.240094
 20
207.07210000000001
 30
0.0
 40
732.15996500000006
 50
359.91581300000001
 51
0.10088
  0
ARC
  5
177
  8
0
 62
     7
 10
2112.7071299999998
 20
204.813772
 30
0.0
 40
2012.788
 50
179.966318
 51
180.033682
  0
LINE
  5
178
  8
0
 62
     7
 10
99.9191
 20
203.631
 30
0.0
 11
99.9191
 21
201.26599999999999
 31
0.0
  0
LINE
  5
179
  8
0
 62
     7
 10
99.9191
 20
201.26599999999999
 30
0.0
 11
99.9191
 21
198.90100000000001
 31
0.0
  0
LINE
  5
17A
  8
0
 62
     7
 10
99.9191
 20
198.90100000000001
 30
0.0
 11
99.9191
 21
196.536
 31
0.0
  0
LINE
  5
17B
  8
0
 62
     7
 10
99.9191
 20
196.536
 30
0.0
 11
99.9191
 21
194.17099999999999
 31
0.0
  0
LINE
  5
17C
  8
0
 62
     7
 10
25.7898
 20
172.41300000000001
 30
0.0
 11
25.8019
 21
215.93000000000001
 31
0.0
  0
LINE
  5
17D
  8
0
 62
     7
 10
26.464700000000001
 20
215.63
 30
0.0
 11
26.464700000000001
 21
194.17099999999999
 31
0.0
  0
LINE
  5
17E
  8
0
 62
     7
 10
26.464700000000001
 20
194.17099999999999
 30
0.0
 11
26.464700000000001
 21
172.71199999999999
 31
0.0
  0
ARC
  5
17F
  8
0
 62
     7
 10
105.33397100000001
 20
174.20148900000001
 30
0.0
 40
5.5723979999999997
 50
193.336375
 51
193.65512799999999
  0
ARC
  5
180
  8
0
 62
     7
 10
100.16483599999999
 20
175.73888199999999
 30
0.0
 40
3.207317999999999
 50
257.84431499999999
 51
258.53594199999998
  0
ARC
  5
181
  8
0
 62
     7
 10
99.813635000000005
 20
174.12951200000001
 30
0.0
 40
1.5604420000000001
 50
259.42920900000001
 51
261.404923
  0
ARC
  5
182
  8
0
 62
     7
 10
99.679911000000004
 20
173.284121
 30
0.0
 40
0.7045860000000001
 50
261.88289900000001
 51
265.99697900000001
  0
LINE
  5
183
  8
0
 62
     7
 10
99.630700000000004
 20
172.58099999999999
 30
0.0
 11
99.676900000000003
 21
172.58000000000001
 31
0.0
  0
LINE
  5
184
  8
0
 62
     7
 10
99.676900000000003
 20
172.58000000000001
 30
0.0
 11
99.720000000000013
 21
172.583
 31
0.0
  0
ARC
  5
185
  8
0
 62
     7
 10
99.677381999999994
 20
172.946169
 30
0.0
 40
0.365336
 50
276.69158700000003
 51
282.8902240000001
  0
ARC
  5
186
  8
0
 62
     7
 10
99.699391000000006
 20
172.85300799999999
 30
0.0
 40
0.269614
 50
282.74751300000003
 51
290.54789499999998
  0
ARC
  5
187
  8
0
 62
     7
 10
99.710474000000005
 20
172.83030400000001
 30
0.0
 40
0.244476
 50
289.98329699999999
 51
297.94169499999998
  0
ARC
  5
188
  8
0
 62
     7
 10
99.729358000000005
 20
172.796447
 30
0.0
 40
0.205719
 50
297.71377000000001
 51
308.98912999999999
  0
ARC
  5
189
  8
0
 62
     7
 10
99.738478000000015
 20
172.78373300000001
 30
0.0
 40
0.190101
 50
309.263509
 51
320.73650099999998
  0
ARC
  5
18A
  8
0
 62
     7
 10
99.740718000000001
 20
172.78162800000001
 30
0.0
 40
0.187035
 50
320.80165499999998
 51
344.33214500000003
  0
ARC
  5
18B
  8
0
 62
     7
 10
99.657792000000001
 20
172.80186399999999
 30
0.0
 40
0.27236
 50
344.94443799999999
 51
354.8943680000001
  0
ARC
  5
18C
  8
0
 62
     7
 10
99.648393000000013
 20
172.79962800000001
 30
0.0
 40
0.28154
 50
355.51784099999998
 51
6.015064999999999
  0
ARC
  5
18D
  8
0
 62
     7
 10
99.387440999999995
 20
172.76979600000001
 30
0.0
 40
0.544186
 50
6.259596000000001
 51
12.327019
  0
ARC
  5
18E
  8
0
 62
     7
 10
99.707284999999985
 20
214.79129
 30
0.0
 40
0.9718429999999999
 50
100.668536
 51
102.95120799999999
  0
ARC
  5
18F
  8
0
 62
     7
 10
95.440867999999995
 20
216.50889799999999
 30
0.0
 40
4.6002660000000004
 50
346.38406700000002
 51
346.772266
  0
ARC
  5
190
  8
0
 62
     7
 10
99.163691
 20
215.617627
 30
0.0
 40
0.7724330000000002
 50
347.94134400000002
 51
350.54272400000002
  0
ARC
  5
191
  8
0
 62
     7
 10
99.611847999999995
 20
215.54028199999999
 30
0.0
 40
0.31767
 50
351.02185500000002
 51
356.96013500000009
  0
ARC
  5
192
  8
0
 62
     7
 10
99.647501000000005
 20
215.542069
 30
0.0
 40
0.282186
 50
356.21385199999997
 51
2.5129609999999998
  0
ARC
  5
193
  8
0
 62
     7
 10
99.716570000000004
 20
215.54671099999999
 30
0.0
 40
0.212987
 50
2.0801210000000001
 51
10.008062000000001
  0
ARC
  5
194
  8
0
 62
     7
 10
99.63909000000001
 20
215.53971899999999
 30
0.0
 40
0.290576
 50
8.7105509999999988
 51
14.188122
  0
ARC
  5
195
  8
0
 62
     7
 10
99.725162999999995
 20
215.552357
 30
0.0
 40
0.204223
 50
16.670469000000001
 51
38.195729999999998
  0
ARC
  5
196
  8
0
 62
     7
 10
99.744258000000002
 20
215.56410500000001
 30
0.0
 40
0.18197
 50
39.006242000000007
 51
50.993747999999989
  0
ARC
  5
197
  8
0
 62
     7
 10
99.732478999999998
 20
215.550354
 30
0.0
 40
0.20007
 50
50.851176000000002
 51
62.445923000000001
  0
ARC
  5
198
  8
0
 62
     7
 10
99.708175999999995
 20
215.50889000000001
 30
0.0
 40
0.248085
 50
61.899553999999988
 51
76.002142000000006
  0
ARC
  5
199
  8
0
 62
     7
 10
99.678431000000003
 20
215.41425000000001
 30
0.0
 40
0.347161
 50
75.016842999999994
 51
86.613636999999997
  0
ARC
  5
19A
  8
0
 62
     7
 10
99.665296000000012
 20
215.24033800000001
 30
0.0
 40
0.521552
 50
86.301653999999999
 51
95.167368000000025
  0
ARC
  5
19B
  8
0
 62
     7
 10
99.686869999999999
 20
214.981201
 30
0.0
 40
0.7815810000000001
 50
95.031533999999994
 51
101.775187
  0
ARC
  5
19C
  8
0
 62
     7
 10
26.641957000000001
 20
172.67960199999999
 30
0.0
 40
0.180129
 50
169.750812
 51
173.51737800000001
  0
ARC
  5
19D
  8
0
 62
     7
 10
26.50543900000001
 20
172.69656000000001
 30
0.0
 40
0.042594
 50
175.44950299999999
 51
191.28341800000001
  0
ARC
  5
19E
  8
0
 62
     7
 10
26.503474000000001
 20
172.69297399999999
 30
0.0
 40
0.040088
 50
186.80329
 51
203.70698300000001
  0
ARC
  5
19F
  8
0
 62
     7
 10
26.532062
 20
172.69967700000001
 30
0.0
 40
0.069167
 50
199.26444599999999
 51
209.6234980000001
  0
ARC
  5
1A0
  8
0
 62
     7
 10
26.553044
 20
172.714899
 30
0.0
 40
0.094973
 50
211.34999500000001
 51
224.55849799999999
  0
ARC
  5
1A1
  8
0
 62
     7
 10
26.563876
 20
172.722554
 30
0.0
 40
0.108084
 50
223.421122
 51
236.344425
  0
ARC
  5
1A2
  8
0
 62
     7
 10
26.612013999999999
 20
172.78704099999999
 30
0.0
 40
0.188489
 50
235.02795900000001
 51
248.15334999999999
  0
ARC
  5
1A3
  8
0
 62
     7
 10
26.698255
 20
172.97159300000001
 30
0.0
 40
0.392045
 50
246.49125900000001
 51
254.300589
  0
ARC
  5
1A4
  8
0
 62
     7
 10
26.796696000000001
 20
173.31699800000001
 30
0.0
 40
0.7512020000000002
 50
254.200988
 51
260.6655970000001
  0
ARC
  5
1A5
  8
0
 62
     7
 10
26.885667000000002
 20
173.80072100000001
 30
0.0
 40
1.2429870000000001
 50
260.235321
 51
264.992614
  0
ARC
  5
1A6
  8
0
 62
     7
 10
26.959143999999998
 20
174.46292500000001
 30
0.0
 40
1.909138
 50
264.53054700000001
 51
268.37449500000002
  0
LINE
  5
1A7
  8
0
 62
     7
 10
26.905000000000001
 20
172.55500000000001
 30
0.0
 11
27.064800000000002
 21
172.553
 31
0.0
  0
ARC
  5
1A8
  8
0
 62
     7
 10
27.019466999999999
 20
177.57772199999999
 30
0.0
 40
5.0249220000000001
 50
270.51738699999999
 51
273.91835499999991
  0
ARC
  5
1A9
  8
0
 62
     7
 10
26.80464000000001
 20
181.387168
 30
0.0
 40
8.8402630000000002
 50
273.62026400000002
 51
276.01358500000009
  0
ARC
  5
1AA
  8
0
 62
     7
 10
45.144257000000003
 20
395.03832799999998
 30
0.0
 40
180.135637
 50
264.402985
 51
264.45263999999997
  0
ARC
  5
1AB
  8
0
 62
     7
 10
26.095030999999999
 20
197.846801
 30
0.0
 40
17.975753999999998
 50
85.276098000000005
 51
85.738719999999986
  0
ARC
  5
1AC
  8
0
 62
     7
 10
27.043579000000001
 20
210.72531699999999
 30
0.0
 40
5.0623690000000003
 50
85.614135999999988
 51
87.122290000000007
  0
ARC
  5
1AD
  8
0
 62
     7
 10
26.944597000000002
 20
209.11151000000001
 30
0.0
 40
6.6791339999999986
 50
86.969275999999994
 51
88.016480999999985
  0
ARC
  5
1AE
  8
0
 62
     7
 10
26.724481999999998
 20
197.57986700000001
 30
0.0
 40
18.212368000000001
 50
88.580088000000003
 51
88.929164
  0
ARC
  5
1AF
  8
0
 62
     7
 10
27.031797000000001
 20
211.38824199999999
 30
0.0
 40
4.4009359999999988
 50
89.569780000000009
 51
92.072976999999995
  0
ARC
  5
1B0
  8
0
 62
     7
 10
26.971800000000002
 20
213.801714
 30
0.0
 40
1.987061999999999
 50
92.861440999999985
 51
98.353401000000034
  0
ARC
  5
1B1
  8
0
 62
     7
 10
26.815207999999998
 20
214.95724200000001
 30
0.0
 40
0.8211450000000001
 50
99.256581000000011
 51
107.11394300000001
  0
ARC
  5
1B2
  8
0
 62
     7
 10
26.693795000000001
 20
215.37968900000001
 30
0.0
 40
0.381765
 50
108.356315
 51
115.552464
  0
ARC
  5
1B3
  8
0
 62
     7
 10
26.620335000000001
 20
215.540738
 30
0.0
 40
0.204807
 50
116.445426
 51
127.239462
  0
ARC
  5
1B4
  8
0
 62
     7
 10
26.573405999999999
 20
215.60648
 30
0.0
 40
0.124093
 50
128.35815700000001
 51
138.44176400000001
  0
ARC
  5
1B5
  8
0
 62
     7
 10
26.566893
 20
215.61929599999999
 30
0.0
 40
0.110843
 50
141.16637900000001
 51
151.45345399999999
  0
ARC
  5
1B6
  8
0
 62
     7
 10
26.531749000000001
 20
215.64233200000001
 30
0.0
 40
0.069049
 50
154.31017499999999
 51
172.29130000000001
  0
ARC
  5
1B7
  8
0
 62
     7
 10
26.535195999999999
 20
215.64563000000001
 30
0.0
 40
0.072119
 50
175.25642500000001
 51
192.18620100000001
  0
LINE
  5
1B8
  8
_________2
 62
     7
 10
205.30099999999999
 20
127.411
 30
0.0
 11
183.55000000000001
 21
127.411
 31
0.0
  0
LINE
  5
1B9
  8
_________2
 62
     7
 10
100.3
 20
-4.0910799999999998
 30
0.0
 11
100.3
 21
-21.071400000000001
 31
0.0
  0
LINE
  5
1BA
  8
_________2
 62
     7
 10
100.3
 20
275.93099999999998
 30
0.0
 11
100.3
 21
258.911
 31
0.0
  0
LINE
  5
1BB
  8
_________2
 62
     7
 10
17.049499999999998
 20
127.411
 30
0.0
 11
-4.70052
 21
127.411
 31
0.0
  0
LINE
  5
1BC
  8
_________2
 62
     7
 10
76.741
 20
29.8047
 30
0.0
 11
74.554699999999997
 21
29.8047
 31
0.0
  0
LINE
  5
1BD
  8
_________2
 62
     7
 10
77.233699999999999
 20
29.8047
 30
0.0
 11
76.981499999999997
 21
29.8047
 31
0.0
  0
LINE
  5
1BE
  8
_________2
 62
     7
 10
77.726299999999995
 20
29.8047
 30
0.0
 11
80.651200000000003
 21
29.8047
 31
0.0
  0
LINE
  5
1BF
  8
_________2
 62
     7
 10
77.233699999999999
 20
29.8047
 30
0.0
 11
77.485500000000002
 21
29.8047
 31
0.0
  0
LINE
  5
1C0
  8
_________2
 62
     7
 10
70.837100000000007
 20
29.8047
 30
0.0
 11
68.650499999999994
 21
29.8047
 31
0.0
  0
LINE
  5
1C1
  8
_________2
 62
     7
 10
71.329400000000007
 20
29.8047
 30
0.0
 11
71.077600000000004
 21
29.8047
 31
0.0
  0
LINE
  5
1C2
  8
_________2
 62
     7
 10
71.329400000000007
 20
30.2974
 30
0.0
 11
71.329400000000007
 21
32.484400000000001
 31
0.0
  0
LINE
  5
1C3
  8
_________2
 62
     7
 10
71.329400000000007
 20
29.8047
 30
0.0
 11
71.329400000000007
 21
30.056899999999999
 31
0.0
  0
LINE
  5
1C4
  8
_________2
 62
     7
 10
71.822100000000006
 20
29.8047
 30
0.0
 11
74.009
 21
29.8047
 31
0.0
  0
LINE
  5
1C5
  8
_________2
 62
     7
 10
71.329400000000007
 20
29.8047
 30
0.0
 11
71.581599999999995
 21
29.8047
 31
0.0
  0
LINE
  5
1C6
  8
_________2
 62
     7
 10
71.329400000000007
 20
29.312799999999999
 30
0.0
 11
71.329400000000007
 21
27.125800000000002
 31
0.0
  0
LINE
  5
1C7
  8
_________2
 62
     7
 10
71.329400000000007
 20
29.8047
 30
0.0
 11
71.329400000000007
 21
29.5532
 31
0.0
  0
LINE
  5
1C8
  8
_________2
 62
     7
 10
75.040499999999994
 20
28.5852
 30
0.0
 11
80.218500000000006
 21
27.720400000000001
 31
0.0
  0
LINE
  5
1C9
  8
_________2
 62
     7
 10
75.040499999999994
 20
31.0243
 30
0.0
 11
80.218500000000006
 21
31.889700000000001
 31
0.0
  0
LINE
  5
1CA
  8
_________2
 62
     7
 10
80.218500000000006
 20
27.720400000000001
 30
0.0
 11
80.218500000000006
 21
31.889700000000001
 31
0.0
  0
LINE
  5
1CB
  8
_________2
 62
     7
 10
75.040499999999994
 20
28.5852
 30
0.0
 11
75.040499999999994
 21
31.0243
 31
0.0
  0
ARC
  5
1CC
  8
_________2
 62
     7
 10
71.28285600000001
 20
29.757811
 30
0.0
 40
1.2673589999999999
 50
2.122214
 51
87.893958999999995
  0
ARC
  5
1CD
  8
_________2
 62
     7
 10
71.375959999999992
 20
29.758213000000001
 30
0.0
 40
1.2669559999999991
 50
92.104701000000006
 51
177.89526900000001
  0
ARC
  5
1CE
  8
_________2
 62
     7
 10
71.376357999999996
 20
29.851671
 30
0.0
 40
1.2673680000000001
 50
182.12203600000001
 51
267.877993
  0
ARC
  5
1CF
  8
_________2
 62
     7
 10
71.282531999999989
 20
29.851998999999999
 30
0.0
 40
1.267695999999999
 50
272.12015300000002
 51
357.863674
  0
ARC
  5
1D0
  8
_________2
 62
     7
 10
71.329430000000002
 20
29.804742999999998
 30
0.0
 40
2.0849849999999992
 50
0.00001
 51
89.999980000000008
  0
ARC
  5
1D1
  8
_________2
 62
     7
 10
71.329603000000006
 20
29.804915000000001
 30
0.0
 40
2.084813
 50
90.004733999999999
 51
180.00474399999999
  0
ARC
  5
1D2
  8
_________2
 62
     7
 10
71.409106000000008
 20
29.884775999999999
 30
0.0
 40
2.1657950000000001
 50
182.11776599999999
 51
267.89173399999999
  0
ARC
  5
1D3
  8
_________2
 62
     7
 10
71.249459000000002
 20
29.885429999999999
 30
0.0
 40
2.1664590000000001
 50
272.11546800000002
 51
357.86560400000002
  0
TEXT
  5
1D4
  8
_________2
 62
     7
 10
104.605
 20
1.6794899999999999
 30
0.0
 40
3.0923400000000001
  1
図番
 41
0.5
  0
LINE
  5
1D5
  8
_________2
 62
     7
 10
103.55
 20
5.9087199999999989
 30
0.0
 11
183.55099999999999
 21
5.9087199999999989
 31
0.0
  0
TEXT
  5
1D6
  8
_________2
 62
     7
 10
104.605
 20
11.6793
 30
0.0
 40
3.0923400000000001
  1
品番
 41
0.5
  0
TEXT
  5
1D7
  8
_________2
 62
     7
 10
104.605
 20
31.818100000000001
 30
0.0
 40
3.0923400000000001
  1
名称
 41
0.5
  0
TEXT
  5
1D8
  8
_________2
 62
     7
 10
91.845058333333341
 20
26.821999999999999
 30
0.0
 40
3.6545800000000002
  1
mm
 41
0.5
 72
     1
 11
93.367800000000003
 21
26.821999999999999
 31
0.0
  0
TEXT
  5
1D9
  8
_________2
 62
     7
 10
85.643199999999993
 20
31.818100000000001
 30
0.0
 40
3.0923400000000001
  1
単位
 41
0.5
  0
TEXT
  5
1DA
  8
_________2
 62
     7
 10
85.643199999999993
 20
19.410799999999998
 30
0.0
 40
3.0923400000000001
  1
尺度
 41
0.5
  0
TEXT
  5
1DB
  8
_________2
 62
     7
 10
90.548758666666686
 20
13.2179
 30
0.0
 40
3.6545800000000002
  1
1 ： 4
 41
0.5
 72
     1
 11
93.959699999999998
 21
13.2179
 31
0.0
  0
TEXT
  5
1DC
  8
_________2
 62
     7
 10
137.15448749999999
 20
9.1078600000000005
 30
0.0
 40
3.9357000000000002
  1
CEL420R
 41
0.5
 72
     1
 11
143.55000000000001
 21
9.1078600000000005
 31
0.0
  0
TEXT
  5
1DD
  8
_________2
 62
     7
 10
137.15448749999999
 20
-0.8926299999999999
 30
0.0
 40
3.9357000000000002
  1
CEL420R
 41
0.5
 72
     1
 11
143.55000000000001
 21
-0.8926299999999999
 31
0.0
  0
TEXT
  5
1DE
  8
_________2
 62
     7
 10
24.5868
 20
0.707283
 30
0.0
 40
3.9357000000000002
  1
重量：1.9kg、オーバーフローなし
 41
0.5
  0
TEXT
  5
1DF
  8
_________2
 62
     7
 10
109.179
 20
24.2257
 30
0.0
 40
3.9357000000000002
  1
手洗器
 41
0.5
  0
TEXT
  5
1E0
  8
_________2
 62
     7
 10
39.425300333333333
 20
13.603
 30
0.0
 40
3.6545800000000002
  1
井田
 41
0.5
 72
     1
 11
41.313499999999998
 21
13.603
 31
0.0
  0
TEXT
  5
1E1
  8
_________2
 62
     7
 10
20.851000333333339
 20
13.603
 30
0.0
 40
3.6545800000000002
  1
福田
 41
0.5
 72
     1
 11
22.7392
 21
13.603
 31
0.0
  0
TEXT
  5
1E2
  8
_________2
 62
     7
 10
67.785399999999996
 20
13.2179
 30
0.0
 40
3.6545800000000002
  1
18.04.03
 41
0.5
  0
TEXT
  5
1E3
  8
_________2
 62
     7
 10
66.593100000000007
 20
19.410799999999998
 30
0.0
 40
3.0923400000000001
  1
日付
 41
0.5
  0
TEXT
  5
1E4
  8
_________2
 62
     7
 10
29.639399999999998
 20
19.410799999999998
 30
0.0
 40
3.0923400000000001
  1
検図
 41
0.5
  0
TEXT
  5
1E5
  8
_________2
 62
     7
 10
18.021100000000001
 20
5.21143
 30
0.0
 40
3.0923400000000001
  1
備考
 41
0.5
  0
TEXT
  5
1E6
  8
_________2
 62
     7
 10
18.021100000000001
 20
19.410799999999998
 30
0.0
 40
3.0923400000000001
  1
製図
 41
0.5
  0
TEXT
  5
1E7
  8
_________2
 62
     7
 10
23.788465333333338
 20
27.936800000000002
 30
0.0
 40
4.4979399999999989
  1
セラトレーディング株式会社
 41
0.5
 72
     1
 11
41.180500000000002
 21
27.936800000000002
 31
0.0
  0
LINE
  5
1E8
  8
_________2
 62
     7
 10
183.55099999999999
 20
-4.0910799999999998
 30
0.0
 11
17.049499999999998
 21
-4.0910799999999998
 31
0.0
  0
LINE
  5
1E9
  8
_________2
 62
     7
 10
17.049499999999998
 20
-4.0910799999999998
 30
0.0
 11
17.049499999999998
 21
258.911
 31
0.0
  0
LINE
  5
1EA
  8
_________2
 62
     7
 10
17.049499999999998
 20
258.911
 30
0.0
 11
183.55099999999999
 21
258.911
 31
0.0
  0
LINE
  5
1EB
  8
_________2
 62
     7
 10
183.55099999999999
 20
258.911
 30
0.0
 11
183.55099999999999
 21
-4.0910799999999998
 31
0.0
  0
LINE
  5
1EC
  8
_________2
 62
     7
 10
65.549599999999998
 20
9.4089600000000004
 30
0.0
 11
65.549599999999998
 21
35.908799999999999
 31
0.0
  0
LINE
  5
1ED
  8
_________2
 62
     7
 10
84.549700000000016
 20
9.4089600000000004
 30
0.0
 11
84.549700000000016
 21
35.908799999999999
 31
0.0
  0
LINE
  5
1EE
  8
_________2
 62
     7
 10
103.55
 20
-4.0910799999999998
 30
0.0
 11
103.55
 21
35.908799999999999
 31
0.0
  0
LINE
  5
1EF
  8
_________2
 62
     7
 10
28.549299999999999
 20
9.4089600000000004
 30
0.0
 11
28.549299999999999
 21
23.409199999999998
 31
0.0
  0
LINE
  5
1F0
  8
_________2
 62
     7
 10
17.049499999999998
 20
9.4089600000000004
 30
0.0
 11
103.55
 21
9.4089600000000004
 31
0.0
  0
LINE
  5
1F1
  8
_________2
 62
     7
 10
17.049499999999998
 20
23.409199999999998
 30
0.0
 11
103.55
 21
23.409199999999998
 31
0.0
  0
LINE
  5
1F2
  8
_________2
 62
     7
 10
103.55
 20
15.9085
 30
0.0
 11
183.55099999999999
 21
15.9085
 31
0.0
  0
LINE
  5
1F3
  8
_________2
 62
     7
 10
17.049499999999998
 20
35.908799999999999
 30
0.0
 11
183.55099999999999
 21
35.908799999999999
 31
0.0
  0
ENDSEC
  0
EOF
