  0
SECTION
  2
HEADER
  9
$ACADVER
  1
AC1009
  9
$INSBASE
 10
0.0
 20
0.0
 30
0.0
  9
$EXTMIN
 10
0.238058
 20
0.4482100000000001
 30
0.0
  9
$EXTMAX
 10
210.24000000000001
 20
297.44999999999987
 30
0.0
  9
$LIMMIN
 10
0.0
 20
0.0
  9
$LIMMAX
 10
12.0
 20
9.0
  9
$ORTHOMODE
 70
     0
  9
$REGENMODE
 70
     1
  9
$FILLMODE
 70
     1
  9
$QTEXTMODE
 70
     0
  9
$MIRRTEXT
 70
     1
  9
$DRAGMODE
 70
     2
  9
$LTSCALE
 40
1.0
  9
$OSMODE
 70
    37
  9
$ATTMODE
 70
     1
  9
$TEXTSIZE
 40
0.0
  9
$TRACEWID
 40
0.05
  9
$TEXTSTYLE
  7
STANDARD
  9
$CLAYER
  8
0
  9
$CELTYPE
  6
CONTINUOUS
  9
$CECOLOR
 62
   256
  9
$DIMSCALE
 40
1.0
  9
$DIMASZ
 40
0.18
  9
$DIMEXO
 40
0.0625
  9
$DIMDLI
 40
0.38
  9
$DIMRND
 40
0.0
  9
$DIMDLE
 40
0.0
  9
$DIMEXE
 40
0.18
  9
$DIMTP
 40
0.0
  9
$DIMTM
 40
0.0
  9
$DIMTXT
 40
0.18
  9
$DIMCEN
 40
0.09
  9
$DIMTSZ
 40
0.0
  9
$DIMTOL
 70
     0
  9
$DIMLIM
 70
     0
  9
$DIMTIH
 70
     1
  9
$DIMTOH
 70
     1
  9
$DIMSE1
 70
     0
  9
$DIMSE2
 70
     0
  9
$DIMTAD
 70
     0
  9
$DIMZIN
 70
     0
  9
$DIMBLK
  1

  9
$DIMASO
 70
     1
  9
$DIMSHO
 70
     1
  9
$DIMPOST
  1

  9
$DIMAPOST
  1

  9
$DIMALT
 70
     0
  9
$DIMALTD
 70
     2
  9
$DIMALTF
 40
25.399999999999999
  9
$DIMLFAC
 40
1.0
  9
$DIMTOFL
 70
     0
  9
$DIMTVP
 40
0.0
  9
$DIMTIX
 70
     0
  9
$DIMSOXD
 70
     0
  9
$DIMSAH
 70
     0
  9
$DIMBLK1
  1

  9
$DIMBLK2
  1

  9
$DIMSTYLE
  2
STANDARD
  9
$DIMCLRD
 70
     0
  9
$DIMCLRE
 70
     0
  9
$DIMCLRT
 70
     0
  9
$DIMTFAC
 40
1.0
  9
$DIMGAP
 40
0.09
  9
$LUNITS
 70
     2
  9
$LUPREC
 70
     4
  9
$SKETCHINC
 40
0.1
  9
$FILLETRAD
 40
0.0
  9
$AUNITS
 70
     0
  9
$AUPREC
 70
     0
  9
$MENU
  1
.
  9
$ELEVATION
 40
0.0
  9
$PELEVATION
 40
0.0
  9
$THICKNESS
 40
0.0
  9
$LIMCHECK
 70
     0
  9
$BLIPMODE
 70
     0
  9
$CHAMFERA
 40
0.0
  9
$CHAMFERB
 40
0.0
  9
$SKPOLY
 70
     0
  9
$TDCREATE
 40
2444972.375
  9
$TDUPDATE
 40
2456329.250951157
  9
$TDINDWG
 40
0.0000086343
  9
$TDUSRTIMER
 40
0.0000086343
  9
$USRTIMER
 70
     1
  9
$ANGBASE
 50
0.0
  9
$ANGDIR
 70
     0
  9
$PDMODE
 70
     0
  9
$PDSIZE
 40
0.0
  9
$PLINEWID
 40
0.0
  9
$COORDS
 70
     1
  9
$SPLFRAME
 70
     0
  9
$SPLINETYPE
 70
     6
  9
$SPLINESEGS
 70
     8
  9
$ATTDIA
 70
     0
  9
$ATTREQ
 70
     1
  9
$HANDLING
 70
     1
  9
$HANDSEED
  5
219
  9
$SURFTAB1
 70
     6
  9
$SURFTAB2
 70
     6
  9
$SURFTYPE
 70
     6
  9
$SURFU
 70
     6
  9
$SURFV
 70
     6
  9
$UCSNAME
  2

  9
$UCSORG
 10
0.0
 20
0.0
 30
0.0
  9
$UCSXDIR
 10
1.0
 20
0.0
 30
0.0
  9
$UCSYDIR
 10
0.0
 20
1.0
 30
0.0
  9
$PUCSNAME
  2

  9
$PUCSORG
 10
0.0
 20
0.0
 30
0.0
  9
$PUCSXDIR
 10
1.0
 20
0.0
 30
0.0
  9
$PUCSYDIR
 10
0.0
 20
1.0
 30
0.0
  9
$USERI1
 70
     0
  9
$USERI2
 70
     0
  9
$USERI3
 70
     0
  9
$USERI4
 70
     0
  9
$USERI5
 70
     0
  9
$USERR1
 40
0.0
  9
$USERR2
 40
0.0
  9
$USERR3
 40
0.0
  9
$USERR4
 40
0.0
  9
$USERR5
 40
0.0
  9
$WORLDVIEW
 70
     1
  9
$SHADEDGE
 70
     3
  9
$SHADEDIF
 70
    70
  9
$TILEMODE
 70
     1
  9
$MAXACTVP
 70
    48
  9
$PLIMCHECK
 70
     0
  9
$PEXTMIN
 10
1.0000000000000000E+020
 20
1.0000000000000000E+020
 30
1.0000000000000000E+020
  9
$PEXTMAX
 10
-1.0000000000000000E+020
 20
-1.0000000000000000E+020
 30
-1.0000000000000000E+020
  9
$PLIMMIN
 10
0.0
 20
0.0
  9
$PLIMMAX
 10
12.0
 20
9.0
  9
$UNITMODE
 70
     0
  9
$VISRETAIN
 70
     1
  9
$PLINEGEN
 70
     0
  9
$PSLTSCALE
 70
     1
  0
ENDSEC
  0
SECTION
  2
TABLES
  0
TABLE
  2
VPORT
 70
     2
  0
VPORT
  2
*ACTIVE
 70
     0
 10
0.0
 20
0.0
 11
1.0
 21
1.0
 12
210.2887023820887
 22
148.72499999999991
 13
0.0
 23
0.0
 14
1.0
 24
1.0
 15
0.0
 25
0.0
 16
0.0
 26
0.0
 36
1.0
 17
0.0
 27
0.0
 37
0.0
 40
299.69773299748101
 41
2.2894736842105261
 42
50.0
 43
0.0
 44
0.0
 50
0.0
 51
0.0
 71
     0
 72
   100
 73
     1
 74
     1
 75
     0
 76
     0
 77
     0
 78
     0
  0
ENDTAB
  0
TABLE
  2
LTYPE
 70
     4
  0
LTYPE
  2
CONTINUOUS
 70
     0
  3
Solid line
 72
    65
 73
     0
 40
0.0
  0
LTYPE
  2
AIGENLINE001
 70
     0
  3
generate AI->DXF Converter
 72
    65
 73
     4
 40
5.8561449999999988
 49
3.5278
 49
-0.776115
 49
0.776115
 49
-0.776115
  0
LTYPE
  2
AIGENLINE002
 70
     0
  3
generate AI->DXF Converter
 72
    65
 73
     2
 40
1.5522299999999991
 49
0.776115
 49
-0.776115
  0
LTYPE
  2
AIGENLINE003
 70
     0
  3
generate AI->DXF Converter
 72
    65
 73
     6
 40
7.4083750000000004
 49
3.5278
 49
-0.776115
 49
0.776115
 49
-0.776115
 49
0.776115
 49
-0.776115
  0
ENDTAB
  0
TABLE
  2
LAYER
 70
     2
  0
LAYER
  2
0
 70
     0
 62
     7
  6
CONTINUOUS
  0
LAYER
  2
_________2
 70
     0
 62
     7
  6
CONTINUOUS
  0
ENDTAB
  0
TABLE
  2
STYLE
 70
     1
  0
STYLE
  2
STANDARD
 70
     0
 40
0.0
 41
0.0
 50
0.0
 71
     0
 42
0.0
  3
TXT
  4
EXTFONT.SHX
  0
ENDTAB
  0
TABLE
  2
VIEW
 70
     0
  0
ENDTAB
  0
TABLE
  2
UCS
 70
     0
  0
ENDTAB
  0
TABLE
  2
APPID
 70
     1
  0
APPID
  2
ACAD
 70
     0
  0
ENDTAB
  0
TABLE
  2
DIMSTYLE
 70
     1
  0
DIMSTYLE
  2
STANDARD
 70
     0
  3

  4

  5

  6

  7

 40
1.0
 41
0.18
 42
0.0625
 43
0.38
 44
0.18
 45
0.0
 46
0.0
 47
0.0
 48
0.0
140
0.18
141
0.09
142
0.0
143
25.399999999999999
144
1.0
145
0.0
146
1.0
147
0.09
 71
     0
 72
     0
 73
     1
 74
     1
 75
     0
 76
     0
 77
     0
 78
     0
170
     0
171
     2
172
     0
173
     0
174
     0
175
     0
176
     0
177
     0
178
     0
  0
ENDTAB
  0
ENDSEC
  0
SECTION
  2
BLOCKS
  0
BLOCK
  8
0
  2
$MODEL_SPACE
 70
     0
 10
0.0
 20
0.0
 30
0.0
  3
$MODEL_SPACE
  1

  0
ENDBLK
  5
1A
  8
0
  0
BLOCK
 67
     1
  8
0
  2
$PAPER_SPACE
 70
     0
 10
0.0
 20
0.0
 30
0.0
  3
$PAPER_SPACE
  1

  0
ENDBLK
  5
17
 67
     1
  8
0
  0
ENDSEC
  0
SECTION
  2
ENTITIES
  0
LINE
  5
24
  8
0
 62
     7
 10
120.49799999999991
 20
140.37999999999991
 30
0.0
 11
118.28700000000001
 21
139.7879999999999
 31
0.0
  0
LINE
  5
25
  8
0
 62
     7
 10
118.28700000000001
 20
139.7879999999999
 30
0.0
 11
120.49799999999991
 21
139.19499999999999
 31
0.0
  0
LINE
  5
26
  8
0
 62
     7
 10
120.49799999999991
 20
139.19499999999999
 30
0.0
 11
120.49799999999991
 21
140.37999999999991
 31
0.0
  0
LINE
  5
27
  8
0
 62
     7
 10
177.74000000000001
 20
139.21000000000001
 30
0.0
 11
179.95099999999991
 21
139.80199999999999
 31
0.0
  0
LINE
  5
28
  8
0
 62
     7
 10
179.95099999999991
 20
139.80199999999999
 30
0.0
 11
177.74000000000001
 21
140.39500000000001
 31
0.0
  0
LINE
  5
29
  8
0
 62
     7
 10
177.74000000000001
 20
140.39500000000001
 30
0.0
 11
177.74000000000001
 21
139.21000000000001
 31
0.0
  0
LINE
  5
2A
  8
0
 62
     7
 10
118.2879999999999
 20
139.7949999999999
 30
0.0
 11
179.9499999999999
 21
139.7949999999999
 31
0.0
  0
LINE
  5
2B
  8
0
 62
     7
 10
179.9499999999999
 20
152.75200000000001
 30
0.0
 11
179.9499999999999
 21
139.322
 31
0.0
  0
LINE
  5
2C
  8
0
 62
     7
 10
118.2879999999999
 20
152.75200000000001
 30
0.0
 11
118.2879999999999
 21
139.322
 31
0.0
  0
LINE
  5
2D
  8
0
 62
     7
 10
156.0739999999999
 20
145.52600000000001
 30
0.0
 11
158.285
 21
146.119
 31
0.0
  0
LINE
  5
2E
  8
0
 62
     7
 10
158.285
 20
146.119
 30
0.0
 11
156.0739999999999
 21
146.71100000000001
 31
0.0
  0
LINE
  5
2F
  8
0
 62
     7
 10
156.0739999999999
 20
146.71100000000001
 30
0.0
 11
156.0739999999999
 21
145.52600000000001
 31
0.0
  0
LINE
  5
30
  8
0
 62
     7
 10
177.74000000000001
 20
145.5329999999999
 30
0.0
 11
179.95099999999991
 21
146.126
 31
0.0
  0
LINE
  5
31
  8
0
 62
     7
 10
179.95099999999991
 20
146.126
 30
0.0
 11
177.74000000000001
 21
146.7179999999999
 31
0.0
  0
LINE
  5
32
  8
0
 62
     7
 10
177.74000000000001
 20
146.7179999999999
 30
0.0
 11
177.74000000000001
 21
145.5329999999999
 31
0.0
  0
LINE
  5
33
  8
0
 62
     7
 10
160.49600000000001
 20
146.71100000000001
 30
0.0
 11
158.285
 21
146.119
 31
0.0
  0
LINE
  5
34
  8
0
 62
     7
 10
158.285
 20
146.119
 30
0.0
 11
160.49600000000001
 21
145.52600000000001
 31
0.0
  0
LINE
  5
35
  8
0
 62
     7
 10
160.49600000000001
 20
145.52600000000001
 30
0.0
 11
160.49600000000001
 21
146.71100000000001
 31
0.0
  0
LINE
  5
36
  8
0
 62
     7
 10
120.49799999999991
 20
146.70400000000001
 30
0.0
 11
118.28700000000001
 21
146.1109999999999
 31
0.0
  0
LINE
  5
37
  8
0
 62
     7
 10
118.28700000000001
 20
146.1109999999999
 30
0.0
 11
120.49799999999991
 21
145.51899999999989
 31
0.0
  0
LINE
  5
38
  8
0
 62
     7
 10
120.49799999999991
 20
145.51899999999989
 30
0.0
 11
120.49799999999991
 21
146.70400000000001
 31
0.0
  0
LINE
  5
39
  8
0
 62
     7
 10
179.9499999999999
 20
146.119
 30
0.0
 11
118.2879999999999
 21
146.119
 31
0.0
  0
LINE
  5
3A
  8
0
 62
     7
 10
158.285
 20
162.68700000000001
 30
0.0
 11
158.285
 21
145.64500000000001
 31
0.0
  0
TEXT
  5
3B
  8
0
 62
     7
 10
147.18628749999999
 20
140.46199999999999
 30
0.0
 40
3.0923400000000001
  1
370
 41
0.5
 72
     1
 11
149.119
 21
140.46199999999999
 31
0.0
  0
TEXT
  5
3C
  8
0
 62
     7
 10
167.44298249999991
 20
146.785
 30
0.0
 40
3.0923400000000001
  1
130
 41
0.5
 72
     1
 11
169.11799999999991
 21
146.785
 31
0.0
  0
TEXT
  5
3D
  8
0
 62
     7
 10
136.3542875
 20
146.785
 30
0.0
 40
3.0923400000000001
  1
240
 41
0.5
 72
     1
 11
138.28700000000001
 21
146.785
 31
0.0
  0
LINE
  5
3E
  8
0
 62
     7
 10
28.273399999999992
 20
237.34599999999989
 30
0.0
 11
27.680800000000001
 21
239.55699999999999
 31
0.0
  0
LINE
  5
3F
  8
0
 62
     7
 10
27.680800000000001
 20
239.55699999999999
 30
0.0
 11
27.0883
 21
237.34599999999989
 31
0.0
  0
LINE
  5
40
  8
0
 62
     7
 10
27.0883
 20
237.34599999999989
 30
0.0
 11
28.273399999999992
 21
237.34599999999989
 31
0.0
  0
LINE
  5
41
  8
0
 62
     7
 10
27.0883
 20
211.7709999999999
 30
0.0
 11
27.680800000000001
 21
209.56
 31
0.0
  0
LINE
  5
42
  8
0
 62
     7
 10
27.680800000000001
 20
209.56
 30
0.0
 11
28.273399999999992
 21
211.7709999999999
 31
0.0
  0
LINE
  5
43
  8
0
 62
     7
 10
28.273399999999992
 20
211.7709999999999
 30
0.0
 11
27.0883
 21
211.7709999999999
 31
0.0
  0
LINE
  5
44
  8
0
 62
     7
 10
33.996400000000001
 20
234.84700000000001
 30
0.0
 11
33.4039
 21
237.05799999999991
 31
0.0
  0
LINE
  5
45
  8
0
 62
     7
 10
33.4039
 20
237.05799999999991
 30
0.0
 11
32.811300000000003
 21
234.84700000000001
 31
0.0
  0
LINE
  5
46
  8
0
 62
     7
 10
32.811300000000003
 20
234.84700000000001
 30
0.0
 11
33.996400000000001
 21
234.84700000000001
 31
0.0
  0
LINE
  5
47
  8
0
 62
     7
 10
32.811300000000003
 20
241.76899999999989
 30
0.0
 11
33.4039
 21
239.55699999999999
 31
0.0
  0
LINE
  5
48
  8
0
 62
     7
 10
33.4039
 20
239.55699999999999
 30
0.0
 11
33.996400000000001
 21
241.76899999999989
 31
0.0
  0
LINE
  5
49
  8
0
 62
     7
 10
33.996400000000001
 20
241.76899999999989
 30
0.0
 11
32.811300000000003
 21
241.76899999999989
 31
0.0
  0
LINE
  5
4A
  8
0
 62
     7
 10
162.75399999999991
 20
166.70599999999999
 30
0.0
 11
160.77099999999999
 21
167.85099999999991
 31
0.0
  0
LINE
  5
4B
  8
0
 62
     7
 10
160.77099999999999
 20
167.85099999999991
 30
0.0
 11
161.91599999999991
 21
165.86799999999991
 31
0.0
  0
LINE
  5
4C
  8
0
 62
     7
 10
161.91599999999991
 20
165.86799999999991
 30
0.0
 11
162.75399999999991
 21
166.70599999999999
 31
0.0
  0
LINE
  5
4D
  8
0
 62
     7
 10
160.77699999999999
 20
167.85599999999999
 30
0.0
 11
165.26400000000001
 21
163.369
 31
0.0
  0
LINE
  5
4E
  8
0
 62
     7
 10
165.26400000000001
 20
163.369
 30
0.0
 11
174.65199999999999
 21
163.369
 31
0.0
  0
TEXT
  5
4F
  8
0
 62
     7
 10
169.601178
 20
164.06899999999999
 30
0.0
 40
3.0923400000000001
  1
排水口
 41
0.5
 72
     2
 11
174.65199999999999
 21
164.06899999999999
 31
0.0
  0
LINE
  5
50
  8
0
 62
     7
 10
163.07299999999989
 20
225.80799999999999
 30
0.0
 11
161.09100000000001
 21
226.953
 31
0.0
  0
LINE
  5
51
  8
0
 62
     7
 10
161.09100000000001
 20
226.953
 30
0.0
 11
162.23500000000001
 21
224.97
 31
0.0
  0
LINE
  5
52
  8
0
 62
     7
 10
162.23500000000001
 20
224.97
 30
0.0
 11
163.07299999999989
 21
225.80799999999999
 31
0.0
  0
LINE
  5
53
  8
0
 62
     7
 10
161.09700000000001
 20
226.95699999999991
 30
0.0
 11
165.58399999999989
 21
222.46999999999991
 31
0.0
  0
LINE
  5
54
  8
0
 62
     7
 10
112.0389999999999
 20
237.34599999999989
 30
0.0
 11
111.446
 21
239.55699999999999
 31
0.0
  0
LINE
  5
55
  8
0
 62
     7
 10
111.446
 20
239.55699999999999
 30
0.0
 11
110.854
 21
237.34599999999989
 31
0.0
  0
LINE
  5
56
  8
0
 62
     7
 10
110.854
 20
237.34599999999989
 30
0.0
 11
112.0389999999999
 21
237.34599999999989
 31
0.0
  0
LINE
  5
57
  8
0
 62
     7
 10
110.8679999999999
 20
231.768
 30
0.0
 11
111.461
 21
229.55699999999999
 31
0.0
  0
LINE
  5
58
  8
0
 62
     7
 10
111.461
 20
229.55699999999999
 30
0.0
 11
112.053
 21
231.768
 31
0.0
  0
LINE
  5
59
  8
0
 62
     7
 10
112.053
 20
231.768
 30
0.0
 11
110.8679999999999
 21
231.768
 31
0.0
  0
LINE
  5
5A
  8
0
 62
     7
 10
111.45399999999989
 20
239.55699999999999
 30
0.0
 11
111.45399999999989
 21
229.55799999999999
 31
0.0
  0
TEXT
  5
5B
  8
0
 62
     7
 10
110.75399999999991
 20
233.4823725
 30
0.0
 40
3.0923400000000001
  1
60
 50
90.0
 41
0.5
 72
     1
 11
110.75399999999991
 21
234.642
 31
0.0
  0
LINE
  5
5C
  8
0
 62
     7
 10
118.205
 20
107.5739999999999
 30
0.0
 11
117.613
 21
109.786
 31
0.0
  0
LINE
  5
5D
  8
0
 62
     7
 10
117.613
 20
109.786
 30
0.0
 11
117.0199999999999
 21
107.5739999999999
 31
0.0
  0
LINE
  5
5E
  8
0
 62
     7
 10
117.0199999999999
 20
107.5739999999999
 30
0.0
 11
118.205
 21
107.5739999999999
 31
0.0
  0
LINE
  5
5F
  8
0
 62
     7
 10
117.035
 20
89.830399999999997
 30
0.0
 11
117.627
 21
87.618600000000001
 31
0.0
  0
LINE
  5
60
  8
0
 62
     7
 10
117.627
 20
87.618600000000001
 30
0.0
 11
118.2199999999999
 21
89.830399999999997
 31
0.0
  0
LINE
  5
61
  8
0
 62
     7
 10
118.2199999999999
 20
89.830399999999997
 30
0.0
 11
117.035
 21
89.830399999999997
 31
0.0
  0
LINE
  5
62
  8
0
 62
     7
 10
117.62
 20
109.785
 30
0.0
 11
117.62
 21
87.619699999999995
 31
0.0
  0
LINE
  5
63
  8
0
 62
     7
 10
86.140000000000001
 20
87.619699999999995
 30
0.0
 11
117.95399999999999
 21
87.619699999999995
 31
0.0
  0
LINE
  5
64
  8
0
 62
     7
 10
104.7379999999999
 20
109.785
 30
0.0
 11
117.95399999999999
 21
109.785
 31
0.0
  0
LINE
  5
65
  8
0
 62
     7
 10
111.88200000000001
 20
104.2399999999999
 30
0.0
 11
111.29000000000001
 21
106.452
 31
0.0
  0
LINE
  5
66
  8
0
 62
     7
 10
111.29000000000001
 20
106.452
 30
0.0
 11
110.697
 21
104.2399999999999
 31
0.0
  0
LINE
  5
67
  8
0
 62
     7
 10
110.697
 20
104.2399999999999
 30
0.0
 11
111.88200000000001
 21
104.2399999999999
 31
0.0
  0
LINE
  5
68
  8
0
 62
     7
 10
110.697
 20
111.996
 30
0.0
 11
111.29000000000001
 21
109.785
 31
0.0
  0
LINE
  5
69
  8
0
 62
     7
 10
111.29000000000001
 20
109.785
 30
0.0
 11
111.88200000000001
 21
111.996
 31
0.0
  0
LINE
  5
6A
  8
0
 62
     7
 10
111.88200000000001
 20
111.996
 30
0.0
 11
110.697
 21
111.996
 31
0.0
  0
LINE
  5
6B
  8
0
 62
     7
 10
111.29000000000001
 20
113.1079999999999
 30
0.0
 11
111.29000000000001
 21
99.424700000000001
 31
0.0
  0
LINE
  5
6C
  8
0
 62
     7
 10
105.1239999999999
 20
106.452
 30
0.0
 11
111.62299999999991
 21
106.452
 31
0.0
  0
LINE
  5
6D
  8
0
 62
     7
 10
104.7379999999999
 20
109.785
 30
0.0
 11
111.62299999999991
 21
109.785
 31
0.0
  0
LINE
  5
6E
  8
0
 62
     7
 10
162.75999999999991
 20
77.092799999999997
 30
0.0
 11
164.97099999999989
 21
77.685299999999998
 31
0.0
  0
LINE
  5
6F
  8
0
 62
     7
 10
164.97099999999989
 20
77.685299999999998
 30
0.0
 11
162.75999999999991
 21
78.277900000000002
 31
0.0
  0
LINE
  5
70
  8
0
 62
     7
 10
162.75999999999991
 20
78.277900000000002
 30
0.0
 11
162.75999999999991
 21
77.092799999999997
 31
0.0
  0
LINE
  5
71
  8
0
 62
     7
 10
157.18100000000001
 20
78.263400000000004
 30
0.0
 11
154.97
 21
77.670900000000003
 31
0.0
  0
LINE
  5
72
  8
0
 62
     7
 10
154.97
 20
77.670900000000003
 30
0.0
 11
157.18100000000001
 21
77.078299999999999
 31
0.0
  0
LINE
  5
73
  8
0
 62
     7
 10
157.18100000000001
 20
77.078299999999999
 30
0.0
 11
157.18100000000001
 21
78.263400000000004
 31
0.0
  0
LINE
  5
74
  8
0
 62
     7
 10
164.96999999999991
 20
77.678100000000001
 30
0.0
 11
154.971
 21
77.678100000000001
 31
0.0
  0
LINE
  5
75
  8
0
 62
     7
 10
154.971
 20
83.619900000000001
 30
0.0
 11
154.971
 21
76.977999999999994
 31
0.0
  0
LINE
  5
76
  8
0
 62
     7
 10
164.96999999999991
 20
105.7849999999999
 30
0.0
 11
164.96999999999991
 21
76.977999999999994
 31
0.0
  0
LINE
  5
77
  8
0
 62
     7
 10
148.68600000000001
 20
172.97799999999989
 30
0.0
 11
149.27799999999991
 21
170.76599999999991
 31
0.0
  0
LINE
  5
78
  8
0
 62
     7
 10
149.27799999999991
 20
170.76599999999991
 30
0.0
 11
149.87100000000001
 21
172.97799999999989
 31
0.0
  0
LINE
  5
79
  8
0
 62
     7
 10
149.87100000000001
 20
172.97799999999989
 30
0.0
 11
148.68600000000001
 21
172.97799999999989
 31
0.0
  0
LINE
  5
7A
  8
0
 62
     7
 10
148.6929999999999
 20
155.47799999999989
 30
0.0
 11
149.286
 21
153.26599999999991
 31
0.0
  0
LINE
  5
7B
  8
0
 62
     7
 10
149.286
 20
153.26599999999991
 30
0.0
 11
149.87799999999999
 21
155.47799999999989
 31
0.0
  0
LINE
  5
7C
  8
0
 62
     7
 10
149.87799999999999
 20
155.47799999999989
 30
0.0
 11
148.6929999999999
 21
155.47799999999989
 31
0.0
  0
LINE
  5
7D
  8
0
 62
     7
 10
149.87100000000001
 20
168.55500000000001
 30
0.0
 11
149.27799999999991
 21
170.76599999999991
 31
0.0
  0
LINE
  5
7E
  8
0
 62
     7
 10
149.27799999999991
 20
170.76599999999991
 30
0.0
 11
148.68600000000001
 21
168.55500000000001
 31
0.0
  0
LINE
  5
7F
  8
0
 62
     7
 10
148.68600000000001
 20
168.55500000000001
 30
0.0
 11
149.87100000000001
 21
168.55500000000001
 31
0.0
  0
LINE
  5
80
  8
0
 62
     7
 10
149.86399999999989
 20
177.72199999999989
 30
0.0
 11
149.27099999999999
 21
179.93299999999991
 31
0.0
  0
LINE
  5
81
  8
0
 62
     7
 10
149.27099999999999
 20
179.93299999999991
 30
0.0
 11
148.679
 21
177.72199999999989
 31
0.0
  0
LINE
  5
82
  8
0
 62
     7
 10
148.679
 20
177.72199999999989
 30
0.0
 11
149.86399999999989
 21
177.72199999999989
 31
0.0
  0
LINE
  5
83
  8
0
 62
     7
 10
149.27799999999991
 20
153.26699999999991
 30
0.0
 11
149.27799999999991
 21
179.93199999999999
 31
0.0
  0
LINE
  5
84
  8
0
 62
     7
 10
151.18000000000001
 20
170.76599999999991
 30
0.0
 11
148.595
 21
170.76599999999991
 31
0.0
  0
LINE
  5
85
  8
0
 62
     7
 10
143.97200000000001
 20
177.72199999999989
 30
0.0
 11
143.37899999999991
 21
179.93299999999991
 31
0.0
  0
LINE
  5
86
  8
0
 62
     7
 10
143.37899999999991
 20
179.93299999999991
 30
0.0
 11
142.78700000000001
 21
177.72199999999989
 31
0.0
  0
LINE
  5
87
  8
0
 62
     7
 10
142.78700000000001
 20
177.72199999999989
 30
0.0
 11
143.97200000000001
 21
177.72199999999989
 31
0.0
  0
LINE
  5
88
  8
0
 62
     7
 10
142.80099999999999
 20
155.47799999999989
 30
0.0
 11
143.39399999999989
 21
153.26699999999991
 31
0.0
  0
LINE
  5
89
  8
0
 62
     7
 10
143.39399999999989
 20
153.26699999999991
 30
0.0
 11
143.9859999999999
 21
155.47799999999989
 31
0.0
  0
LINE
  5
8A
  8
0
 62
     7
 10
143.9859999999999
 20
155.47799999999989
 30
0.0
 11
142.80099999999999
 21
155.47799999999989
 31
0.0
  0
LINE
  5
8B
  8
0
 62
     7
 10
143.38599999999991
 20
179.93199999999999
 30
0.0
 11
143.38599999999991
 21
153.26699999999991
 31
0.0
  0
TEXT
  5
8C
  8
0
 62
     7
 10
148.61199999999991
 20
160.34098249999991
 30
0.0
 40
3.0923400000000001
  1
105
 50
90.0
 41
0.5
 72
     1
 11
148.61199999999991
 21
162.01599999999999
 31
0.0
  0
TEXT
  5
8D
  8
0
 62
     7
 10
148.61199999999991
 20
174.06052500000001
 30
0.0
 40
3.0923400000000001
  1
55
 50
90.0
 41
0.5
 72
     1
 11
148.61199999999991
 21
175.34899999999999
 31
0.0
  0
TEXT
  5
8E
  8
0
 62
     7
 10
142.72
 20
164.9249825
 30
0.0
 40
3.0923400000000001
  1
160
 50
90.0
 41
0.5
 72
     1
 11
142.72
 21
166.59999999999991
 31
0.0
  0
LINE
  5
8F
  8
0
 62
     7
 10
148.68600000000001
 20
231.77000000000001
 30
0.0
 11
149.27799999999991
 21
229.55799999999999
 31
0.0
  0
LINE
  5
90
  8
0
 62
     7
 10
149.27799999999991
 20
229.55799999999999
 30
0.0
 11
149.87100000000001
 21
231.77000000000001
 31
0.0
  0
LINE
  5
91
  8
0
 62
     7
 10
149.87100000000001
 20
231.77000000000001
 30
0.0
 11
148.68600000000001
 21
231.77000000000001
 31
0.0
  0
LINE
  5
92
  8
0
 62
     7
 10
148.6929999999999
 20
215.10299999999989
 30
0.0
 11
149.286
 21
212.89199999999991
 31
0.0
  0
LINE
  5
93
  8
0
 62
     7
 10
149.286
 20
212.89199999999991
 30
0.0
 11
149.87799999999999
 21
215.10299999999989
 31
0.0
  0
LINE
  5
94
  8
0
 62
     7
 10
149.87799999999999
 20
215.10299999999989
 30
0.0
 11
148.6929999999999
 21
215.10299999999989
 31
0.0
  0
LINE
  5
95
  8
0
 62
     7
 10
149.87100000000001
 20
227.34700000000001
 30
0.0
 11
149.27799999999991
 21
229.55799999999999
 31
0.0
  0
LINE
  5
96
  8
0
 62
     7
 10
149.27799999999991
 20
229.55799999999999
 30
0.0
 11
148.68600000000001
 21
227.34700000000001
 31
0.0
  0
LINE
  5
97
  8
0
 62
     7
 10
148.68600000000001
 20
227.34700000000001
 30
0.0
 11
149.87100000000001
 21
227.34700000000001
 31
0.0
  0
LINE
  5
98
  8
0
 62
     7
 10
149.86399999999989
 20
237.34700000000001
 30
0.0
 11
149.27099999999999
 21
239.55799999999991
 31
0.0
  0
LINE
  5
99
  8
0
 62
     7
 10
149.27099999999999
 20
239.55799999999991
 30
0.0
 11
148.679
 21
237.34700000000001
 31
0.0
  0
LINE
  5
9A
  8
0
 62
     7
 10
148.679
 20
237.34700000000001
 30
0.0
 11
149.86399999999989
 21
237.34700000000001
 31
0.0
  0
LINE
  5
9B
  8
0
 62
     7
 10
149.27799999999991
 20
212.89199999999991
 30
0.0
 11
149.27799999999991
 21
239.55699999999999
 31
0.0
  0
LINE
  5
9C
  8
0
 62
     7
 10
129.797
 20
157.30699999999999
 30
0.0
 11
122.273
 21
157.30699999999999
 31
0.0
  0
LINE
  5
9D
  8
0
 62
     7
 10
119.913
 20
155.71199999999999
 30
0.0
 11
118.789
 21
153.71700000000001
 31
0.0
  0
LINE
  5
9E
  8
0
 62
     7
 10
118.789
 20
153.71700000000001
 30
0.0
 11
120.76000000000001
 21
154.8829999999999
 31
0.0
  0
LINE
  5
9F
  8
0
 62
     7
 10
120.76000000000001
 20
154.8829999999999
 30
0.0
 11
119.913
 21
155.71199999999999
 31
0.0
  0
LINE
  5
A0
  8
0
 62
     7
 10
122.273
 20
157.30699999999999
 30
0.0
 11
118.789
 21
153.71700000000001
 31
0.0
  0
TEXT
  5
A1
  8
0
 62
     7
 10
126.44696499999991
 20
158.00700000000001
 30
0.0
 40
3.0923400000000001
  1
R10
 41
0.5
 72
     2
 11
129.797
 21
158.00700000000001
 31
0.0
  0
LINE
  5
A2
  8
0
 62
     7
 10
129.797
 20
216.95799999999991
 30
0.0
 11
122.273
 21
216.95799999999991
 31
0.0
  0
LINE
  5
A3
  8
0
 62
     7
 10
151.18000000000001
 20
229.55799999999999
 30
0.0
 11
148.595
 21
229.55799999999999
 31
0.0
  0
LINE
  5
A4
  8
0
 62
     7
 10
120.49799999999991
 20
200.23500000000001
 30
0.0
 11
118.28700000000001
 21
199.643
 31
0.0
  0
LINE
  5
A5
  8
0
 62
     7
 10
118.28700000000001
 20
199.643
 30
0.0
 11
120.49799999999991
 21
199.05000000000001
 31
0.0
  0
LINE
  5
A6
  8
0
 62
     7
 10
120.49799999999991
 20
199.05000000000001
 30
0.0
 11
120.49799999999991
 21
200.23500000000001
 31
0.0
  0
LINE
  5
A7
  8
0
 62
     7
 10
177.74000000000001
 20
199.065
 30
0.0
 11
179.95099999999991
 21
199.65700000000001
 31
0.0
  0
LINE
  5
A8
  8
0
 62
     7
 10
179.95099999999991
 20
199.65700000000001
 30
0.0
 11
177.74000000000001
 21
200.24999999999989
 31
0.0
  0
LINE
  5
A9
  8
0
 62
     7
 10
177.74000000000001
 20
200.24999999999989
 30
0.0
 11
177.74000000000001
 21
199.065
 31
0.0
  0
LINE
  5
AA
  8
0
 62
     7
 10
118.2879999999999
 20
199.65000000000001
 30
0.0
 11
179.9499999999999
 21
199.65000000000001
 31
0.0
  0
LINE
  5
AB
  8
0
 62
     7
 10
179.9499999999999
 20
212.60699999999991
 30
0.0
 11
179.9499999999999
 21
199.17699999999999
 31
0.0
  0
LINE
  5
AC
  8
0
 62
     7
 10
118.2879999999999
 20
212.60699999999991
 30
0.0
 11
118.2879999999999
 21
199.17699999999999
 31
0.0
  0
LINE
  5
AD
  8
0
 62
     7
 10
156.0739999999999
 20
205.38099999999989
 30
0.0
 11
158.285
 21
205.97399999999999
 31
0.0
  0
LINE
  5
AE
  8
0
 62
     7
 10
158.285
 20
205.97399999999999
 30
0.0
 11
156.0739999999999
 21
206.56599999999989
 31
0.0
  0
LINE
  5
AF
  8
0
 62
     7
 10
156.0739999999999
 20
206.56599999999989
 30
0.0
 11
156.0739999999999
 21
205.38099999999989
 31
0.0
  0
LINE
  5
B0
  8
0
 62
     7
 10
177.74000000000001
 20
205.38799999999989
 30
0.0
 11
179.95099999999991
 21
205.98099999999999
 31
0.0
  0
LINE
  5
B1
  8
0
 62
     7
 10
179.95099999999991
 20
205.98099999999999
 30
0.0
 11
177.74000000000001
 21
206.57299999999989
 31
0.0
  0
LINE
  5
B2
  8
0
 62
     7
 10
177.74000000000001
 20
206.57299999999989
 30
0.0
 11
177.74000000000001
 21
205.38799999999989
 31
0.0
  0
LINE
  5
B3
  8
0
 62
     7
 10
160.49600000000001
 20
206.56599999999989
 30
0.0
 11
158.285
 21
205.97399999999999
 31
0.0
  0
LINE
  5
B4
  8
0
 62
     7
 10
158.285
 20
205.97399999999999
 30
0.0
 11
160.49600000000001
 21
205.38099999999989
 31
0.0
  0
LINE
  5
B5
  8
0
 62
     7
 10
160.49600000000001
 20
205.38099999999989
 30
0.0
 11
160.49600000000001
 21
206.56599999999989
 31
0.0
  0
LINE
  5
B6
  8
0
 62
     7
 10
120.49799999999991
 20
206.559
 30
0.0
 11
118.28700000000001
 21
205.96600000000001
 31
0.0
  0
LINE
  5
B7
  8
0
 62
     7
 10
118.28700000000001
 20
205.96600000000001
 30
0.0
 11
120.49799999999991
 21
205.374
 31
0.0
  0
LINE
  5
B8
  8
0
 62
     7
 10
120.49799999999991
 20
205.374
 30
0.0
 11
120.49799999999991
 21
206.559
 31
0.0
  0
LINE
  5
B9
  8
0
 62
     7
 10
179.9499999999999
 20
205.97399999999999
 30
0.0
 11
118.2879999999999
 21
205.97399999999999
 31
0.0
  0
LINE
  5
BA
  8
0
 62
     7
 10
158.285
 20
222.542
 30
0.0
 11
158.285
 21
205.5
 31
0.0
  0
LINE
  5
BB
  8
0
 62
     7
 10
143.97200000000001
 20
237.34700000000001
 30
0.0
 11
143.37899999999991
 21
239.55799999999991
 31
0.0
  0
LINE
  5
BC
  8
0
 62
     7
 10
143.37899999999991
 20
239.55799999999991
 30
0.0
 11
142.78700000000001
 21
237.34700000000001
 31
0.0
  0
LINE
  5
BD
  8
0
 62
     7
 10
142.78700000000001
 20
237.34700000000001
 30
0.0
 11
143.97200000000001
 21
237.34700000000001
 31
0.0
  0
LINE
  5
BE
  8
0
 62
     7
 10
142.80099999999999
 20
215.10299999999989
 30
0.0
 11
143.39399999999989
 21
212.89199999999991
 31
0.0
  0
LINE
  5
BF
  8
0
 62
     7
 10
143.39399999999989
 20
212.89199999999991
 30
0.0
 11
143.9859999999999
 21
215.10299999999989
 31
0.0
  0
LINE
  5
C0
  8
0
 62
     7
 10
143.9859999999999
 20
215.10299999999989
 30
0.0
 11
142.80099999999999
 21
215.10299999999989
 31
0.0
  0
LINE
  5
C1
  8
0
 62
     7
 10
143.38599999999991
 20
239.55699999999999
 30
0.0
 11
143.38599999999991
 21
212.89299999999989
 31
0.0
  0
LINE
  5
C2
  8
0
 62
     7
 10
119.913
 20
215.363
 30
0.0
 11
118.789
 21
213.36799999999999
 31
0.0
  0
LINE
  5
C3
  8
0
 62
     7
 10
118.789
 20
213.36799999999999
 30
0.0
 11
120.76000000000001
 21
214.53399999999999
 31
0.0
  0
LINE
  5
C4
  8
0
 62
     7
 10
120.76000000000001
 20
214.53399999999999
 30
0.0
 11
119.913
 21
215.363
 31
0.0
  0
LINE
  5
C5
  8
0
 62
     7
 10
122.273
 20
216.95799999999991
 30
0.0
 11
118.789
 21
213.36799999999999
 31
0.0
  0
LINE
  5
C6
  8
0
 62
     7
 10
76.428899999999999
 20
224.87200000000001
 30
0.0
 11
77.578900000000004
 21
226.851
 31
0.0
  0
LINE
  5
C7
  8
0
 62
     7
 10
77.578900000000004
 20
226.851
 30
0.0
 11
75.593100000000007
 21
225.71199999999999
 31
0.0
  0
LINE
  5
C8
  8
0
 62
     7
 10
75.593100000000007
 20
225.71199999999999
 30
0.0
 11
76.428899999999999
 21
224.87200000000001
 31
0.0
  0
LINE
  5
C9
  8
0
 62
     7
 10
84.160099999999986
 20
234.24100000000001
 30
0.0
 11
83.010099999999994
 21
232.261
 31
0.0
  0
LINE
  5
CA
  8
0
 62
     7
 10
83.010099999999994
 20
232.261
 30
0.0
 11
84.995900000000006
 21
233.4009999999999
 31
0.0
  0
LINE
  5
CB
  8
0
 62
     7
 10
84.995900000000006
 20
233.4009999999999
 30
0.0
 11
84.160099999999986
 21
234.24100000000001
 31
0.0
  0
LINE
  5
CC
  8
0
 62
     7
 10
85.468500000000006
 20
234.6999999999999
 30
0.0
 11
71.483800000000002
 21
220.81200000000001
 31
0.0
  0
LINE
  5
CD
  8
0
 62
     7
 10
108.45699999999999
 20
229.55799999999999
 30
0.0
 11
112.146
 21
229.55799999999999
 31
0.0
  0
LINE
  5
CE
  8
0
 62
     7
 10
165.58399999999989
 20
222.46999999999991
 30
0.0
 11
174.97200000000001
 21
222.46999999999991
 31
0.0
  0
LINE
  5
CF
  8
0
 62
     7
 10
104.7909999999999
 20
239.55699999999999
 30
0.0
 11
112.146
 21
239.55699999999999
 31
0.0
  0
LINE
  5
D0
  8
0
 62
     7
 10
40.006100000000004
 20
192.6399999999999
 30
0.0
 11
37.795000000000002
 21
192.047
 31
0.0
  0
LINE
  5
D1
  8
0
 62
     7
 10
37.795000000000002
 20
192.047
 30
0.0
 11
40.006100000000004
 21
191.45500000000001
 31
0.0
  0
LINE
  5
D2
  8
0
 62
     7
 10
40.006100000000004
 20
191.45500000000001
 30
0.0
 11
40.006100000000004
 21
192.6399999999999
 31
0.0
  0
LINE
  5
D3
  8
0
 62
     7
 10
102.247
 20
191.46899999999999
 30
0.0
 11
104.459
 21
192.06200000000001
 31
0.0
  0
LINE
  5
D4
  8
0
 62
     7
 10
104.459
 20
192.06200000000001
 30
0.0
 11
102.247
 21
192.654
 31
0.0
  0
LINE
  5
D5
  8
0
 62
     7
 10
102.247
 20
192.654
 30
0.0
 11
102.247
 21
191.46899999999999
 31
0.0
  0
LINE
  5
D6
  8
0
 62
     7
 10
37.795699999999989
 20
192.05500000000001
 30
0.0
 11
104.458
 21
192.05500000000001
 31
0.0
  0
LINE
  5
D7
  8
0
 62
     7
 10
104.45699999999989
 20
208.70199999999991
 30
0.0
 11
104.45699999999989
 21
191.3549999999999
 31
0.0
  0
LINE
  5
D8
  8
0
 62
     7
 10
37.795699999999989
 20
208.70199999999991
 30
0.0
 11
37.795699999999989
 21
191.3549999999999
 31
0.0
  0
LINE
  5
D9
  8
0
 62
     7
 10
96.668599999999984
 20
203.84899999999999
 30
0.0
 11
94.457499999999996
 21
203.25599999999989
 31
0.0
  0
LINE
  5
DA
  8
0
 62
     7
 10
94.457499999999996
 20
203.25599999999989
 30
0.0
 11
96.668599999999984
 21
202.6639999999999
 31
0.0
  0
LINE
  5
DB
  8
0
 62
     7
 10
96.668599999999984
 20
202.6639999999999
 30
0.0
 11
96.668599999999984
 21
203.84899999999999
 31
0.0
  0
LINE
  5
DC
  8
0
 62
     7
 10
102.247
 20
202.678
 30
0.0
 11
104.458
 21
203.2709999999999
 31
0.0
  0
LINE
  5
DD
  8
0
 62
     7
 10
104.458
 20
203.2709999999999
 30
0.0
 11
102.247
 21
203.86299999999989
 31
0.0
  0
LINE
  5
DE
  8
0
 62
     7
 10
102.247
 20
203.86299999999989
 30
0.0
 11
102.247
 21
202.678
 31
0.0
  0
LINE
  5
DF
  8
0
 62
     7
 10
94.458200000000005
 20
203.26300000000001
 30
0.0
 11
104.45699999999989
 21
203.26300000000001
 31
0.0
  0
LINE
  5
E0
  8
0
 62
     7
 10
94.458200000000005
 20
223.55199999999999
 30
0.0
 11
94.458200000000005
 21
202.56299999999999
 31
0.0
  0
LINE
  5
E1
  8
0
 62
     7
 10
102.247
 20
196.50200000000001
 30
0.0
 11
104.458
 21
197.09399999999999
 31
0.0
  0
LINE
  5
E2
  8
0
 62
     7
 10
104.458
 20
197.09399999999999
 30
0.0
 11
102.247
 21
197.68700000000001
 31
0.0
  0
LINE
  5
E3
  8
0
 62
     7
 10
102.247
 20
197.68700000000001
 30
0.0
 11
102.247
 21
196.50200000000001
 31
0.0
  0
LINE
  5
E4
  8
0
 62
     7
 10
90.002300000000005
 20
197.672
 30
0.0
 11
87.791200000000003
 21
197.08000000000001
 31
0.0
  0
LINE
  5
E5
  8
0
 62
     7
 10
87.791200000000003
 20
197.08000000000001
 30
0.0
 11
90.002300000000005
 21
196.48699999999991
 31
0.0
  0
LINE
  5
E6
  8
0
 62
     7
 10
90.002300000000005
 20
196.48699999999991
 30
0.0
 11
90.002300000000005
 21
197.672
 31
0.0
  0
LINE
  5
E7
  8
0
 62
     7
 10
104.45699999999989
 20
197.08699999999999
 30
0.0
 11
87.791899999999984
 21
197.08699999999999
 31
0.0
  0
LINE
  5
E8
  8
0
 62
     7
 10
87.791899999999984
 20
208.36799999999999
 30
0.0
 11
87.791899999999984
 21
196.387
 31
0.0
  0
LINE
  5
E9
  8
0
 62
     7
 10
104.45699999999989
 20
240.2409999999999
 30
0.0
 11
104.45699999999989
 21
250.83799999999991
 31
0.0
  0
LINE
  5
EA
  8
0
 62
     7
 10
82.503999999999991
 20
250.7299999999999
 30
0.0
 11
80.292599999999979
 21
250.13800000000001
 31
0.0
  0
LINE
  5
EB
  8
0
 62
     7
 10
80.292599999999979
 20
250.13800000000001
 30
0.0
 11
82.503999999999991
 21
249.5449999999999
 31
0.0
  0
LINE
  5
EC
  8
0
 62
     7
 10
82.503999999999991
 20
249.5449999999999
 30
0.0
 11
82.503999999999991
 21
250.7299999999999
 31
0.0
  0
LINE
  5
ED
  8
0
 62
     7
 10
40.007100000000001
 20
250.7299999999999
 30
0.0
 11
37.795699999999989
 21
250.13800000000001
 31
0.0
  0
LINE
  5
EE
  8
0
 62
     7
 10
37.795699999999989
 20
250.13800000000001
 30
0.0
 11
40.007100000000001
 21
249.5449999999999
 31
0.0
  0
LINE
  5
EF
  8
0
 62
     7
 10
40.007100000000001
 20
249.5449999999999
 30
0.0
 11
40.007100000000001
 21
250.7299999999999
 31
0.0
  0
LINE
  5
F0
  8
0
 62
     7
 10
78.081199999999995
 20
249.5449999999999
 30
0.0
 11
80.292599999999979
 21
250.13800000000001
 31
0.0
  0
LINE
  5
F1
  8
0
 62
     7
 10
80.292599999999979
 20
250.13800000000001
 30
0.0
 11
78.081199999999995
 21
250.7299999999999
 31
0.0
  0
LINE
  5
F2
  8
0
 62
     7
 10
78.081199999999995
 20
250.7299999999999
 30
0.0
 11
78.081199999999995
 21
249.5449999999999
 31
0.0
  0
LINE
  5
F3
  8
0
 62
     7
 10
102.246
 20
249.5449999999999
 30
0.0
 11
104.45699999999989
 21
250.13800000000001
 31
0.0
  0
LINE
  5
F4
  8
0
 62
     7
 10
104.45699999999989
 20
250.13800000000001
 30
0.0
 11
102.246
 21
250.7299999999999
 31
0.0
  0
LINE
  5
F5
  8
0
 62
     7
 10
102.246
 20
250.7299999999999
 30
0.0
 11
102.246
 21
249.5449999999999
 31
0.0
  0
LINE
  5
F6
  8
0
 62
     7
 10
63.241700000000002
 20
220.81200000000001
 30
0.0
 11
71.483800000000002
 21
220.81200000000001
 31
0.0
  0
LINE
  5
F7
  8
0
 62
     7
 10
37.795699999999989
 20
250.13800000000001
 30
0.0
 11
104.45699999999989
 21
250.13800000000001
 31
0.0
  0
LINE
  5
F8
  8
0
 62
     7
 10
80.292599999999979
 20
243.90700000000001
 30
0.0
 11
80.292599999999979
 21
250.83799999999991
 31
0.0
  0
LINE
  5
F9
  8
0
 62
     7
 10
37.795699999999989
 20
240.2409999999999
 30
0.0
 11
37.795699999999989
 21
250.83799999999991
 31
0.0
  0
LINE
  5
FA
  8
0
 62
     7
 10
33.4039
 20
246.375
 30
0.0
 11
33.4039
 21
233.06700000000001
 31
0.0
  0
LINE
  5
FB
  8
0
 62
     7
 10
37.129100000000001
 20
237.05799999999991
 30
0.0
 11
32.703800000000001
 21
237.05799999999991
 31
0.0
  0
LINE
  5
FC
  8
0
 62
     7
 10
27.680800000000001
 20
239.55699999999999
 30
0.0
 11
27.680800000000001
 21
209.56
 31
0.0
  0
LINE
  5
FD
  8
0
 62
     7
 10
37.462200000000003
 20
209.56
 30
0.0
 11
26.9343
 21
209.56
 31
0.0
  0
LINE
  5
FE
  8
0
 62
     7
 10
37.462200000000003
 20
239.55699999999999
 30
0.0
 11
26.9343
 21
239.55699999999999
 31
0.0
  0
LINE
  5
FF
  8
0
 62
     7
 10
38.628700000000002
 20
236.72399999999999
 30
0.0
 11
38.628700000000002
 21
218.726
 31
0.0
  0
ARC
  5
100
  8
0
 62
     7
 10
46.961597999999988
 20
218.725843
 30
0.0
 40
8.3328759999999988
 50
180.001194
 51
270.00120399999997
  0
LINE
  5
101
  8
0
 62
     7
 10
46.961799999999997
 20
210.393
 30
0.0
 11
87.458799999999997
 21
210.393
 31
0.0
  0
TEXT
  5
102
  8
0
 62
     7
 10
116.92
 20
96.281334999999999
 30
0.0
 40
3.0923400000000001
  1
133
 50
90.0
 41
0.5
 72
     1
 11
116.92
 21
98.085200000000015
 31
0.0
  0
TEXT
  5
103
  8
0
 62
     7
 10
110.59
 20
99.424700000000001
 30
0.0
 40
3.0923400000000001
  1
20
 50
90.0
 41
0.5
  0
TEXT
  5
104
  8
0
 62
     7
 10
158.89537250000001
 20
78.378100000000003
 30
0.0
 40
3.0923400000000001
  1
60
 41
0.5
 72
     1
 11
160.05500000000001
 21
78.378100000000003
 31
0.0
  0
TEXT
  5
105
  8
0
 62
     7
 10
148.61199999999991
 20
219.67883
 30
0.0
 40
3.0923400000000001
  1
100
 50
90.0
 41
0.5
 72
     1
 11
148.61199999999991
 21
221.22499999999999
 31
0.0
  0
TEXT
  5
106
  8
0
 62
     7
 10
148.61199999999991
 20
233.39837249999991
 30
0.0
 40
3.0923400000000001
  1
60
 50
90.0
 41
0.5
 72
     1
 11
148.61199999999991
 21
234.55799999999991
 31
0.0
  0
TEXT
  5
107
  8
0
 62
     7
 10
128.36493200000001
 20
132.69499999999991
 30
0.0
 40
3.0923400000000001
  1
カウンター切込寸法  ※壁から離して設置する場合
 41
0.5
 72
     1
 11
149.5989999999999
 21
132.69499999999991
 31
0.0
  0
TEXT
  5
108
  8
0
 62
     7
 10
129.29263399999991
 20
191.08000000000001
 30
0.0
 40
3.0923400000000001
  1
カウンター切込寸法  ※壁に寄せて設置する場合
 41
0.5
 72
     1
 11
149.5989999999999
 21
191.08000000000001
 31
0.0
  0
TEXT
  5
109
  8
0
 62
     7
 10
147.18628749999999
 20
200.31699999999989
 30
0.0
 40
3.0923400000000001
  1
370
 41
0.5
 72
     1
 11
149.119
 21
200.31699999999989
 31
0.0
  0
TEXT
  5
10A
  8
0
 62
     7
 10
167.44298249999991
 20
206.6399999999999
 30
0.0
 40
3.0923400000000001
  1
130
 41
0.5
 72
     1
 11
169.11799999999991
 21
206.6399999999999
 31
0.0
  0
TEXT
  5
10B
  8
0
 62
     7
 10
126.44696499999991
 20
217.6579999999999
 30
0.0
 40
3.0923400000000001
  1
R10
 41
0.5
 72
     2
 11
129.797
 21
217.6579999999999
 31
0.0
  0
TEXT
  5
10C
  8
0
 62
     7
 10
136.3542875
 20
206.6399999999999
 30
0.0
 40
3.0923400000000001
  1
240
 41
0.5
 72
     1
 11
138.28700000000001
 21
206.6399999999999
 31
0.0
  0
TEXT
  5
10D
  8
0
 62
     7
 10
169.92117799999991
 20
223.16999999999999
 30
0.0
 40
3.0923400000000001
  1
排水口
 41
0.5
 72
     2
 11
174.97200000000001
 21
223.16999999999999
 31
0.0
  0
TEXT
  5
10E
  8
0
 62
     7
 10
142.72
 20
224.5499825
 30
0.0
 40
3.0923400000000001
  1
160
 50
90.0
 41
0.5
 72
     1
 11
142.72
 21
226.22499999999991
 31
0.0
  0
TEXT
  5
10F
  8
0
 62
     7
 10
69.322634999999991
 20
192.755
 30
0.0
 40
3.0923400000000001
  1
400
 41
0.5
 72
     1
 11
71.126499999999993
 21
192.755
 31
0.0
  0
TEXT
  5
110
  8
0
 62
     7
 10
63.241700000000002
 20
222.00200000000001
 30
0.0
 40
3.0923400000000001
  1
%%c46
 41
0.5
  0
TEXT
  5
111
  8
0
 62
     7
 10
98.298172500000007
 20
203.96299999999991
 30
0.0
 40
3.0923400000000001
  1
60
 41
0.5
 72
     1
 11
99.457800000000006
 21
203.96299999999991
 31
0.0
  0
TEXT
  5
112
  8
0
 62
     7
 10
94.578429999999997
 20
197.78700000000001
 30
0.0
 40
3.0923400000000001
  1
100
 41
0.5
 72
     1
 11
96.124600000000001
 21
197.78700000000001
 31
0.0
  0
TEXT
  5
113
  8
0
 62
     7
 10
90.966934999999978
 20
250.83799999999991
 30
0.0
 40
3.0923400000000001
  1
145
 41
0.5
 72
     1
 11
92.770799999999994
 21
250.83799999999991
 31
0.0
  0
TEXT
  5
114
  8
0
 62
     7
 10
56.98254
 20
250.83799999999991
 30
0.0
 40
3.0923400000000001
  1
255
 41
0.5
 72
     1
 11
59.0441
 21
250.83799999999991
 31
0.0
  0
TEXT
  5
115
  8
0
 62
     7
 10
32.703800000000001
 20
244.31344000000001
 30
0.0
 40
3.0923400000000001
  1
15
 50
90.0
 41
0.5
 72
     2
 11
32.703800000000001
 21
246.375
 31
0.0
  0
TEXT
  5
116
  8
0
 62
     7
 10
26.980799999999999
 20
222.8839825
 30
0.0
 40
3.0923400000000001
  1
180
 50
90.0
 41
0.5
 72
     1
 11
26.980799999999999
 21
224.559
 31
0.0
  0
LINE
  5
117
  8
0
  6
AIGENLINE001
 62
     7
 10
151.84700000000001
 20
170.76599999999991
 30
0.0
 11
164.71999999999991
 21
170.76599999999991
 31
0.0
  0
LINE
  5
118
  8
0
  6
AIGENLINE001
 62
     7
 10
158.285
 20
176.7649999999999
 30
0.0
 11
158.285
 21
163.55299999999991
 31
0.0
  0
ARC
  5
119
  8
0
  6
AIGENLINE002
 62
     7
 10
158.28530900000001
 20
170.76541900000001
 30
0.0
 40
3.8329519999999988
 50
0.001297
 51
90.001268000000024
  0
ARC
  5
11A
  8
0
  6
AIGENLINE002
 62
     7
 10
158.2851379999999
 20
170.76541900000001
 30
0.0
 40
3.8329519999999988
 50
89.998712999999995
 51
179.99868299999989
  0
ARC
  5
11B
  8
0
  6
AIGENLINE002
 62
     7
 10
158.285223
 20
170.76550499999999
 30
0.0
 40
3.833037
 50
179.99996999999991
 51
270.00002000000001
  0
ARC
  5
11C
  8
0
  6
AIGENLINE002
 62
     7
 10
158.285223
 20
170.76550599999999
 30
0.0
 40
3.8330379999999988
 50
270.00002000000001
 51
359.99998999999991
  0
ARC
  5
11D
  8
0
 62
     7
 10
119.95467600000001
 20
154.932952
 30
0.0
 40
1.666574999999999
 50
179.99404799999999
 51
269.99409800000001
  0
LINE
  5
11E
  8
0
 62
     7
 10
119.955
 20
153.26599999999991
 30
0.0
 11
178.28399999999999
 21
153.26599999999991
 31
0.0
  0
LINE
  5
11F
  8
0
 62
     7
 10
119.955
 20
179.93100000000001
 30
0.0
 11
178.28399999999999
 21
179.93100000000001
 31
0.0
  0
ARC
  5
120
  8
0
 62
     7
 10
119.9547629999999
 20
178.26474999999991
 30
0.0
 40
1.666661999999999
 50
89.997039000000001
 51
179.99700899999999
  0
LINE
  5
121
  8
0
 62
     7
 10
118.2879999999999
 20
178.2649999999999
 30
0.0
 11
118.2879999999999
 21
154.93299999999991
 31
0.0
  0
ARC
  5
122
  8
0
 62
     7
 10
178.28378499999999
 20
154.93278000000001
 30
0.0
 40
1.6664039999999991
 50
270.00002000000001
 51
359.99998999999991
  0
ARC
  5
123
  8
0
 62
     7
 10
178.2836979999999
 20
178.26492300000001
 30
0.0
 40
1.66649
 50
359.997049
 51
89.997018999999995
  0
LINE
  5
124
  8
0
 62
     7
 10
179.9499999999999
 20
178.2649999999999
 30
0.0
 11
179.9499999999999
 21
154.93299999999991
 31
0.0
  0
ARC
  5
125
  8
0
 62
     7
 10
65.399725000000004
 20
110.099603
 30
0.0
 40
12.330450000000001
 50
238.39801600000001
 51
239.84199100000001
  0
ARC
  5
126
  8
0
 62
     7
 10
69.872294999999994
 20
117.769227
 30
0.0
 40
21.208901999999991
 50
239.8040069999999
 51
241.19949299999999
  0
ARC
  5
127
  8
0
 62
     7
 10
77.307040999999998
 20
131.31005799999991
 30
0.0
 40
36.656539999999993
 50
241.21257199999999
 51
245.58995899999999
  0
ARC
  5
128
  8
0
 62
     7
 10
69.513114000000002
 20
114.1333249999999
 30
0.0
 40
17.794263999999998
 50
245.58579900000001
 51
248.03091199999989
  0
LINE
  5
129
  8
0
 62
     7
 10
76.626300000000001
 20
87.619699999999995
 30
0.0
 11
83.958899999999986
 21
87.619699999999995
 31
0.0
  0
LINE
  5
12A
  8
0
 62
     7
 10
38.181199999999997
 20
109.785
 30
0.0
 11
97.374499999999998
 21
109.785
 31
0.0
  0
LINE
  5
12B
  8
0
 62
     7
 10
104.4049999999999
 20
109.45699999999999
 30
0.0
 11
104.45699999999989
 21
106.452
 31
0.0
  0
LINE
  5
12C
  8
0
 62
     7
 10
104.072
 20
109.785
 30
0.0
 11
97.374499999999998
 21
109.785
 31
0.0
  0
ARC
  5
12D
  8
0
 62
     7
 10
104.060287
 20
109.43994099999991
 30
0.0
 40
0.345114
 50
2.8718180000000002
 51
88.084074999999984
  0
LINE
  5
12E
  8
0
 62
     7
 10
88.973600000000005
 20
106.452
 30
0.0
 11
88.534699999999987
 21
96.791899999999998
 31
0.0
  0
ARC
  5
12F
  8
0
 62
     7
 10
88.901744999999977
 20
96.769394000000005
 30
0.0
 40
0.367747
 50
176.48389299999991
 51
179.76031299999991
  0
LINE
  5
130
  8
0
 62
     7
 10
88.533999999999978
 20
96.770899999999983
 30
0.0
 11
88.487799999999993
 21
94.127099999999999
 31
0.0
  0
ARC
  5
131
  8
0
 62
     7
 10
86.705458999999976
 20
93.704498000000015
 30
0.0
 40
1.5745830000000001
 50
298.95448599999992
 51
314.361559
  0
ARC
  5
132
  8
0
 62
     7
 10
86.239822000000004
 20
94.205481999999975
 30
0.0
 40
2.2583899999999999
 50
313.92070899999987
 51
353.14353399999987
  0
ARC
  5
133
  8
0
 62
     7
 10
86.957313999999997
 20
94.077728000000008
 30
0.0
 40
1.5313309999999991
 50
354.684664
 51
1.862347
  0
LINE
  5
134
  8
0
 62
     7
 10
87.435000000000002
 20
92.305000000000007
 30
0.0
 11
87.467699999999994
 21
92.326700000000002
 31
0.0
  0
LINE
  5
135
  8
0
 62
     7
 10
87.435000000000002
 20
92.305000000000007
 30
0.0
 11
86.279899999999998
 21
91.507800000000003
 31
0.0
  0
ARC
  5
136
  8
0
 62
     7
 10
86.574265999999994
 20
91.024101999999985
 30
0.0
 40
0.5662720000000001
 50
121.325553
 51
136.7942129999999
  0
ARC
  5
137
  8
0
 62
     7
 10
86.785072
 20
90.811233999999999
 30
0.0
 40
0.8657299999999999
 50
136.07696299999989
 51
174.29108199999999
  0
LINE
  5
138
  8
0
 62
     7
 10
85.923599999999993
 20
90.897400000000005
 30
0.0
 11
85.639399999999995
 21
87.771299999999997
 31
0.0
  0
ARC
  5
139
  8
0
 62
     7
 10
85.469327000000007
 20
87.790829999999985
 30
0.0
 40
0.17121
 50
271.34964500000001
 51
353.433965
  0
LINE
  5
13A
  8
0
 62
     7
 10
83.958899999999986
 20
87.619699999999995
 30
0.0
 11
85.473399999999998
 21
87.619699999999995
 31
0.0
  0
LINE
  5
13B
  8
0
 62
     7
 10
75.111800000000002
 20
87.619699999999995
 30
0.0
 11
76.626300000000001
 21
87.619699999999995
 31
0.0
  0
ARC
  5
13C
  8
0
 62
     7
 10
75.115611000000001
 20
87.790559999999999
 30
0.0
 40
0.170934
 50
186.48553200000001
 51
268.73089700000003
  0
LINE
  5
13D
  8
0
 62
     7
 10
74.945800000000006
 20
87.771299999999997
 30
0.0
 11
74.661500000000004
 21
90.897400000000005
 31
0.0
  0
ARC
  5
13E
  8
0
 62
     7
 10
74.088825
 20
90.877857999999975
 30
0.0
 40
0.573054
 50
1.949436999999999
 51
17.250360000000001
  0
ARC
  5
13F
  8
0
 62
     7
 10
73.807247000000004
 20
90.800381000000016
 30
0.0
 40
0.864994
 50
16.620439999999991
 51
54.871252999999989
  0
LINE
  5
140
  8
0
 62
     7
 10
74.305000000000007
 20
91.507800000000003
 30
0.0
 11
73.149799999999999
 21
92.305000000000007
 31
0.0
  0
LINE
  5
141
  8
0
 62
     7
 10
73.117400000000004
 20
92.326700000000002
 30
0.0
 11
73.150199999999998
 21
92.305000000000007
 31
0.0
  0
ARC
  5
142
  8
0
 62
     7
 10
73.673346999999993
 20
94.073571000000001
 30
0.0
 40
1.576921999999999
 50
178.0403729999999
 51
193.42965000000001
  0
ARC
  5
143
  8
0
 62
     7
 10
74.340846999999997
 20
94.215002999999996
 30
0.0
 40
2.2590849999999989
 50
192.98674299999999
 51
232.19460799999999
  0
ARC
  5
144
  8
0
 62
     7
 10
73.860381000000004
 20
93.664160999999993
 30
0.0
 40
1.5299249999999991
 50
233.76617100000001
 51
240.94809100000001
  0
LINE
  5
145
  8
0
 62
     7
 10
72.097300000000004
 20
94.127499999999998
 30
0.0
 11
72.089399999999998
 21
94.584000000000003
 31
0.0
  0
ARC
  5
146
  8
0
 62
     7
 10
71.328269999999975
 20
94.56076800000001
 30
0.0
 40
0.761507
 50
1.746168999999999
 51
81.902057999999997
  0
ARC
  5
147
  8
0
 62
     7
 10
68.639704000000009
 20
110.079312
 30
0.0
 40
13.726084
 50
245.07991399999989
 51
248.288329
  0
ARC
  5
148
  8
0
 62
     7
 10
71.973901999999995
 20
118.273453
 30
0.0
 40
22.572447
 50
248.11991199999991
 51
250.8374199999999
  0
ARC
  5
149
  8
0
 62
     7
 10
76.100311000000005
 20
130.01010299999999
 30
0.0
 40
35.013302000000003
 50
250.76343199999999
 51
255.427595
  0
ARC
  5
14A
  8
0
 62
     7
 10
76.573600999999996
 20
131.22531399999991
 30
0.0
 40
36.308821000000002
 50
255.187242
 51
259.61048199999988
  0
ARC
  5
14B
  8
0
 62
     7
 10
73.352575999999999
 20
114.16665500000001
 30
0.0
 40
18.949193000000001
 50
259.88825400000002
 51
264.193625
  0
LINE
  5
14C
  8
0
 62
     7
 10
58.117800000000003
 20
100.09699999999999
 30
0.0
 11
58.938400000000001
 21
99.597700000000003
 31
0.0
  0
ARC
  5
14D
  8
0
 62
     7
 10
65.533568000000002
 20
113.768196
 30
0.0
 40
15.496235999999991
 50
234.19211999999999
 51
235.45565199999999
  0
ARC
  5
14E
  8
0
 62
     7
 10
79.244927000000004
 20
133.5171269999999
 30
0.0
 40
39.53824199999999
 50
235.31746699999999
 51
237.70031599999999
  0
LINE
  5
14F
  8
0
 62
     7
 10
55.276200000000003
 20
102.03100000000001
 30
0.0
 11
56.467199999999998
 21
101.20099999999999
 31
0.0
  0
LINE
  5
150
  8
0
 62
     7
 10
53.19980000000001
 20
103.479
 30
0.0
 11
55.276200000000003
 21
102.03100000000001
 31
0.0
  0
LINE
  5
151
  8
0
 62
     7
 10
52.622799999999998
 20
103.881
 30
0.0
 11
53.19980000000001
 21
103.479
 31
0.0
  0
LINE
  5
152
  8
0
 62
     7
 10
51.780500000000004
 20
104.46599999999999
 30
0.0
 11
52.622799999999998
 21
103.881
 31
0.0
  0
LINE
  5
153
  8
0
 62
     7
 10
50.624600000000001
 20
105.2
 30
0.0
 11
51.780500000000004
 21
104.46599999999999
 31
0.0
  0
ARC
  5
154
  8
0
 62
     7
 10
45.821359999999999
 20
97.438492000000011
 30
0.0
 40
9.1279369999999993
 50
58.249901000000001
 51
59.936368000000002
  0
ARC
  5
155
  8
0
 62
     7
 10
41.434603000000003
 20
89.903965000000014
 30
0.0
 40
17.846450000000001
 50
59.865421999999988
 51
61.353141999999998
  0
ARC
  5
156
  8
0
 62
     7
 10
37.372498
 20
82.511007000000006
 30
0.0
 40
26.28186599999999
 50
61.308205000000008
 51
65.107272999999992
  0
ARC
  5
157
  8
0
 62
     7
 10
44.605369000000003
 20
97.962379000000013
 30
0.0
 40
9.2216780000000007
 50
65.462165999999996
 51
67.011662000000001
  0
LINE
  5
158
  8
0
 62
     7
 10
37.795699999999989
 20
106.452
 30
0.0
 11
104.45699999999989
 21
106.452
 31
0.0
  0
LINE
  5
159
  8
0
 62
     7
 10
37.795699999999989
 20
106.452
 30
0.0
 11
37.848100000000002
 21
109.45699999999999
 31
0.0
  0
ARC
  5
15A
  8
0
 62
     7
 10
38.19321699999999
 20
109.43945600000001
 30
0.0
 40
0.345616
 50
91.992351999999997
 51
177.05171599999991
  0
LINE
  5
15B
  8
0
 62
     7
 10
38.795499999999997
 20
109.785
 30
0.0
 11
38.181199999999997
 21
109.785
 31
0.0
  0
LINE
  5
15C
  8
0
 62
     7
 10
158.637
 20
87.619699999999995
 30
0.0
 11
151.30499999999989
 21
87.619699999999995
 31
0.0
  0
LINE
  5
15D
  8
0
 62
     7
 10
162.78700000000001
 20
109.785
 30
0.0
 11
135.5739999999999
 21
109.785
 31
0.0
  0
LINE
  5
15E
  8
0
 62
     7
 10
151.30499999999989
 20
87.619699999999995
 30
0.0
 11
149.78999999999999
 21
87.619699999999995
 31
0.0
  0
ARC
  5
15F
  8
0
 62
     7
 10
149.7551499999999
 20
87.744410000000016
 30
0.0
 40
0.112398
 50
219.40037699999999
 51
235.059044
  0
ARC
  5
160
  8
0
 62
     7
 10
149.792202
 20
87.793668999999994
 30
0.0
 40
0.174013
 50
234.34751199999999
 51
269.35839099999998
  0
LINE
  5
161
  8
0
 62
     7
 10
149.66800000000001
 20
87.673100000000005
 30
0.0
 11
149.63800000000001
 21
87.718500000000006
 31
0.0
  0
LINE
  5
162
  8
0
 62
     7
 10
149.63800000000001
 20
87.718500000000006
 30
0.0
 11
149.624
 21
87.771299999999997
 31
0.0
  0
LINE
  5
163
  8
0
 62
     7
 10
149.624
 20
87.771299999999997
 30
0.0
 11
149.34
 21
90.897400000000005
 31
0.0
  0
LINE
  5
164
  8
0
 62
     7
 10
149.27299999999991
 20
91.158100000000005
 30
0.0
 11
149.34
 21
90.897400000000005
 31
0.0
  0
LINE
  5
165
  8
0
 62
     7
 10
148.98299999999989
 20
91.507800000000003
 30
0.0
 11
149.15199999999999
 21
91.353499999999997
 31
0.0
  0
LINE
  5
166
  8
0
 62
     7
 10
149.15199999999999
 20
91.353499999999997
 30
0.0
 11
149.27299999999991
 21
91.158100000000005
 31
0.0
  0
LINE
  5
167
  8
0
 62
     7
 10
148.98299999999989
 20
91.507800000000003
 30
0.0
 11
147.82900000000001
 21
92.305400000000006
 31
0.0
  0
LINE
  5
168
  8
0
 62
     7
 10
147.79599999999991
 20
92.326700000000002
 30
0.0
 11
147.82900000000001
 21
92.305400000000006
 31
0.0
  0
ARC
  5
169
  8
0
 62
     7
 10
148.35162500000001
 20
94.073576000000003
 30
0.0
 40
1.576770999999999
 50
178.04034899999991
 51
193.431127
  0
ARC
  5
16A
  8
0
 62
     7
 10
149.018924
 20
94.214774000000006
 30
0.0
 40
2.2586849999999989
 50
192.98312899999999
 51
232.19822199999999
  0
ARC
  5
16B
  8
0
 62
     7
 10
148.538184
 20
93.663137000000006
 30
0.0
 40
1.5287259999999989
 50
233.76256599999999
 51
240.94995899999989
  0
LINE
  5
16C
  8
0
 62
     7
 10
146.76199999999989
 20
94.910600000000002
 30
0.0
 11
146.77600000000001
 21
94.127499999999998
 31
0.0
  0
ARC
  5
16D
  8
0
 62
     7
 10
146.11378500000001
 20
94.924292000000008
 30
0.0
 40
0.6483550000000001
 50
358.78722900000002
 51
29.849710999999989
  0
ARC
  5
16E
  8
0
 62
     7
 10
145.9995899999999
 20
94.882656000000011
 30
0.0
 40
0.768404
 50
28.304095
 51
68.069903999999994
  0
ARC
  5
16F
  8
0
 62
     7
 10
146.480402
 20
101.2524449999999
 30
0.0
 40
4.6169199999999986
 50
198.92882
 51
207.62163699999999
  0
ARC
  5
170
  8
0
 62
     7
 10
148.28845000000001
 20
102.1581529999999
 30
0.0
 40
6.6389119999999986
 50
207.31281899999991
 51
219.6649359999999
  0
ARC
  5
171
  8
0
 62
     7
 10
149.70048799999989
 20
103.2147869999999
 30
0.0
 40
8.4007909999999981
 50
219.06533999999999
 51
238.24612300000001
  0
ARC
  5
172
  8
0
 62
     7
 10
148.1489949999999
 20
100.83980099999999
 30
0.0
 40
5.5652280000000003
 50
238.96035099999989
 51
250.44851299999991
  0
LINE
  5
173
  8
0
 62
     7
 10
142.11299999999989
 20
99.754700000000014
 30
0.0
 11
139.0389999999999
 21
106.25700000000001
 31
0.0
  0
ARC
  5
174
  8
0
 62
     7
 10
136.43225100000001
 20
105.0554999999999
 30
0.0
 40
2.8701039999999991
 50
24.749251000000001
 51
29.108657999999998
  0
LINE
  5
175
  8
0
 62
     7
 10
164.96999999999991
 20
106.452
 30
0.0
 11
134.97200000000001
 21
106.452
 31
0.0
  0
LINE
  5
176
  8
0
 62
     7
 10
135.02500000000001
 20
109.45699999999999
 30
0.0
 11
134.97200000000001
 21
106.452
 31
0.0
  0
ARC
  5
177
  8
0
 62
     7
 10
135.37031899999999
 20
109.4394649999999
 30
0.0
 40
0.345607
 50
91.990898000000016
 51
177.053169
  0
LINE
  5
178
  8
0
 62
     7
 10
135.358
 20
109.785
 30
0.0
 11
135.5739999999999
 21
109.785
 31
0.0
  0
LINE
  5
179
  8
0
 62
     7
 10
162.78700000000001
 20
109.785
 30
0.0
 11
164.58500000000001
 21
109.785
 31
0.0
  0
ARC
  5
17A
  8
0
 62
     7
 10
164.57308199999991
 20
109.43994099999991
 30
0.0
 40
0.345114
 50
2.8718180000000002
 51
88.084074999999984
  0
LINE
  5
17B
  8
0
 62
     7
 10
164.96999999999991
 20
106.452
 30
0.0
 11
164.91800000000001
 21
109.45699999999999
 31
0.0
  0
LINE
  5
17C
  8
0
 62
     7
 10
163.637
 20
106.452
 30
0.0
 11
163.637
 21
106.122
 31
0.0
  0
ARC
  5
17D
  8
0
 62
     7
 10
163.57674399999991
 20
106.11856899999989
 30
0.0
 40
0.060244
 50
356.39344399999999
 51
3.606555999999999
  0
LINE
  5
17E
  8
0
 62
     7
 10
163.21299999999999
 20
96.791899999999998
 30
0.0
 11
163.637
 21
106.11499999999999
 31
0.0
  0
LINE
  5
17F
  8
0
 62
     7
 10
163.21299999999999
 20
96.791899999999998
 30
0.0
 11
163.21199999999999
 21
96.770899999999983
 31
0.0
  0
LINE
  5
180
  8
0
 62
     7
 10
163.166
 20
94.127499999999998
 30
0.0
 11
163.21199999999999
 21
96.770600000000002
 31
0.0
  0
ARC
  5
181
  8
0
 62
     7
 10
161.3838879999999
 20
93.704498000000015
 30
0.0
 40
1.5745830000000001
 50
298.95448599999992
 51
314.361559
  0
ARC
  5
182
  8
0
 62
     7
 10
160.9182679999999
 20
94.205465000000004
 30
0.0
 40
2.2583649999999991
 50
313.920703
 51
353.14390400000002
  0
ARC
  5
183
  8
0
 62
     7
 10
161.64081599999989
 20
94.077618000000015
 30
0.0
 40
1.5262649999999991
 50
354.67112400000002
 51
1.8726699999999989
  0
LINE
  5
184
  8
0
 62
     7
 10
162.114
 20
92.305400000000006
 30
0.0
 11
162.14599999999999
 21
92.326700000000002
 31
0.0
  0
LINE
  5
185
  8
0
 62
     7
 10
162.114
 20
92.305400000000006
 30
0.0
 11
160.959
 21
91.507800000000003
 31
0.0
  0
LINE
  5
186
  8
0
 62
     7
 10
160.6689999999999
 20
91.158100000000005
 30
0.0
 11
160.7889999999999
 21
91.352500000000006
 31
0.0
  0
LINE
  5
187
  8
0
 62
     7
 10
160.7889999999999
 20
91.352500000000006
 30
0.0
 11
160.959
 21
91.507800000000003
 31
0.0
  0
LINE
  5
188
  8
0
 62
     7
 10
160.602
 20
90.897400000000005
 30
0.0
 11
160.6689999999999
 21
91.158100000000005
 31
0.0
  0
LINE
  5
189
  8
0
 62
     7
 10
160.602
 20
90.897400000000005
 30
0.0
 11
160.3179999999999
 21
87.771299999999997
 31
0.0
  0
LINE
  5
18A
  8
0
 62
     7
 10
160.3179999999999
 20
87.771299999999997
 30
0.0
 11
160.304
 21
87.718500000000006
 31
0.0
  0
LINE
  5
18B
  8
0
 62
     7
 10
160.304
 20
87.718500000000006
 30
0.0
 11
160.274
 21
87.673100000000005
 31
0.0
  0
ARC
  5
18C
  8
0
 62
     7
 10
160.1528659999999
 20
87.783952999999997
 30
0.0
 40
0.164289
 50
269.62405099999989
 51
317.55002500000001
  0
LINE
  5
18D
  8
0
 62
     7
 10
160.15199999999999
 20
87.619699999999995
 30
0.0
 11
158.637
 21
87.619699999999995
 31
0.0
  0
LINE
  5
18E
  8
0
  6
AIGENLINE001
 62
     7
 10
154.971
 20
113.11799999999999
 30
0.0
 11
154.971
 21
84.286500000000004
 31
0.0
  0
LINE
  5
18F
  8
0
  6
AIGENLINE001
 62
     7
 10
94.458200000000005
 20
113.11799999999999
 30
0.0
 11
94.458200000000005
 21
103.488
 31
0.0
  0
LINE
  5
190
  8
0
  6
AIGENLINE001
 62
     7
 10
80.292599999999979
 20
113.11799999999999
 30
0.0
 11
80.292599999999979
 21
84.286500000000004
 31
0.0
  0
LINE
  5
191
  8
0
  6
AIGENLINE001
 62
     7
 10
94.458200000000005
 20
234.37299999999991
 30
0.0
 11
94.458200000000005
 21
224.74299999999999
 31
0.0
  0
LINE
  5
192
  8
0
  6
AIGENLINE001
 62
     7
 10
151.84700000000001
 20
229.55799999999999
 30
0.0
 11
164.71999999999991
 21
229.55799999999999
 31
0.0
  0
LINE
  5
193
  8
0
  6
AIGENLINE001
 62
     7
 10
158.285
 20
235.55799999999991
 30
0.0
 11
158.285
 21
223.559
 31
0.0
  0
ARC
  5
194
  8
0
  6
AIGENLINE002
 62
     7
 10
158.285223
 20
229.558154
 30
0.0
 40
3.8330379999999988
 50
0.00001
 51
89.999980000000008
  0
ARC
  5
195
  8
0
  6
AIGENLINE002
 62
     7
 10
158.285224
 20
229.558154
 30
0.0
 40
3.8330379999999988
 50
90.0
 51
179.99996999999991
  0
ARC
  5
196
  8
0
  6
AIGENLINE002
 62
     7
 10
158.285223
 20
229.558154
 30
0.0
 40
3.833037
 50
179.99996999999991
 51
270.00002000000001
  0
ARC
  5
197
  8
0
  6
AIGENLINE002
 62
     7
 10
158.285223
 20
229.55815499999991
 30
0.0
 40
3.8330379999999988
 50
270.00002000000001
 51
359.99998999999991
  0
ARC
  5
198
  8
0
  6
AIGENLINE002
 62
     7
 10
80.292591000000002
 20
229.558154
 30
0.0
 40
3.8330379999999988
 50
0.00001
 51
89.999980000000008
  0
ARC
  5
199
  8
0
  6
AIGENLINE002
 62
     7
 10
80.292593000000011
 20
229.558154
 30
0.0
 40
3.8330379999999988
 50
90.0
 51
179.99996999999991
  0
ARC
  5
19A
  8
0
  6
AIGENLINE002
 62
     7
 10
80.292591000000002
 20
229.558154
 30
0.0
 40
3.833037
 50
179.99996999999991
 51
270.00002000000001
  0
ARC
  5
19B
  8
0
  6
AIGENLINE002
 62
     7
 10
80.292591000000002
 20
229.55815499999991
 30
0.0
 40
3.8330379999999988
 50
270.00002000000001
 51
359.99998999999991
  0
ARC
  5
19C
  8
0
 62
     7
 10
119.9545899999999
 20
214.5590609999999
 30
0.0
 40
1.666488999999999
 50
179.99700899999999
 51
269.99705899999992
  0
LINE
  5
19D
  8
0
 62
     7
 10
119.955
 20
212.89299999999989
 30
0.0
 11
178.28399999999999
 21
212.89199999999991
 31
0.0
  0
LINE
  5
19E
  8
0
  6
AIGENLINE003
 62
     7
 10
114.955
 20
239.55699999999999
 30
0.0
 11
183.2829999999999
 21
239.55699999999999
 31
0.0
  0
LINE
  5
19F
  8
0
 62
     7
 10
118.2879999999999
 20
239.55699999999999
 30
0.0
 11
118.2879999999999
 21
214.559
 31
0.0
  0
ARC
  5
1A0
  8
0
 62
     7
 10
178.2836979999999
 20
214.55888899999999
 30
0.0
 40
1.66649
 50
270.00298099999998
 51
0.002951
  0
LINE
  5
1A1
  8
0
 62
     7
 10
179.9499999999999
 20
239.55699999999999
 30
0.0
 11
179.9499999999999
 21
214.559
 31
0.0
  0
LINE
  5
1A2
  8
0
 62
     7
 10
169.53700000000001
 20
241.86699999999999
 30
0.0
 11
172.20399999999989
 21
241.86699999999999
 31
0.0
  0
LINE
  5
1A3
  8
0
 62
     7
 10
170.87
 20
239.55699999999999
 30
0.0
 11
169.53700000000001
 21
241.86699999999999
 31
0.0
  0
LINE
  5
1A4
  8
0
 62
     7
 10
172.20399999999989
 20
241.86699999999999
 30
0.0
 11
170.87
 21
239.55699999999999
 31
0.0
  0
TEXT
  5
1A5
  8
0
 62
     7
 10
170.14845399999999
 20
242.791
 30
0.0
 40
3.0923400000000001
  1
壁
 41
0.5
 72
     1
 11
170.87
 21
242.791
 31
0.0
  0
ARC
  5
1A6
  8
0
 62
     7
 10
75.626180000000005
 20
224.8919149999999
 30
0.0
 40
2.1666340000000002
 50
179.99996999999991
 51
270.00002000000001
  0
ARC
  5
1A7
  8
0
 62
     7
 10
75.626180000000005
 20
224.8919149999999
 30
0.0
 40
1.3332599999999999
 50
179.99996999999991
 51
270.00002000000001
  0
LINE
  5
1A8
  8
0
 62
     7
 10
84.959000000000003
 20
222.72499999999999
 30
0.0
 11
75.626199999999983
 21
222.72499999999999
 31
0.0
  0
LINE
  5
1A9
  8
0
 62
     7
 10
84.959000000000003
 20
223.559
 30
0.0
 11
75.626199999999983
 21
223.559
 31
0.0
  0
ARC
  5
1AA
  8
0
 62
     7
 10
84.958831000000004
 20
224.89174299999999
 30
0.0
 40
2.1664620000000001
 50
270.00457499999999
 51
0.004546
  0
ARC
  5
1AB
  8
0
 62
     7
 10
84.959002999999996
 20
224.8919149999999
 30
0.0
 40
1.333261
 50
270.00002000000001
 51
359.99998999999991
  0
LINE
  5
1AC
  8
0
 62
     7
 10
87.125299999999996
 20
234.22499999999991
 30
0.0
 11
87.125299999999996
 21
224.892
 31
0.0
  0
LINE
  5
1AD
  8
0
 62
     7
 10
86.292299999999983
 20
234.22499999999991
 30
0.0
 11
86.292299999999983
 21
224.892
 31
0.0
  0
ARC
  5
1AE
  8
0
 62
     7
 10
75.626094999999992
 20
234.224479
 30
0.0
 40
2.1665480000000001
 50
89.997721999999996
 51
179.99769299999991
  0
ARC
  5
1AF
  8
0
 62
     7
 10
75.626181000000003
 20
234.2245649999999
 30
0.0
 40
1.333261
 50
90.0
 51
179.99996999999991
  0
ARC
  5
1B0
  8
0
 62
     7
 10
84.958916999999985
 20
234.22465099999991
 30
0.0
 40
2.1663759999999992
 50
359.99773199999993
 51
89.997702000000004
  0
ARC
  5
1B1
  8
0
 62
     7
 10
84.959002999999996
 20
234.2245649999999
 30
0.0
 40
1.333261
 50
0.00001
 51
89.999980000000008
  0
LINE
  5
1B2
  8
0
 62
     7
 10
75.626199999999983
 20
236.39099999999999
 30
0.0
 11
84.959000000000003
 21
236.39099999999999
 31
0.0
  0
LINE
  5
1B3
  8
0
 62
     7
 10
75.626199999999983
 20
235.55799999999991
 30
0.0
 11
84.959000000000003
 21
235.55799999999991
 31
0.0
  0
LINE
  5
1B4
  8
0
 62
     7
 10
73.459500000000006
 20
224.892
 30
0.0
 11
73.459500000000006
 21
234.22499999999991
 31
0.0
  0
LINE
  5
1B5
  8
0
 62
     7
 10
74.292900000000003
 20
224.892
 30
0.0
 11
74.292900000000003
 21
234.22499999999991
 31
0.0
  0
LINE
  5
1B6
  8
0
  6
AIGENLINE001
 62
     7
 10
34.462499999999999
 20
229.55799999999999
 30
0.0
 11
107.79000000000001
 21
229.55799999999999
 31
0.0
  0
LINE
  5
1B7
  8
0
  6
AIGENLINE001
 62
     7
 10
80.292599999999979
 20
242.89099999999999
 30
0.0
 11
80.292599999999979
 21
206.226
 31
0.0
  0
ARC
  5
1B8
  8
0
 62
     7
 10
94.458139000000003
 20
229.5582399999999
 30
0.0
 40
2.916377999999999
 50
359.99831799999998
 51
89.998288000000016
  0
ARC
  5
1B9
  8
0
 62
     7
 10
94.458312000000006
 20
229.5582399999999
 30
0.0
 40
2.916377999999999
 50
90.001692000000006
 51
180.00170199999999
  0
ARC
  5
1BA
  8
0
 62
     7
 10
94.458224999999999
 20
229.558154
 30
0.0
 40
2.9162910000000002
 50
179.99996999999991
 51
270.00002000000001
  0
ARC
  5
1BB
  8
0
 62
     7
 10
94.458224999999999
 20
229.55815499999991
 30
0.0
 40
2.916291999999999
 50
270.00002000000001
 51
359.99998999999991
  0
ARC
  5
1BC
  8
0
 62
     7
 10
38.141196999999998
 20
239.21193700000001
 30
0.0
 40
0.345719
 50
92.049087
 51
177.980501
  0
LINE
  5
1BD
  8
0
 62
     7
 10
37.795699999999989
 20
239.22399999999999
 30
0.0
 11
37.795699999999989
 21
209.893
 31
0.0
  0
ARC
  5
1BE
  8
0
 62
     7
 10
84.958916999999985
 20
234.22465099999991
 30
0.0
 40
2.8330069999999989
 50
359.998268
 51
89.998237999999986
  0
ARC
  5
1BF
  8
0
 62
     7
 10
87.446418999999992
 20
210.73846499999991
 30
0.0
 40
0.345719
 50
272.04912400000001
 51
357.980504
  0
LINE
  5
1C0
  8
0
 62
     7
 10
87.791899999999984
 20
210.726
 30
0.0
 11
87.791899999999984
 21
234.22499999999991
 31
0.0
  0
ARC
  5
1C1
  8
0
 62
     7
 10
104.111829
 20
209.905091
 30
0.0
 40
0.345719
 50
272.04912400000001
 51
357.980504
  0
ARC
  5
1C2
  8
0
 62
     7
 10
104.1108829999999
 20
239.21099100000001
 30
0.0
 40
0.3467
 50
2.1702110000000001
 51
87.800161000000003
  0
LINE
  5
1C3
  8
0
 62
     7
 10
104.45699999999989
 20
209.893
 30
0.0
 11
104.45699999999989
 21
239.22399999999999
 31
0.0
  0
ARC
  5
1C4
  8
0
 62
     7
 10
38.974561000000001
 20
236.71181200000001
 30
0.0
 40
0.346066
 50
92.045450999999986
 51
177.92491599999991
  0
LINE
  5
1C5
  8
0
 62
     7
 10
84.959000000000003
 20
237.05799999999991
 30
0.0
 11
38.962200000000003
 21
237.05799999999991
 31
0.0
  0
LINE
  5
1C6
  8
0
 62
     7
 10
104.1239999999999
 20
239.55699999999999
 30
0.0
 11
38.128799999999991
 21
239.55699999999999
 31
0.0
  0
ARC
  5
1C7
  8
0
 62
     7
 10
38.141750000000002
 20
209.905644
 30
0.0
 40
0.346292
 50
182.10775000000001
 51
267.862661
  0
LINE
  5
1C8
  8
0
 62
     7
 10
38.128799999999991
 20
209.56
 30
0.0
 11
104.1239999999999
 21
209.56
 31
0.0
  0
TEXT
  5
1C9
  8
_________2
 62
     7
 10
29.3491
 20
22.050799999999999
 30
0.0
 40
3.9357000000000002
  1
重量：1.9kg、オーバーフローなし
 41
0.5
  0
TEXT
  5
1CA
  8
_________2
 62
     7
 10
143.07741250000001
 20
30.627400000000002
 30
0.0
 40
3.9357000000000002
  1
CEL430
 41
0.5
 72
     1
 11
148.489
 21
30.627400000000002
 31
0.0
  0
TEXT
  5
1CB
  8
_________2
 62
     7
 10
143.07741250000001
 20
20.626999999999988
 30
0.0
 40
3.9357000000000002
  1
CEL430
 41
0.5
 72
     1
 11
148.489
 21
20.626999999999988
 31
0.0
  0
LINE
  5
1CC
  8
_________2
 62
     7
 10
210.24000000000001
 20
148.93100000000001
 30
0.0
 11
188.49000000000001
 21
148.93100000000001
 31
0.0
  0
LINE
  5
1CD
  8
_________2
 62
     7
 10
105.2389999999999
 20
17.428499999999989
 30
0.0
 11
105.2389999999999
 21
0.4482100000000001
 31
0.0
  0
LINE
  5
1CE
  8
_________2
 62
     7
 10
105.2389999999999
 20
297.44999999999987
 30
0.0
 11
105.2389999999999
 21
280.42999999999989
 31
0.0
  0
LINE
  5
1CF
  8
_________2
 62
     7
 10
21.988499999999991
 20
148.93100000000001
 30
0.0
 11
0.238058
 21
148.93100000000001
 31
0.0
  0
LINE
  5
1D0
  8
_________2
 62
     7
 10
81.679900000000004
 20
51.324300000000001
 30
0.0
 11
79.493700000000004
 21
51.324300000000001
 31
0.0
  0
LINE
  5
1D1
  8
_________2
 62
     7
 10
82.172600000000017
 20
51.324300000000001
 30
0.0
 11
81.920400000000001
 21
51.324300000000001
 31
0.0
  0
LINE
  5
1D2
  8
_________2
 62
     7
 10
82.665199999999984
 20
51.324300000000001
 30
0.0
 11
85.590100000000007
 21
51.324300000000001
 31
0.0
  0
LINE
  5
1D3
  8
_________2
 62
     7
 10
82.172600000000017
 20
51.324300000000001
 30
0.0
 11
82.424800000000005
 21
51.324300000000001
 31
0.0
  0
LINE
  5
1D4
  8
_________2
 62
     7
 10
75.776399999999995
 20
51.324300000000001
 30
0.0
 11
73.589399999999998
 21
51.324300000000001
 31
0.0
  0
LINE
  5
1D5
  8
_________2
 62
     7
 10
76.2684
 20
51.324300000000001
 30
0.0
 11
76.016900000000007
 21
51.324300000000001
 31
0.0
  0
LINE
  5
1D6
  8
_________2
 62
     7
 10
76.2684
 20
51.817
 30
0.0
 11
76.2684
 21
54.003900000000002
 31
0.0
  0
LINE
  5
1D7
  8
_________2
 62
     7
 10
76.2684
 20
51.324300000000001
 30
0.0
 11
76.2684
 21
51.576500000000003
 31
0.0
  0
LINE
  5
1D8
  8
_________2
 62
     7
 10
76.76100000000001
 20
51.324300000000001
 30
0.0
 11
78.947999999999993
 21
51.324300000000001
 31
0.0
  0
LINE
  5
1D9
  8
_________2
 62
     7
 10
76.2684
 20
51.324300000000001
 30
0.0
 11
76.520499999999998
 21
51.324300000000001
 31
0.0
  0
LINE
  5
1DA
  8
_________2
 62
     7
 10
76.2684
 20
50.832399999999993
 30
0.0
 11
76.2684
 21
48.645400000000002
 31
0.0
  0
LINE
  5
1DB
  8
_________2
 62
     7
 10
76.2684
 20
51.324300000000001
 30
0.0
 11
76.2684
 21
51.072800000000001
 31
0.0
  0
LINE
  5
1DC
  8
_________2
 62
     7
 10
79.979399999999984
 20
50.104799999999997
 30
0.0
 11
85.157399999999996
 21
49.240000000000002
 31
0.0
  0
LINE
  5
1DD
  8
_________2
 62
     7
 10
79.979399999999984
 20
52.543900000000001
 30
0.0
 11
85.157399999999996
 21
53.409300000000002
 31
0.0
  0
LINE
  5
1DE
  8
_________2
 62
     7
 10
85.157399999999996
 20
49.240000000000002
 30
0.0
 11
85.157399999999996
 21
53.409300000000002
 31
0.0
  0
LINE
  5
1DF
  8
_________2
 62
     7
 10
79.979399999999984
 20
50.104799999999997
 30
0.0
 11
79.979399999999984
 21
52.543900000000001
 31
0.0
  0
ARC
  5
1E0
  8
_________2
 62
     7
 10
76.222110000000001
 20
51.277366999999991
 30
0.0
 40
1.2673709999999989
 50
2.1232950000000002
 51
87.909056000000007
  0
ARC
  5
1E1
  8
_________2
 62
     7
 10
76.315273000000005
 20
51.277400999999998
 30
0.0
 40
1.267363
 50
92.121785999999986
 51
177.878185
  0
ARC
  5
1E2
  8
_________2
 62
     7
 10
76.315273000000005
 20
51.371245999999992
 30
0.0
 40
1.267363
 50
182.12181499999991
 51
267.87821400000001
  0
ARC
  5
1E3
  8
_________2
 62
     7
 10
76.221461000000005
 20
51.371928999999987
 30
0.0
 40
1.2680439999999991
 50
272.11916400000001
 51
357.84848499999993
  0
ARC
  5
1E4
  8
_________2
 62
     7
 10
76.268349999999984
 20
51.324323
 30
0.0
 40
2.0849849999999992
 50
0.00001
 51
89.999980000000008
  0
ARC
  5
1E5
  8
_________2
 62
     7
 10
76.348388
 20
51.245001999999992
 30
0.0
 40
2.1657860000000002
 50
92.117855000000034
 51
177.90105299999991
  0
ARC
  5
1E6
  8
_________2
 62
     7
 10
76.348354
 20
51.404327000000002
 30
0.0
 40
2.1657779999999991
 50
182.11700400000001
 51
267.88302499999992
  0
ARC
  5
1E7
  8
_________2
 62
     7
 10
76.188378999999983
 20
51.405009999999997
 30
0.0
 40
2.1664590000000001
 50
272.11546800000002
 51
357.86560400000002
  0
TEXT
  5
1E8
  8
_________2
 62
     7
 10
109.5439999999999
 20
23.199100000000001
 30
0.0
 40
3.0923400000000001
  1
図番
 41
0.5
  0
LINE
  5
1E9
  8
_________2
 62
     7
 10
108.4889999999999
 20
27.4283
 30
0.0
 11
188.49000000000001
 21
27.4283
 31
0.0
  0
TEXT
  5
1EA
  8
_________2
 62
     7
 10
109.5439999999999
 20
33.198900000000002
 30
0.0
 40
3.0923400000000001
  1
品番
 41
0.5
  0
TEXT
  5
1EB
  8
_________2
 62
     7
 10
109.5439999999999
 20
53.337699999999998
 30
0.0
 40
3.0923400000000001
  1
名称
 41
0.5
  0
TEXT
  5
1EC
  8
_________2
 62
     7
 10
96.784058333333334
 20
48.341500000000011
 30
0.0
 40
3.6545800000000002
  1
mm
 41
0.5
 72
     1
 11
98.306799999999996
 21
48.341500000000011
 31
0.0
  0
TEXT
  5
1ED
  8
_________2
 62
     7
 10
90.582099999999997
 20
53.337699999999998
 30
0.0
 40
3.0923400000000001
  1
単位
 41
0.5
  0
TEXT
  5
1EE
  8
_________2
 62
     7
 10
90.582099999999997
 20
40.930399999999999
 30
0.0
 40
3.0923400000000001
  1
尺度
 41
0.5
  0
TEXT
  5
1EF
  8
_________2
 62
     7
 10
95.487658666666675
 20
34.73749999999999
 30
0.0
 40
3.6545800000000002
  1
1 ： 6
 41
0.5
 72
     1
 11
98.898600000000002
 21
34.73749999999999
 31
0.0
  0
TEXT
  5
1F0
  8
_________2
 62
     7
 10
114.11799999999999
 20
45.7453
 30
0.0
 40
3.9357000000000002
  1
セラオチジナルコレクション 手洗器
 41
0.5
  0
TEXT
  5
1F1
  8
_________2
 62
     7
 10
44.364200333333329
 20
35.122599999999991
 30
0.0
 40
3.6545800000000002
  1
早川
 41
0.5
 72
     1
 11
46.252400000000002
 21
35.122599999999991
 31
0.0
  0
TEXT
  5
1F2
  8
_________2
 62
     7
 10
25.729290666666671
 20
35.122599999999991
 30
0.0
 40
3.6545800000000002
  1
菅原
 41
0.5
 72
     1
 11
27.6784
 21
35.122599999999991
 31
0.0
  0
TEXT
  5
1F3
  8
_________2
 62
     7
 10
72.724699999999999
 20
34.73749999999999
 30
0.0
 40
3.6545800000000002
  1
13.01.21
 41
0.5
  0
TEXT
  5
1F4
  8
_________2
 62
     7
 10
71.531999999999996
 20
40.930399999999999
 30
0.0
 40
3.0923400000000001
  1
日付
 41
0.5
  0
TEXT
  5
1F5
  8
_________2
 62
     7
 10
34.578299999999992
 20
40.930399999999999
 30
0.0
 40
3.0923400000000001
  1
検図
 41
0.5
  0
TEXT
  5
1F6
  8
_________2
 62
     7
 10
22.960000000000001
 20
26.730999999999991
 30
0.0
 40
3.0923400000000001
  1
備考
 41
0.5
  0
TEXT
  5
1F7
  8
_________2
 62
     7
 10
22.960000000000001
 20
40.930399999999999
 30
0.0
 40
3.0923400000000001
  1
製図
 41
0.5
  0
TEXT
  5
1F8
  8
_________2
 62
     7
 10
28.727365333333339
 20
49.456400000000002
 30
0.0
 40
4.4979399999999989
  1
セラトレーディング株式会社
 41
0.5
 72
     1
 11
46.119399999999992
 21
49.456400000000002
 31
0.0
  0
LINE
  5
1F9
  8
_________2
 62
     7
 10
188.49000000000001
 20
17.428499999999989
 30
0.0
 11
21.988499999999991
 21
17.428499999999989
 31
0.0
  0
LINE
  5
1FA
  8
_________2
 62
     7
 10
21.988499999999991
 20
17.428499999999989
 30
0.0
 11
21.988499999999991
 21
280.42999999999989
 31
0.0
  0
LINE
  5
1FB
  8
_________2
 62
     7
 10
21.988499999999991
 20
280.42999999999989
 30
0.0
 11
188.49000000000001
 21
280.42999999999989
 31
0.0
  0
LINE
  5
1FC
  8
_________2
 62
     7
 10
188.49000000000001
 20
280.42999999999989
 30
0.0
 11
188.49000000000001
 21
17.428499999999989
 31
0.0
  0
LINE
  5
1FD
  8
_________2
 62
     7
 10
70.488799999999998
 20
30.9285
 30
0.0
 11
70.488799999999998
 21
57.428400000000011
 31
0.0
  0
LINE
  5
1FE
  8
_________2
 62
     7
 10
89.488600000000005
 20
30.9285
 30
0.0
 11
89.488600000000005
 21
57.428400000000011
 31
0.0
  0
LINE
  5
1FF
  8
_________2
 62
     7
 10
108.4889999999999
 20
17.428499999999989
 30
0.0
 11
108.4889999999999
 21
57.428400000000011
 31
0.0
  0
LINE
  5
200
  8
_________2
 62
     7
 10
33.488300000000002
 20
30.9285
 30
0.0
 11
33.488300000000002
 21
44.928800000000003
 31
0.0
  0
LINE
  5
201
  8
_________2
 62
     7
 10
21.988499999999991
 20
30.9285
 30
0.0
 11
108.4889999999999
 21
30.9285
 31
0.0
  0
LINE
  5
202
  8
_________2
 62
     7
 10
21.988499999999991
 20
44.928800000000003
 30
0.0
 11
108.4889999999999
 21
44.928800000000003
 31
0.0
  0
LINE
  5
203
  8
_________2
 62
     7
 10
108.4889999999999
 20
37.428100000000001
 30
0.0
 11
188.49000000000001
 21
37.428100000000001
 31
0.0
  0
LINE
  5
204
  8
_________2
 62
     7
 10
21.988499999999991
 20
57.428400000000011
 30
0.0
 11
188.49000000000001
 21
57.428400000000011
 31
0.0
  0
ENDSEC
  0
EOF
