  0
SECTION
  2
HEADER
  9
$ACADVER
  1
AC1009
  9
$INSBASE
 10
0.0
 20
0.0
 30
0.0
  9
$EXTMIN
 10
0.238058
 20
0.4482100000000001
 30
0.0
  9
$EXTMAX
 10
210.24000000000001
 20
297.44999999999987
 30
0.0
  9
$LIMMIN
 10
0.0
 20
0.0
  9
$LIMMAX
 10
12.0
 20
9.0
  9
$ORTHOMODE
 70
     0
  9
$REGENMODE
 70
     1
  9
$FILLMODE
 70
     1
  9
$QTEXTMODE
 70
     0
  9
$MIRRTEXT
 70
     1
  9
$DRAGMODE
 70
     2
  9
$LTSCALE
 40
1.0
  9
$OSMODE
 70
    37
  9
$ATTMODE
 70
     1
  9
$TEXTSIZE
 40
0.0
  9
$TRACEWID
 40
0.05
  9
$TEXTSTYLE
  7
STANDARD
  9
$CLAYER
  8
0
  9
$CELTYPE
  6
CONTINUOUS
  9
$CECOLOR
 62
   256
  9
$DIMSCALE
 40
1.0
  9
$DIMASZ
 40
0.18
  9
$DIMEXO
 40
0.0625
  9
$DIMDLI
 40
0.38
  9
$DIMRND
 40
0.0
  9
$DIMDLE
 40
0.0
  9
$DIMEXE
 40
0.18
  9
$DIMTP
 40
0.0
  9
$DIMTM
 40
0.0
  9
$DIMTXT
 40
0.18
  9
$DIMCEN
 40
0.09
  9
$DIMTSZ
 40
0.0
  9
$DIMTOL
 70
     0
  9
$DIMLIM
 70
     0
  9
$DIMTIH
 70
     1
  9
$DIMTOH
 70
     1
  9
$DIMSE1
 70
     0
  9
$DIMSE2
 70
     0
  9
$DIMTAD
 70
     0
  9
$DIMZIN
 70
     0
  9
$DIMBLK
  1

  9
$DIMASO
 70
     1
  9
$DIMSHO
 70
     1
  9
$DIMPOST
  1

  9
$DIMAPOST
  1

  9
$DIMALT
 70
     0
  9
$DIMALTD
 70
     2
  9
$DIMALTF
 40
25.399999999999999
  9
$DIMLFAC
 40
1.0
  9
$DIMTOFL
 70
     0
  9
$DIMTVP
 40
0.0
  9
$DIMTIX
 70
     0
  9
$DIMSOXD
 70
     0
  9
$DIMSAH
 70
     0
  9
$DIMBLK1
  1

  9
$DIMBLK2
  1

  9
$DIMSTYLE
  2
STANDARD
  9
$DIMCLRD
 70
     0
  9
$DIMCLRE
 70
     0
  9
$DIMCLRT
 70
     0
  9
$DIMTFAC
 40
1.0
  9
$DIMGAP
 40
0.09
  9
$LUNITS
 70
     2
  9
$LUPREC
 70
     4
  9
$SKETCHINC
 40
0.1
  9
$FILLETRAD
 40
0.0
  9
$AUNITS
 70
     0
  9
$AUPREC
 70
     0
  9
$MENU
  1
.
  9
$ELEVATION
 40
0.0
  9
$PELEVATION
 40
0.0
  9
$THICKNESS
 40
0.0
  9
$LIMCHECK
 70
     0
  9
$BLIPMODE
 70
     0
  9
$CHAMFERA
 40
0.0
  9
$CHAMFERB
 40
0.0
  9
$SKPOLY
 70
     0
  9
$TDCREATE
 40
2444972.375
  9
$TDUPDATE
 40
2456697.2459259611
  9
$TDINDWG
 40
0.0000117477
  9
$TDUSRTIMER
 40
0.0000117477
  9
$USRTIMER
 70
     1
  9
$ANGBASE
 50
0.0
  9
$ANGDIR
 70
     0
  9
$PDMODE
 70
     0
  9
$PDSIZE
 40
0.0
  9
$PLINEWID
 40
0.0
  9
$COORDS
 70
     1
  9
$SPLFRAME
 70
     0
  9
$SPLINETYPE
 70
     6
  9
$SPLINESEGS
 70
     8
  9
$ATTDIA
 70
     0
  9
$ATTREQ
 70
     1
  9
$HANDLING
 70
     1
  9
$HANDSEED
  5
226
  9
$SURFTAB1
 70
     6
  9
$SURFTAB2
 70
     6
  9
$SURFTYPE
 70
     6
  9
$SURFU
 70
     6
  9
$SURFV
 70
     6
  9
$UCSNAME
  2

  9
$UCSORG
 10
0.0
 20
0.0
 30
0.0
  9
$UCSXDIR
 10
1.0
 20
0.0
 30
0.0
  9
$UCSYDIR
 10
0.0
 20
1.0
 30
0.0
  9
$PUCSNAME
  2

  9
$PUCSORG
 10
0.0
 20
0.0
 30
0.0
  9
$PUCSXDIR
 10
1.0
 20
0.0
 30
0.0
  9
$PUCSYDIR
 10
0.0
 20
1.0
 30
0.0
  9
$USERI1
 70
     0
  9
$USERI2
 70
     0
  9
$USERI3
 70
     0
  9
$USERI4
 70
     0
  9
$USERI5
 70
     0
  9
$USERR1
 40
0.0
  9
$USERR2
 40
0.0
  9
$USERR3
 40
0.0
  9
$USERR4
 40
0.0
  9
$USERR5
 40
0.0
  9
$WORLDVIEW
 70
     1
  9
$SHADEDGE
 70
     3
  9
$SHADEDIF
 70
    70
  9
$TILEMODE
 70
     1
  9
$MAXACTVP
 70
    48
  9
$PLIMCHECK
 70
     0
  9
$PEXTMIN
 10
1.0000000000000000E+020
 20
1.0000000000000000E+020
 30
1.0000000000000000E+020
  9
$PEXTMAX
 10
-1.0000000000000000E+020
 20
-1.0000000000000000E+020
 30
-1.0000000000000000E+020
  9
$PLIMMIN
 10
0.0
 20
0.0
  9
$PLIMMAX
 10
12.0
 20
9.0
  9
$UNITMODE
 70
     0
  9
$VISRETAIN
 70
     1
  9
$PLINEGEN
 70
     0
  9
$PSLTSCALE
 70
     1
  0
ENDSEC
  0
SECTION
  2
TABLES
  0
TABLE
  2
VPORT
 70
     2
  0
VPORT
  2
*ACTIVE
 70
     0
 10
0.0
 20
0.0
 11
1.0
 21
1.0
 12
206.97982146115791
 22
148.72499999999991
 13
0.0
 23
0.0
 14
1.0
 24
1.0
 15
0.0
 25
0.0
 16
0.0
 26
0.0
 36
1.0
 17
0.0
 27
0.0
 37
0.0
 40
299.90488308115528
 41
2.2894736842105261
 42
50.0
 43
0.0
 44
0.0
 50
0.0
 51
0.0
 71
     0
 72
   100
 73
     1
 74
     1
 75
     0
 76
     0
 77
     0
 78
     0
  0
ENDTAB
  0
TABLE
  2
LTYPE
 70
     3
  0
LTYPE
  2
CONTINUOUS
 70
     0
  3
Solid line
 72
    65
 73
     0
 40
0.0
  0
LTYPE
  2
AIGENLINE001
 70
     0
  3
generate AI->DXF Converter
 72
    65
 73
     4
 40
5.8561449999999988
 49
3.5278
 49
-0.776115
 49
0.776115
 49
-0.776115
  0
LTYPE
  2
AIGENLINE002
 70
     0
  3
generate AI->DXF Converter
 72
    65
 73
     2
 40
1.5522299999999991
 49
0.776115
 49
-0.776115
  0
ENDTAB
  0
TABLE
  2
LAYER
 70
     2
  0
LAYER
  2
0
 70
     0
 62
     7
  6
CONTINUOUS
  0
LAYER
  2
_________2
 70
     0
 62
     7
  6
CONTINUOUS
  0
ENDTAB
  0
TABLE
  2
STYLE
 70
     1
  0
STYLE
  2
STANDARD
 70
     0
 40
0.0
 41
0.0
 50
0.0
 71
     0
 42
0.0
  3
TXT
  4
EXTFONT.SHX
  0
ENDTAB
  0
TABLE
  2
VIEW
 70
     0
  0
ENDTAB
  0
TABLE
  2
UCS
 70
     0
  0
ENDTAB
  0
TABLE
  2
APPID
 70
     1
  0
APPID
  2
ACAD
 70
     0
  0
ENDTAB
  0
TABLE
  2
DIMSTYLE
 70
     1
  0
DIMSTYLE
  2
STANDARD
 70
     0
  3

  4

  5

  6

  7

 40
1.0
 41
0.18
 42
0.0625
 43
0.38
 44
0.18
 45
0.0
 46
0.0
 47
0.0
 48
0.0
140
0.18
141
0.09
142
0.0
143
25.399999999999999
144
1.0
145
0.0
146
1.0
147
0.09
 71
     0
 72
     0
 73
     1
 74
     1
 75
     0
 76
     0
 77
     0
 78
     0
170
     0
171
     2
172
     0
173
     0
174
     0
175
     0
176
     0
177
     0
178
     0
  0
ENDTAB
  0
ENDSEC
  0
SECTION
  2
BLOCKS
  0
BLOCK
  8
0
  2
$MODEL_SPACE
 70
     0
 10
0.0
 20
0.0
 30
0.0
  3
$MODEL_SPACE
  1

  0
ENDBLK
  5
1A
  8
0
  0
BLOCK
 67
     1
  8
0
  2
$PAPER_SPACE
 70
     0
 10
0.0
 20
0.0
 30
0.0
  3
$PAPER_SPACE
  1

  0
ENDBLK
  5
17
 67
     1
  8
0
  0
ENDSEC
  0
SECTION
  2
ENTITIES
  0
TEXT
  5
23
  8
0
 62
     7
 10
126.87296499999989
 20
211.04699999999991
 30
0.0
 40
3.0923400000000001
  1
R10
 41
0.5
 72
     2
 11
130.2229999999999
 21
211.04699999999991
 31
0.0
  0
LINE
  5
24
  8
0
 62
     7
 10
122.465
 20
214.23599999999999
 30
0.0
 11
120.73099999999999
 21
215.72900000000001
 31
0.0
  0
LINE
  5
25
  8
0
 62
     7
 10
120.73099999999999
 20
215.72900000000001
 30
0.0
 11
121.486
 21
213.56899999999999
 31
0.0
  0
LINE
  5
26
  8
0
 62
     7
 10
121.486
 20
213.56899999999999
 30
0.0
 11
122.465
 21
214.23599999999999
 31
0.0
  0
LINE
  5
27
  8
0
 62
     7
 10
120.73099999999999
 20
215.72900000000001
 30
0.0
 11
124.398
 21
210.34700000000001
 31
0.0
  0
LINE
  5
28
  8
0
 62
     7
 10
124.398
 20
210.34700000000001
 30
0.0
 11
130.2229999999999
 21
210.34700000000001
 31
0.0
  0
TEXT
  5
29
  8
0
 62
     7
 10
165.393
 20
203.48099999999991
 30
0.0
 40
3.0923400000000001
  1
38.8
 50
90.0
 41
0.5
  0
LINE
  5
2A
  8
0
 62
     7
 10
160.08099999999999
 20
212.13499999999999
 30
0.0
 11
166.78599999999989
 21
212.13499999999999
 31
0.0
  0
TEXT
  5
2B
  8
0
 62
     7
 10
132.43476000000001
 20
155.0389999999999
 30
0.0
 40
3.0923400000000001
  1
カウンター切込寸法
 41
0.5
 72
     1
 11
140.68100000000001
 21
155.0389999999999
 31
0.0
  0
TEXT
  5
2C
  8
0
 62
     7
 10
91.223299999999995
 20
95.054599999999994
 30
0.0
 40
3.0923400000000001
  1
18
 50
90.0
 41
0.5
  0
TEXT
  5
2D
  8
0
 62
     7
 10
85.500200000000007
 20
127.24344000000001
 30
0.0
 40
3.0923400000000001
  1
13
 50
90.0
 41
0.5
 72
     2
 11
85.500200000000007
 21
129.30500000000001
 31
0.0
  0
TEXT
  5
2E
  8
0
 62
     7
 10
91.223299999999995
 20
111.1912875
 30
0.0
 40
3.0923400000000001
  1
205
 50
90.0
 41
0.5
 72
     1
 11
91.223299999999995
 21
113.124
 31
0.0
  0
TEXT
  5
2F
  8
0
 62
     7
 10
98.634399999999999
 20
110.1624399999999
 30
0.0
 40
3.0923400000000001
  1
223
 50
90.0
 41
0.5
 72
     1
 11
98.634399999999999
 21
112.2239999999999
 31
0.0
  0
TEXT
  5
30
  8
0
 62
     7
 10
41.332897000000003
 20
164.40199999999999
 30
0.0
 40
3.0923400000000001
  1
（229）
 41
0.5
 72
     1
 11
45.301400000000001
 21
164.40199999999999
 31
0.0
  0
TEXT
  5
31
  8
0
 62
     7
 10
41.461744500000002
 20
156.9499999999999
 30
0.0
 40
3.0923400000000001
  1
（220）
 41
0.5
 72
     1
 11
45.301400000000001
 21
156.9499999999999
 31
0.0
  0
TEXT
  5
32
  8
0
 62
     7
 10
65.855530000000002
 20
164.40199999999999
 30
0.0
 40
3.0923400000000001
  1
211
 41
0.5
 72
     1
 11
67.401700000000005
 21
164.40199999999999
 31
0.0
  0
TEXT
  5
33
  8
0
 62
     7
 10
65.468987500000011
 20
156.9499999999999
 30
0.0
 40
3.0923400000000001
  1
220
 41
0.5
 72
     1
 11
67.401700000000005
 21
156.9499999999999
 31
0.0
  0
TEXT
  5
34
  8
0
 62
     7
 10
172.697
 20
203.50535500000001
 30
0.0
 40
3.0923400000000001
  1
193.5
 50
90.0
 41
0.5
 72
     1
 11
172.697
 21
206.34
 31
0.0
  0
TEXT
  5
35
  8
0
 62
     7
 10
148.04699999999991
 20
220.46999999999991
 30
0.0
 40
3.0923400000000001
  1
38.8
 41
0.5
  0
TEXT
  5
36
  8
0
 62
     7
 10
148.42135499999989
 20
168.96000000000001
 30
0.0
 40
3.0923400000000001
  1
193.5
 41
0.5
 72
     1
 11
151.256
 21
168.96000000000001
 31
0.0
  0
TEXT
  5
37
  8
0
 62
     7
 10
138.7482875
 20
228.84700000000001
 30
0.0
 40
3.0923400000000001
  1
405
 41
0.5
 72
     1
 11
140.68100000000001
 21
228.84700000000001
 31
0.0
  0
TEXT
  5
38
  8
0
 62
     7
 10
53.797699999999999
 20
223.44599999999991
 30
0.0
 40
3.0923400000000001
  1
%%c35.5
 41
0.5
  0
TEXT
  5
39
  8
0
 62
     7
 10
61.13240329824346
 20
202.1206032982434
 30
0.0
 40
3.0923400000000001
  1
%%c327
 50
45.0
 41
0.5
 72
     1
 11
63.136800000000001
 21
204.125
 31
0.0
  0
TEXT
  5
3A
  8
0
 62
     7
 10
65.00318
 20
191.9259999999999
 30
0.0
 40
3.0923400000000001
  1
%%c97
 41
0.5
 72
     2
 11
69.126300000000001
 21
191.9259999999999
 31
0.0
  0
TEXT
  5
3B
  8
0
 62
     7
 10
91.222899999999996
 20
180.74649700000001
 30
0.0
 40
3.0923400000000001
  1
（229）
 50
90.0
 41
0.5
 72
     1
 11
91.222899999999996
 21
184.715
 31
0.0
  0
TEXT
  5
3C
  8
0
 62
     7
 10
98.634399999999999
 20
180.87534450000001
 30
0.0
 40
3.0923400000000001
  1
（220）
 50
90.0
 41
0.5
 72
     1
 11
98.634399999999999
 21
184.715
 31
0.0
  0
TEXT
  5
3D
  8
0
 62
     7
 10
91.222899999999996
 20
205.26883000000001
 30
0.0
 40
3.0923400000000001
  1
211
 50
90.0
 41
0.5
 72
     1
 11
91.222899999999996
 21
206.815
 31
0.0
  0
TEXT
  5
3E
  8
0
 62
     7
 10
98.634399999999999
 20
204.8822874999999
 30
0.0
 40
3.0923400000000001
  1
220
 50
90.0
 41
0.5
 72
     1
 11
98.634399999999999
 21
206.815
 31
0.0
  0
TEXT
  5
3F
  8
0
 62
     7
 10
85.493300000000005
 20
221.95749000000001
 30
0.0
 40
3.0923400000000001
  1
56.3
 50
90.0
 41
0.5
 72
     2
 11
85.493300000000005
 21
226.59599999999989
 31
0.0
  0
TEXT
  5
40
  8
0
 62
     7
 10
82.543589999999995
 20
229.75699999999989
 30
0.0
 40
3.0923400000000001
  1
56.3
 41
0.5
 72
     2
 11
87.182100000000005
 21
229.75699999999989
 31
0.0
  0
TEXT
  5
41
  8
0
 62
     7
 10
179.77799999999991
 20
193.83228749999989
 30
0.0
 40
3.0923400000000001
  1
405
 50
90.0
 41
0.5
 72
     1
 11
179.77799999999991
 21
195.7649999999999
 31
0.0
  0
TEXT
  5
42
  8
0
 62
     7
 10
104.95399999999989
 20
193.83228749999989
 30
0.0
 40
3.0923400000000001
  1
440
 50
90.0
 41
0.5
 72
     1
 11
104.95399999999989
 21
195.7649999999999
 31
0.0
  0
TEXT
  5
43
  8
0
 62
     7
 10
54.418687499999997
 20
235.75099999999989
 30
0.0
 40
3.0923400000000001
  1
440
 41
0.5
 72
     1
 11
56.351399999999991
 21
235.75099999999989
 31
0.0
  0
LINE
  5
44
  8
0
 62
     7
 10
57.2515
 20
190.59
 30
0.0
 11
57.2515
 21
162.995
 31
0.0
  0
ARC
  5
45
  8
0
 62
     7
 10
72.721688
 20
212.13524799999999
 30
0.0
 40
1.7748389999999989
 50
0.00279
 51
90.002760999999978
  0
ARC
  5
46
  8
0
 62
     7
 10
72.721429999999984
 20
212.13516199999989
 30
0.0
 40
1.7749250000000001
 50
89.994439000000014
 51
179.99440999999999
  0
ARC
  5
47
  8
0
 62
     7
 10
72.721688
 20
212.13524799999999
 30
0.0
 40
1.775182
 50
179.9971899999999
 51
269.99723999999992
  0
ARC
  5
48
  8
0
 62
     7
 10
72.721429999999984
 20
212.13516299999989
 30
0.0
 40
1.7750969999999999
 50
270.00558000000001
 51
0.00555
  0
ARC
  5
49
  8
0
 62
     7
 10
57.235711000000002
 20
196.64927199999991
 30
0.0
 40
14.84975
 50
0.000342
 51
90.000311999999994
  0
ARC
  5
4A
  8
0
 62
     7
 10
57.235286000000002
 20
196.649013
 30
0.0
 40
14.85000799999999
 50
89.998671000000016
 51
179.99864099999991
  0
ARC
  5
4B
  8
0
 62
     7
 10
57.235711000000002
 20
196.64927199999991
 30
0.0
 40
14.850434
 50
179.99963799999989
 51
269.99968799999999
  0
ARC
  5
4C
  8
0
 62
     7
 10
57.235281000000008
 20
196.6490189999999
 30
0.0
 40
14.850180999999999
 50
270.00134899999989
 51
0.001319
  0
LINE
  5
4D
  8
0
  6
AIGENLINE001
 62
     7
 10
57.2515
 20
191.31499999999991
 30
0.0
 11
57.2515
 21
202.66499999999999
 31
0.0
  0
LINE
  5
4E
  8
0
  6
AIGENLINE001
 62
     7
 10
51.901400000000002
 20
196.66499999999991
 30
0.0
 11
63.251300000000001
 21
196.66499999999991
 31
0.0
  0
LINE
  5
4F
  8
0
  6
AIGENLINE001
 62
     7
 10
56.351399999999991
 20
170.649
 30
0.0
 11
56.351399999999991
 21
220.649
 31
0.0
  0
LINE
  5
50
  8
0
  6
AIGENLINE001
 62
     7
 10
31.235199999999999
 20
195.7649999999999
 30
0.0
 11
81.235499999999988
 21
195.7649999999999
 31
0.0
  0
LINE
  5
51
  8
0
  6
AIGENLINE001
 62
     7
 10
156.16800000000001
 20
120.32599999999989
 30
0.0
 11
156.16800000000001
 21
124.82599999999999
 31
0.0
  0
LINE
  5
52
  8
0
  6
AIGENLINE001
 62
     7
 10
140.68100000000001
 20
99.474000000000004
 30
0.0
 11
140.68100000000001
 21
125.374
 31
0.0
  0
LINE
  5
53
  8
0
  6
AIGENLINE002
 62
     7
 10
135.73099999999999
 20
101.0739999999999
 30
0.0
 11
135.73099999999999
 21
101.166
 31
0.0
  0
LINE
  5
54
  8
0
  6
AIGENLINE002
 62
     7
 10
135.83099999999999
 20
101.0739999999999
 30
0.0
 11
135.83099999999999
 21
101.166
 31
0.0
  0
LINE
  5
55
  8
0
  6
AIGENLINE002
 62
     7
 10
145.631
 20
101.0739999999999
 30
0.0
 11
145.631
 21
101.166
 31
0.0
  0
LINE
  5
56
  8
0
 62
     7
 10
130.15600000000001
 20
102.366
 30
0.0
 11
130.20599999999999
 21
101.8639999999999
 31
0.0
  0
ARC
  5
57
  8
0
 62
     7
 10
129.84780799999999
 20
102.325192
 30
0.0
 40
0.311041
 50
7.502224
 51
85.354818999999978
  0
ARC
  5
58
  8
0
 62
     7
 10
130.30890500000001
 20
101.878007
 30
0.0
 40
0.104124
 50
188.00605400000001
 51
268.23823599999992
  0
LINE
  5
59
  8
0
 62
     7
 10
130.76799999999989
 20
102.30200000000001
 30
0.0
 11
130.7239999999999
 21
101.8639999999999
 31
0.0
  0
ARC
  5
5A
  8
0
 62
     7
 10
131.0765679999999
 20
102.260617
 30
0.0
 40
0.311256
 50
88.957037
 51
172.41087899999999
  0
LINE
  5
5B
  8
0
 62
     7
 10
130.30000000000001
 20
101.774
 30
0.0
 11
130.625
 21
101.774
 31
0.0
  0
ARC
  5
5C
  8
0
 62
     7
 10
130.62165300000001
 20
101.87706899999991
 30
0.0
 40
0.103183
 50
271.70404400000001
 51
352.446011
  0
LINE
  5
5D
  8
0
 62
     7
 10
150.595
 20
102.30200000000001
 30
0.0
 11
150.63800000000001
 21
101.8639999999999
 31
0.0
  0
ARC
  5
5E
  8
0
 62
     7
 10
150.284988
 20
102.2592539999999
 30
0.0
 40
0.312599
 50
7.808307000000001
 51
90.823736999999966
  0
ARC
  5
5F
  8
0
 62
     7
 10
150.74120600000001
 20
101.878007
 30
0.0
 40
0.104124
 50
188.00605400000001
 51
268.23823599999992
  0
LINE
  5
60
  8
0
 62
     7
 10
150.73199999999991
 20
101.774
 30
0.0
 11
151.05699999999999
 21
101.774
 31
0.0
  0
ARC
  5
61
  8
0
 62
     7
 10
151.053955
 20
101.87706899999991
 30
0.0
 40
0.103183
 50
271.70404400000001
 51
352.446011
  0
LINE
  5
62
  8
0
 62
     7
 10
151.20699999999999
 20
102.366
 30
0.0
 11
151.15600000000001
 21
101.8639999999999
 31
0.0
  0
ARC
  5
63
  8
0
 62
     7
 10
151.51316800000001
 20
102.3270939999999
 30
0.0
 40
0.30906
 50
94.477401999999998
 51
172.80492599999991
  0
ARC
  5
64
  8
0
 62
     7
 10
123.469606
 20
119.86843500000001
 30
0.0
 40
0.452055
 50
5.1520279999999987
 51
50.317383999999997
  0
LINE
  5
65
  8
0
 62
     7
 10
123.92
 20
119.90899999999991
 30
0.0
 11
125.117
 21
106.379
 31
0.0
  0
ARC
  5
66
  8
0
 62
     7
 10
129.27633
 20
106.8634899999999
 30
0.0
 40
4.1873979999999991
 50
186.63910699999991
 51
265.38915900000001
  0
ARC
  5
67
  8
0
 62
     7
 10
152.06221599999989
 20
106.863348
 30
0.0
 40
4.188801999999999
 50
274.63857100000001
 51
353.74448599999988
  0
ARC
  5
68
  8
0
 62
     7
 10
157.89884900000001
 20
121.361045
 30
0.0
 40
0.4559670000000001
 50
129.08745200000001
 51
175.0025729999999
  0
LINE
  5
69
  8
0
 62
     7
 10
157.44499999999991
 20
121.401
 30
0.0
 11
156.226
 21
106.407
 31
0.0
  0
LINE
  5
6A
  8
0
 62
     7
 10
121.5079999999999
 20
122.0739999999999
 30
0.0
 11
123.7579999999999
 21
120.21599999999999
 31
0.0
  0
ARC
  5
6B
  8
0
 62
     7
 10
135.04783499999999
 20
101.2804569999999
 30
0.0
 40
0.206654
 50
183.40345199999999
 51
268.396297
  0
LINE
  5
6C
  8
0
 62
     7
 10
140.68100000000001
 20
101.0739999999999
 30
0.0
 11
135.03
 21
101.0739999999999
 31
0.0
  0
ARC
  5
6D
  8
0
 62
     7
 10
133.60038899999989
 20
101.1958209999999
 30
0.0
 40
1.243263999999999
 50
3.336927999999999
 51
85.189187000000004
  0
LINE
  5
6E
  8
0
 62
     7
 10
133.69399999999999
 20
102.435
 30
0.0
 11
128.81700000000001
 21
102.696
 31
0.0
  0
LINE
  5
6F
  8
0
 62
     7
 10
133.69399999999999
 20
102.435
 30
0.0
 11
128.727
 21
102.70099999999999
 31
0.0
  0
LINE
  5
70
  8
0
 62
     7
 10
147.65700000000001
 20
102.435
 30
0.0
 11
152.51799999999989
 21
102.6939999999999
 31
0.0
  0
LINE
  5
71
  8
0
 62
     7
 10
140.68100000000001
 20
101.0739999999999
 30
0.0
 11
146.32099999999991
 21
101.0739999999999
 31
0.0
  0
ARC
  5
72
  8
0
 62
     7
 10
146.31377000000001
 20
101.28088099999999
 30
0.0
 40
0.207112
 50
271.91078700000003
 51
356.48664899999989
  0
ARC
  5
73
  8
0
 62
     7
 10
147.76258399999989
 20
101.19490999999999
 30
0.0
 40
1.2442509999999991
 50
94.850193000000004
 51
176.62365299999999
  0
LINE
  5
74
  8
0
 62
     7
 10
158.05799999999991
 20
122.0739999999999
 30
0.0
 11
121.5079999999999
 21
122.0739999999999
 31
0.0
  0
LINE
  5
75
  8
0
 62
     7
 10
140.68100000000001
 20
102.8739999999999
 30
0.0
 11
135.83099999999999
 21
102.8739999999999
 31
0.0
  0
LINE
  5
76
  8
0
 62
     7
 10
158.05799999999991
 20
122.0739999999999
 30
0.0
 11
157.6109999999999
 21
121.7149999999999
 31
0.0
  0
LINE
  5
77
  8
0
  6
AIGENLINE002
 62
     7
 10
145.53100000000001
 20
101.0739999999999
 30
0.0
 11
145.53100000000001
 21
101.166
 31
0.0
  0
LINE
  5
78
  8
0
 62
     7
 10
118.877
 20
123.374
 30
0.0
 11
160.71700000000001
 21
123.374
 31
0.0
  0
LINE
  5
79
  8
0
 62
     7
 10
140.68100000000001
 20
102.8739999999999
 30
0.0
 11
145.53100000000001
 21
102.8739999999999
 31
0.0
  0
LINE
  5
7A
  8
0
 62
     7
 10
117.797
 20
122.0739999999999
 30
0.0
 11
121.5079999999999
 21
122.0739999999999
 31
0.0
  0
LINE
  5
7B
  8
0
 62
     7
 10
117.896
 20
122.56999999999999
 30
0.0
 11
117.797
 21
122.0739999999999
 31
0.0
  0
LINE
  5
7C
  8
0
 62
     7
 10
120.797
 20
123.374
 30
0.0
 11
118.877
 21
123.374
 31
0.0
  0
ARC
  5
7D
  8
0
 62
     7
 10
118.9031219999999
 20
122.3422919999999
 30
0.0
 40
1.0321689999999999
 50
91.457280999999995
 51
167.25293600000001
  0
LINE
  5
7E
  8
0
 62
     7
 10
158.05799999999991
 20
122.0739999999999
 30
0.0
 11
161.79699999999991
 21
122.0739999999999
 31
0.0
  0
LINE
  5
7F
  8
0
 62
     7
 10
158.797
 20
123.374
 30
0.0
 11
160.71700000000001
 21
123.374
 31
0.0
  0
ARC
  5
80
  8
0
 62
     7
 10
160.69119099999989
 20
122.3422489999999
 30
0.0
 40
1.0322139999999991
 50
12.748953
 51
88.540789000000004
  0
LINE
  5
81
  8
0
 62
     7
 10
161.69799999999989
 20
122.56999999999999
 30
0.0
 11
161.79699999999991
 21
122.0739999999999
 31
0.0
  0
LINE
  5
82
  8
0
  6
AIGENLINE001
 62
     7
 10
72.721599999999995
 20
120.32599999999989
 30
0.0
 11
72.721599999999995
 21
124.82599999999999
 31
0.0
  0
LINE
  5
83
  8
0
  6
AIGENLINE001
 62
     7
 10
72.721599999999995
 20
209.88499999999999
 30
0.0
 11
72.721599999999995
 21
214.38499999999999
 31
0.0
  0
LINE
  5
84
  8
0
  6
AIGENLINE001
 62
     7
 10
70.471599999999995
 20
212.13499999999999
 30
0.0
 11
74.971599999999995
 21
212.13499999999999
 31
0.0
  0
ARC
  5
85
  8
0
 62
     7
 10
75.862945999999994
 20
215.276679
 30
0.0
 40
2.4886669999999991
 50
359.99406099999987
 51
89.994031000000007
  0
ARC
  5
86
  8
0
 62
     7
 10
36.84019
 20
215.27642
 30
0.0
 40
2.4889250000000001
 50
90.0
 51
179.99996999999991
  0
ARC
  5
87
  8
0
 62
     7
 10
36.840102999999999
 20
176.2538349999999
 30
0.0
 40
2.488837999999999
 50
180.00199299999991
 51
270.002003
  0
ARC
  5
88
  8
0
 62
     7
 10
75.86303199999999
 20
176.253578
 30
0.0
 40
2.488580999999999
 50
270.00398599999988
 51
0.003956
  0
ARC
  5
89
  8
0
 62
     7
 10
56.351520999999991
 20
195.76525399999991
 30
0.0
 40
19.099992
 50
0.000268
 51
90.000239000000022
  0
ARC
  5
8A
  8
0
 62
     7
 10
56.351356000000003
 20
195.76525399999991
 30
0.0
 40
19.099992
 50
89.999741999999998
 51
179.99971199999999
  0
ARC
  5
8B
  8
0
 62
     7
 10
56.351520999999991
 20
195.76525399999991
 30
0.0
 40
19.100156999999989
 50
179.99971199999999
 51
269.99976099999998
  0
ARC
  5
8C
  8
0
 62
     7
 10
56.351348999999999
 20
195.76526100000001
 30
0.0
 40
19.100163999999999
 50
270.00027799999992
 51
0.000248
  0
ARC
  5
8D
  8
0
 62
     7
 10
57.235796999999998
 20
196.64918499999999
 30
0.0
 40
16.34984
 50
0.000614
 51
90.000583999999975
  0
ARC
  5
8E
  8
0
 62
     7
 10
57.235371999999991
 20
196.64909900000001
 30
0.0
 40
16.349926
 50
89.999094999999997
 51
179.999065
  0
ARC
  5
8F
  8
0
 62
     7
 10
57.235796999999998
 20
196.64918499999999
 30
0.0
 40
16.350351
 50
179.99936700000001
 51
269.999416
  0
ARC
  5
90
  8
0
 62
     7
 10
57.235366999999997
 20
196.64910499999991
 30
0.0
 40
16.350270999999999
 50
270.00092499999988
 51
0.000896
  0
ARC
  5
91
  8
0
 62
     7
 10
57.251302000000003
 20
196.66520700000001
 30
0.0
 40
4.8500370000000004
 50
0.00001
 51
89.999980000000008
  0
ARC
  5
92
  8
0
 62
     7
 10
57.251304000000012
 20
196.66520700000001
 30
0.0
 40
4.8500370000000004
 50
90.0
 51
179.99996999999991
  0
ARC
  5
93
  8
0
 62
     7
 10
57.251302000000003
 20
196.66520700000001
 30
0.0
 40
4.8500350000000001
 50
179.99996999999991
 51
270.00002000000001
  0
ARC
  5
94
  8
0
 62
     7
 10
57.251302000000003
 20
196.665209
 30
0.0
 40
4.8500370000000004
 50
270.00002000000001
 51
359.99998999999991
  0
LINE
  5
95
  8
0
 62
     7
 10
36.840200000000003
 20
173.7649999999999
 30
0.0
 11
75.863200000000006
 21
173.7649999999999
 31
0.0
  0
LINE
  5
96
  8
0
 62
     7
 10
34.351300000000002
 20
176.25399999999999
 30
0.0
 11
34.351300000000002
 21
215.2759999999999
 31
0.0
  0
LINE
  5
97
  8
0
 62
     7
 10
78.351600000000005
 20
176.25399999999999
 30
0.0
 11
78.351600000000005
 21
215.2759999999999
 31
0.0
  0
LINE
  5
98
  8
0
 62
     7
 10
36.840200000000003
 20
217.7649999999999
 30
0.0
 11
75.863200000000006
 21
217.7649999999999
 31
0.0
  0
LINE
  5
99
  8
0
 62
     7
 10
166.67799999999991
 20
209.92500000000001
 30
0.0
 11
166.0859999999999
 21
212.13499999999999
 31
0.0
  0
LINE
  5
9A
  8
0
 62
     7
 10
166.0859999999999
 20
212.13499999999999
 30
0.0
 11
165.49299999999999
 21
209.92500000000001
 31
0.0
  0
LINE
  5
9B
  8
0
 62
     7
 10
165.49299999999999
 20
209.92500000000001
 30
0.0
 11
166.67799999999991
 21
209.92500000000001
 31
0.0
  0
LINE
  5
9C
  8
0
 62
     7
 10
165.5079999999999
 20
218.22599999999991
 30
0.0
 11
166.09999999999999
 21
216.0149999999999
 31
0.0
  0
LINE
  5
9D
  8
0
 62
     7
 10
166.09999999999999
 20
216.0149999999999
 30
0.0
 11
166.6929999999999
 21
218.22599999999991
 31
0.0
  0
LINE
  5
9E
  8
0
 62
     7
 10
166.6929999999999
 20
218.22599999999991
 30
0.0
 11
165.5079999999999
 21
218.22599999999991
 31
0.0
  0
LINE
  5
9F
  8
0
 62
     7
 10
166.09299999999999
 20
219.00599999999989
 30
0.0
 11
166.09299999999999
 21
203.48099999999991
 31
0.0
  0
LINE
  5
A0
  8
0
 62
     7
 10
92.515499999999989
 20
98.862799999999993
 30
0.0
 11
91.923699999999997
 21
101.0739999999999
 31
0.0
  0
LINE
  5
A1
  8
0
 62
     7
 10
91.923699999999997
 20
101.0739999999999
 30
0.0
 11
91.331100000000006
 21
98.862799999999993
 31
0.0
  0
LINE
  5
A2
  8
0
 62
     7
 10
91.331100000000006
 20
98.862799999999993
 30
0.0
 11
92.515499999999989
 21
98.862799999999993
 31
0.0
  0
LINE
  5
A3
  8
0
 62
     7
 10
92.507900000000006
 20
121.164
 30
0.0
 11
91.9161
 21
123.374
 31
0.0
  0
LINE
  5
A4
  8
0
 62
     7
 10
91.9161
 20
123.374
 30
0.0
 11
91.323499999999996
 21
121.164
 31
0.0
  0
LINE
  5
A5
  8
0
 62
     7
 10
91.323499999999996
 20
121.164
 30
0.0
 11
92.507900000000006
 21
121.164
 31
0.0
  0
LINE
  5
A6
  8
0
 62
     7
 10
91.337999999999994
 20
105.08499999999999
 30
0.0
 11
91.930499999999995
 21
102.8739999999999
 31
0.0
  0
LINE
  5
A7
  8
0
 62
     7
 10
91.930499999999995
 20
102.8739999999999
 30
0.0
 11
92.523099999999985
 21
105.08499999999999
 31
0.0
  0
LINE
  5
A8
  8
0
 62
     7
 10
92.523099999999985
 20
105.08499999999999
 30
0.0
 11
91.337999999999994
 21
105.08499999999999
 31
0.0
  0
LINE
  5
A9
  8
0
 62
     7
 10
91.922999999999988
 20
123.374
 30
0.0
 11
91.922999999999988
 21
95.054599999999994
 31
0.0
  0
LINE
  5
AA
  8
0
 62
     7
 10
86.785300000000007
 20
119.863
 30
0.0
 11
86.193399999999997
 21
122.0739999999999
 31
0.0
  0
LINE
  5
AB
  8
0
 62
     7
 10
86.193399999999997
 20
122.0739999999999
 30
0.0
 11
85.600800000000007
 21
119.863
 31
0.0
  0
LINE
  5
AC
  8
0
 62
     7
 10
85.600800000000007
 20
119.863
 30
0.0
 11
86.785300000000007
 21
119.863
 31
0.0
  0
LINE
  5
AD
  8
0
 62
     7
 10
86.785300000000007
 20
125.58499999999989
 30
0.0
 11
86.193399999999997
 21
123.374
 31
0.0
  0
LINE
  5
AE
  8
0
 62
     7
 10
86.193399999999997
 20
123.374
 30
0.0
 11
85.600800000000007
 21
125.58499999999989
 31
0.0
  0
LINE
  5
AF
  8
0
 62
     7
 10
85.600800000000007
 20
125.58499999999989
 30
0.0
 11
86.785300000000007
 21
125.58499999999989
 31
0.0
  0
LINE
  5
B0
  8
0
 62
     7
 10
86.200299999999984
 20
129.30500000000001
 30
0.0
 11
86.200299999999984
 21
118.11
 31
0.0
  0
LINE
  5
B1
  8
0
 62
     7
 10
99.919399999999996
 20
121.164
 30
0.0
 11
99.327600000000004
 21
123.374
 31
0.0
  0
LINE
  5
B2
  8
0
 62
     7
 10
99.327600000000004
 20
123.374
 30
0.0
 11
98.734999999999985
 21
121.164
 31
0.0
  0
LINE
  5
B3
  8
0
 62
     7
 10
98.734999999999985
 20
121.164
 30
0.0
 11
99.919399999999996
 21
121.164
 31
0.0
  0
LINE
  5
B4
  8
0
 62
     7
 10
98.749499999999998
 20
103.285
 30
0.0
 11
99.342000000000013
 21
101.0739999999999
 31
0.0
  0
LINE
  5
B5
  8
0
 62
     7
 10
99.342000000000013
 20
101.0739999999999
 30
0.0
 11
99.934600000000003
 21
103.285
 31
0.0
  0
LINE
  5
B6
  8
0
 62
     7
 10
99.934600000000003
 20
103.285
 30
0.0
 11
98.749499999999998
 21
103.285
 31
0.0
  0
LINE
  5
B7
  8
0
 62
     7
 10
99.334400000000002
 20
123.374
 30
0.0
 11
99.334400000000002
 21
101.0739999999999
 31
0.0
  0
LINE
  5
B8
  8
0
 62
     7
 10
63.574800000000003
 20
102.8739999999999
 30
0.0
 11
92.630899999999997
 21
102.8739999999999
 31
0.0
  0
LINE
  5
B9
  8
0
 62
     7
 10
63.574800000000003
 20
101.0739999999999
 30
0.0
 11
100.03400000000001
 21
101.0739999999999
 31
0.0
  0
LINE
  5
BA
  8
0
 62
     7
 10
79.151600000000002
 20
122.0739999999999
 30
0.0
 11
86.893399999999986
 21
122.0739999999999
 31
0.0
  0
LINE
  5
BB
  8
0
 62
     7
 10
78.071899999999999
 20
123.374
 30
0.0
 11
100.02799999999991
 21
123.374
 31
0.0
  0
LINE
  5
BC
  8
0
 62
     7
 10
53.797699999999999
 20
222.386
 30
0.0
 11
62.470300000000002
 21
222.386
 31
0.0
  0
LINE
  5
BD
  8
0
 62
     7
 10
75.958799999999997
 20
209.73599999999999
 30
0.0
 11
73.976799999999997
 21
210.88
 31
0.0
  0
LINE
  5
BE
  8
0
 62
     7
 10
73.976799999999997
 20
210.88
 30
0.0
 11
75.121300000000005
 21
208.89799999999991
 31
0.0
  0
LINE
  5
BF
  8
0
 62
     7
 10
75.121300000000005
 20
208.89799999999991
 30
0.0
 11
75.958799999999997
 21
209.73599999999999
 31
0.0
  0
LINE
  5
C0
  8
0
 62
     7
 10
69.4846
 20
214.535
 30
0.0
 11
71.466499999999996
 21
213.38999999999999
 31
0.0
  0
LINE
  5
C1
  8
0
 62
     7
 10
71.466499999999996
 20
213.38999999999999
 30
0.0
 11
70.322100000000006
 21
215.37200000000001
 31
0.0
  0
LINE
  5
C2
  8
0
 62
     7
 10
70.322100000000006
 20
215.37200000000001
 30
0.0
 11
69.4846
 21
214.535
 31
0.0
  0
LINE
  5
C3
  8
0
 62
     7
 10
62.470300000000002
 20
222.386
 30
0.0
 11
76.826099999999997
 21
208.03099999999989
 31
0.0
  0
LINE
  5
C4
  8
0
 62
     7
 10
147.965
 20
196.66499999999991
 30
0.0
 11
174.1049999999999
 21
196.66499999999991
 31
0.0
  0
LINE
  5
C5
  8
0
 62
     7
 10
173.98199999999991
 20
213.80500000000001
 30
0.0
 11
173.38999999999999
 21
216.0149999999999
 31
0.0
  0
LINE
  5
C6
  8
0
 62
     7
 10
173.38999999999999
 20
216.0149999999999
 30
0.0
 11
172.798
 21
213.80500000000001
 31
0.0
  0
LINE
  5
C7
  8
0
 62
     7
 10
172.798
 20
213.80500000000001
 30
0.0
 11
173.98199999999991
 21
213.80500000000001
 31
0.0
  0
LINE
  5
C8
  8
0
 62
     7
 10
172.81200000000001
 20
198.87599999999989
 30
0.0
 11
173.405
 21
196.66499999999991
 31
0.0
  0
LINE
  5
C9
  8
0
 62
     7
 10
173.405
 20
196.66499999999991
 30
0.0
 11
173.99700000000001
 21
198.87599999999989
 31
0.0
  0
LINE
  5
CA
  8
0
 62
     7
 10
173.99700000000001
 20
198.87599999999989
 30
0.0
 11
172.81200000000001
 21
198.87599999999989
 31
0.0
  0
LINE
  5
CB
  8
0
 62
     7
 10
173.39699999999999
 20
216.0149999999999
 30
0.0
 11
173.39699999999999
 21
196.66499999999991
 31
0.0
  0
LINE
  5
CC
  8
0
 62
     7
 10
160.93100000000001
 20
175.11500000000001
 30
0.0
 11
160.93100000000001
 21
167.55199999999999
 31
0.0
  0
LINE
  5
CD
  8
0
 62
     7
 10
141.58099999999999
 20
190.61500000000001
 30
0.0
 11
141.58099999999999
 21
167.55199999999999
 31
0.0
  0
LINE
  5
CE
  8
0
 62
     7
 10
154.84100000000001
 20
219.185
 30
0.0
 11
157.05199999999999
 21
219.77699999999999
 31
0.0
  0
LINE
  5
CF
  8
0
 62
     7
 10
157.05199999999999
 20
219.77699999999999
 30
0.0
 11
154.84100000000001
 21
220.369
 31
0.0
  0
LINE
  5
D0
  8
0
 62
     7
 10
154.84100000000001
 20
220.369
 30
0.0
 11
154.84100000000001
 21
219.185
 31
0.0
  0
LINE
  5
D1
  8
0
 62
     7
 10
163.142
 20
220.3549999999999
 30
0.0
 11
160.93100000000001
 21
219.762
 31
0.0
  0
LINE
  5
D2
  8
0
 62
     7
 10
160.93100000000001
 20
219.762
 30
0.0
 11
163.142
 21
219.1699999999999
 31
0.0
  0
LINE
  5
D3
  8
0
 62
     7
 10
163.142
 20
219.1699999999999
 30
0.0
 11
163.142
 21
220.3549999999999
 31
0.0
  0
LINE
  5
D4
  8
0
 62
     7
 10
163.92099999999999
 20
219.77000000000001
 30
0.0
 11
148.04699999999991
 21
219.77000000000001
 31
0.0
  0
LINE
  5
D5
  8
0
 62
     7
 10
158.71999999999991
 20
167.67500000000001
 30
0.0
 11
160.93100000000001
 21
168.26699999999991
 31
0.0
  0
LINE
  5
D6
  8
0
 62
     7
 10
160.93100000000001
 20
168.26699999999991
 30
0.0
 11
158.71999999999991
 21
168.85900000000001
 31
0.0
  0
LINE
  5
D7
  8
0
 62
     7
 10
158.71999999999991
 20
168.85900000000001
 30
0.0
 11
158.71999999999991
 21
167.67500000000001
 31
0.0
  0
LINE
  5
D8
  8
0
 62
     7
 10
143.792
 20
168.845
 30
0.0
 11
141.58099999999999
 21
168.25200000000001
 31
0.0
  0
LINE
  5
D9
  8
0
 62
     7
 10
141.58099999999999
 20
168.25200000000001
 30
0.0
 11
143.792
 21
167.66
 31
0.0
  0
LINE
  5
DA
  8
0
 62
     7
 10
143.792
 20
167.66
 30
0.0
 11
143.792
 21
168.845
 31
0.0
  0
LINE
  5
DB
  8
0
 62
     7
 10
160.93100000000001
 20
168.25999999999991
 30
0.0
 11
141.58099999999999
 21
168.25999999999991
 31
0.0
  0
LINE
  5
DC
  8
0
 62
     7
 10
158.71999999999991
 20
227.5619999999999
 30
0.0
 11
160.93100000000001
 21
228.154
 31
0.0
  0
LINE
  5
DD
  8
0
 62
     7
 10
160.93100000000001
 20
228.154
 30
0.0
 11
158.71999999999991
 21
228.7459999999999
 31
0.0
  0
LINE
  5
DE
  8
0
 62
     7
 10
158.71999999999991
 20
228.7459999999999
 30
0.0
 11
158.71999999999991
 21
227.5619999999999
 31
0.0
  0
LINE
  5
DF
  8
0
 62
     7
 10
122.642
 20
228.732
 30
0.0
 11
120.4309999999999
 21
228.13900000000001
 31
0.0
  0
LINE
  5
E0
  8
0
 62
     7
 10
120.4309999999999
 20
228.13900000000001
 30
0.0
 11
122.642
 21
227.54699999999991
 31
0.0
  0
LINE
  5
E1
  8
0
 62
     7
 10
122.642
 20
227.54699999999991
 30
0.0
 11
122.642
 21
228.732
 31
0.0
  0
LINE
  5
E2
  8
0
 62
     7
 10
160.93100000000001
 20
228.14699999999999
 30
0.0
 11
120.4309999999999
 21
228.14699999999999
 31
0.0
  0
LINE
  5
E3
  8
0
 62
     7
 10
120.4309999999999
 20
228.84
 30
0.0
 11
120.4309999999999
 21
216.4009999999999
 31
0.0
  0
LINE
  5
E4
  8
0
 62
     7
 10
157.05199999999999
 20
220.46999999999991
 30
0.0
 11
157.05199999999999
 21
215.16499999999999
 31
0.0
  0
LINE
  5
E5
  8
0
 62
     7
 10
160.93100000000001
 20
228.84
 30
0.0
 11
160.93100000000001
 21
216.41499999999991
 31
0.0
  0
LINE
  5
E6
  8
0
 62
     7
 10
46.823300000000003
 20
187.06399999999999
 30
0.0
 11
45.679199999999987
 21
185.083
 31
0.0
  0
LINE
  5
E7
  8
0
 62
     7
 10
45.679199999999987
 20
185.083
 30
0.0
 11
47.661099999999998
 21
186.227
 31
0.0
  0
LINE
  5
E8
  8
0
 62
     7
 10
47.661099999999998
 20
186.227
 30
0.0
 11
46.823300000000003
 21
187.06399999999999
 31
0.0
  0
LINE
  5
E9
  8
0
 62
     7
 10
67.646900000000002
 20
206.233
 30
0.0
 11
68.791399999999996
 21
208.21499999999989
 31
0.0
  0
LINE
  5
EA
  8
0
 62
     7
 10
68.791399999999996
 20
208.21499999999989
 30
0.0
 11
66.809399999999997
 21
207.071
 31
0.0
  0
LINE
  5
EB
  8
0
 62
     7
 10
66.809399999999997
 20
207.071
 30
0.0
 11
67.646900000000002
 21
206.233
 31
0.0
  0
LINE
  5
EC
  8
0
 62
     7
 10
45.673999999999999
 20
185.08799999999999
 30
0.0
 11
68.796599999999998
 21
208.21000000000001
 31
0.0
  0
LINE
  5
ED
  8
0
 62
     7
 10
63.010199999999998
 20
190.874
 30
0.0
 11
68.9375
 21
190.874
 31
0.0
  0
LINE
  5
EE
  8
0
 62
     7
 10
51.822800000000001
 20
201.2229999999999
 30
0.0
 11
53.805799999999998
 21
200.078
 31
0.0
  0
LINE
  5
EF
  8
0
 62
     7
 10
53.805799999999998
 20
200.078
 30
0.0
 11
52.6614
 21
202.06100000000001
 31
0.0
  0
LINE
  5
F0
  8
0
 62
     7
 10
52.6614
 20
202.06100000000001
 30
0.0
 11
51.822800000000001
 21
201.2229999999999
 31
0.0
  0
LINE
  5
F1
  8
0
 62
     7
 10
62.64739999999999
 20
192.0749999999999
 30
0.0
 11
60.664700000000003
 21
193.22
 31
0.0
  0
LINE
  5
F2
  8
0
 62
     7
 10
60.664700000000003
 20
193.22
 30
0.0
 11
61.8095
 21
191.23699999999991
 31
0.0
  0
LINE
  5
F3
  8
0
 62
     7
 10
61.8095
 20
191.23699999999991
 30
0.0
 11
62.64739999999999
 21
192.0749999999999
 31
0.0
  0
LINE
  5
F4
  8
0
 62
     7
 10
51.379399999999997
 20
202.50499999999991
 30
0.0
 11
63.010199999999998
 21
190.874
 31
0.0
  0
LINE
  5
F5
  8
0
 62
     7
 10
63.635100000000001
 20
196.66499999999991
 30
0.0
 11
92.630200000000002
 21
196.66499999999991
 31
0.0
  0
LINE
  5
F6
  8
0
 62
     7
 10
92.507900000000006
 20
194.45500000000001
 30
0.0
 11
91.915700000000001
 21
196.66499999999991
 31
0.0
  0
LINE
  5
F7
  8
0
 62
     7
 10
91.915700000000001
 20
196.66499999999991
 30
0.0
 11
91.323199999999986
 21
194.45500000000001
 31
0.0
  0
LINE
  5
F8
  8
0
 62
     7
 10
91.323199999999986
 20
194.45500000000001
 30
0.0
 11
92.507900000000006
 21
194.45500000000001
 31
0.0
  0
LINE
  5
F9
  8
0
 62
     7
 10
91.337999999999994
 20
175.87599999999989
 30
0.0
 11
91.930199999999999
 21
173.66499999999999
 31
0.0
  0
LINE
  5
FA
  8
0
 62
     7
 10
91.930199999999999
 20
173.66499999999999
 30
0.0
 11
92.522800000000004
 21
175.87599999999989
 31
0.0
  0
LINE
  5
FB
  8
0
 62
     7
 10
92.522800000000004
 20
175.87599999999989
 30
0.0
 11
91.337999999999994
 21
175.87599999999989
 31
0.0
  0
LINE
  5
FC
  8
0
 62
     7
 10
91.922999999999988
 20
196.66499999999991
 30
0.0
 11
91.922999999999988
 21
173.66499999999999
 31
0.0
  0
LINE
  5
FD
  8
0
 62
     7
 10
99.919399999999996
 20
193.55500000000001
 30
0.0
 11
99.327200000000005
 21
195.7649999999999
 31
0.0
  0
LINE
  5
FE
  8
0
 62
     7
 10
99.327200000000005
 20
195.7649999999999
 30
0.0
 11
98.734600000000015
 21
193.55500000000001
 31
0.0
  0
LINE
  5
FF
  8
0
 62
     7
 10
98.734600000000015
 20
193.55500000000001
 30
0.0
 11
99.919399999999996
 21
193.55500000000001
 31
0.0
  0
LINE
  5
100
  8
0
 62
     7
 10
98.749499999999998
 20
175.87599999999989
 30
0.0
 11
99.341700000000003
 21
173.66499999999999
 31
0.0
  0
LINE
  5
101
  8
0
 62
     7
 10
99.341700000000003
 20
173.66499999999999
 30
0.0
 11
99.934200000000004
 21
175.87599999999989
 31
0.0
  0
LINE
  5
102
  8
0
 62
     7
 10
99.934200000000004
 20
175.87599999999989
 30
0.0
 11
98.749499999999998
 21
175.87599999999989
 31
0.0
  0
LINE
  5
103
  8
0
 62
     7
 10
99.334400000000002
 20
195.7649999999999
 30
0.0
 11
99.334400000000002
 21
173.66499999999999
 31
0.0
  0
LINE
  5
104
  8
0
 62
     7
 10
92.507900000000006
 20
215.58199999999991
 30
0.0
 11
91.915700000000001
 21
217.79199999999989
 31
0.0
  0
LINE
  5
105
  8
0
 62
     7
 10
91.915700000000001
 20
217.79199999999989
 30
0.0
 11
91.323199999999986
 21
215.58199999999991
 31
0.0
  0
LINE
  5
106
  8
0
 62
     7
 10
91.323199999999986
 20
215.58199999999991
 30
0.0
 11
92.507900000000006
 21
215.58199999999991
 31
0.0
  0
LINE
  5
107
  8
0
 62
     7
 10
91.337999999999994
 20
198.87599999999989
 30
0.0
 11
91.930199999999999
 21
196.66499999999991
 31
0.0
  0
LINE
  5
108
  8
0
 62
     7
 10
91.930199999999999
 20
196.66499999999991
 30
0.0
 11
92.522800000000004
 21
198.87599999999989
 31
0.0
  0
LINE
  5
109
  8
0
 62
     7
 10
92.522800000000004
 20
198.87599999999989
 30
0.0
 11
91.337999999999994
 21
198.87599999999989
 31
0.0
  0
LINE
  5
10A
  8
0
 62
     7
 10
91.922999999999988
 20
217.7649999999999
 30
0.0
 11
91.922999999999988
 21
196.66499999999991
 31
0.0
  0
LINE
  5
10B
  8
0
 62
     7
 10
99.919399999999996
 20
215.58199999999991
 30
0.0
 11
99.327200000000005
 21
217.79199999999989
 31
0.0
  0
LINE
  5
10C
  8
0
 62
     7
 10
99.327200000000005
 20
217.79199999999989
 30
0.0
 11
98.734600000000015
 21
215.58199999999991
 31
0.0
  0
LINE
  5
10D
  8
0
 62
     7
 10
98.734600000000015
 20
215.58199999999991
 30
0.0
 11
99.919399999999996
 21
215.58199999999991
 31
0.0
  0
LINE
  5
10E
  8
0
 62
     7
 10
98.749499999999998
 20
197.97599999999991
 30
0.0
 11
99.341700000000003
 21
195.7649999999999
 31
0.0
  0
LINE
  5
10F
  8
0
 62
     7
 10
99.341700000000003
 20
195.7649999999999
 30
0.0
 11
99.934200000000004
 21
197.97599999999991
 31
0.0
  0
LINE
  5
110
  8
0
 62
     7
 10
99.934200000000004
 20
197.97599999999991
 30
0.0
 11
98.749499999999998
 21
197.97599999999991
 31
0.0
  0
LINE
  5
111
  8
0
 62
     7
 10
99.334400000000002
 20
217.7649999999999
 30
0.0
 11
99.334400000000002
 21
195.7649999999999
 31
0.0
  0
LINE
  5
112
  8
0
 62
     7
 10
81.935599999999994
 20
195.7649999999999
 30
0.0
 11
100.042
 21
195.7649999999999
 31
0.0
  0
LINE
  5
113
  8
0
 62
     7
 10
86.778400000000005
 20
209.92399999999989
 30
0.0
 11
86.186499999999995
 21
212.13499999999999
 31
0.0
  0
LINE
  5
114
  8
0
 62
     7
 10
86.186499999999995
 20
212.13499999999999
 30
0.0
 11
85.593900000000005
 21
209.92399999999989
 31
0.0
  0
LINE
  5
115
  8
0
 62
     7
 10
85.593900000000005
 20
209.92399999999989
 30
0.0
 11
86.778400000000005
 21
209.92399999999989
 31
0.0
  0
LINE
  5
116
  8
0
 62
     7
 10
86.778400000000005
 20
220.07599999999991
 30
0.0
 11
86.186499999999995
 21
217.86500000000001
 31
0.0
  0
LINE
  5
117
  8
0
 62
     7
 10
86.186499999999995
 20
217.86500000000001
 30
0.0
 11
85.593900000000005
 21
220.07599999999991
 31
0.0
  0
LINE
  5
118
  8
0
 62
     7
 10
85.593900000000005
 20
220.07599999999991
 30
0.0
 11
86.778400000000005
 21
220.07599999999991
 31
0.0
  0
LINE
  5
119
  8
0
 62
     7
 10
86.193399999999997
 20
226.59599999999989
 30
0.0
 11
86.193399999999997
 21
208.25099999999989
 31
0.0
  0
LINE
  5
11A
  8
0
 62
     7
 10
70.510499999999993
 20
228.47200000000001
 30
0.0
 11
72.721599999999995
 21
229.0629999999999
 31
0.0
  0
LINE
  5
11B
  8
0
 62
     7
 10
72.721599999999995
 20
229.0629999999999
 30
0.0
 11
70.510499999999993
 21
229.65599999999989
 31
0.0
  0
LINE
  5
11C
  8
0
 62
     7
 10
70.510499999999993
 20
229.65599999999989
 30
0.0
 11
70.510499999999993
 21
228.47200000000001
 31
0.0
  0
LINE
  5
11D
  8
0
 62
     7
 10
80.562700000000007
 20
228.47200000000001
 30
0.0
 11
78.351600000000005
 21
229.0629999999999
 31
0.0
  0
LINE
  5
11E
  8
0
 62
     7
 10
78.351600000000005
 20
229.0629999999999
 30
0.0
 11
80.562700000000007
 21
229.65599999999989
 31
0.0
  0
LINE
  5
11F
  8
0
 62
     7
 10
80.562700000000007
 20
229.65599999999989
 30
0.0
 11
80.562700000000007
 21
228.47200000000001
 31
0.0
  0
LINE
  5
120
  8
0
 62
     7
 10
87.182100000000005
 20
229.05699999999999
 30
0.0
 11
68.837599999999995
 21
229.05699999999999
 31
0.0
  0
LINE
  5
121
  8
0
 62
     7
 10
181.0629999999999
 20
213.80500000000001
 30
0.0
 11
180.47099999999989
 21
216.0149999999999
 31
0.0
  0
LINE
  5
122
  8
0
 62
     7
 10
180.47099999999989
 20
216.0149999999999
 30
0.0
 11
179.8779999999999
 21
213.80500000000001
 31
0.0
  0
LINE
  5
123
  8
0
 62
     7
 10
179.8779999999999
 20
213.80500000000001
 30
0.0
 11
181.0629999999999
 21
213.80500000000001
 31
0.0
  0
LINE
  5
124
  8
0
 62
     7
 10
179.893
 20
177.726
 30
0.0
 11
180.48500000000001
 21
175.5149999999999
 31
0.0
  0
LINE
  5
125
  8
0
 62
     7
 10
180.48500000000001
 20
175.5149999999999
 30
0.0
 11
181.078
 21
177.726
 31
0.0
  0
LINE
  5
126
  8
0
 62
     7
 10
181.078
 20
177.726
 30
0.0
 11
179.893
 21
177.726
 31
0.0
  0
LINE
  5
127
  8
0
 62
     7
 10
180.47799999999989
 20
216.0149999999999
 30
0.0
 11
180.47799999999989
 21
175.5149999999999
 31
0.0
  0
LINE
  5
128
  8
0
 62
     7
 10
161.33099999999999
 20
175.5149999999999
 30
0.0
 11
181.18499999999989
 21
175.5149999999999
 31
0.0
  0
LINE
  5
129
  8
0
 62
     7
 10
161.33099999999999
 20
216.0149999999999
 30
0.0
 11
181.17099999999991
 21
216.0149999999999
 31
0.0
  0
LINE
  5
12A
  8
0
 62
     7
 10
106.2389999999999
 20
215.58199999999991
 30
0.0
 11
105.648
 21
217.79199999999989
 31
0.0
  0
LINE
  5
12B
  8
0
 62
     7
 10
105.648
 20
217.79199999999989
 30
0.0
 11
105.05500000000001
 21
215.58199999999991
 31
0.0
  0
LINE
  5
12C
  8
0
 62
     7
 10
105.05500000000001
 20
215.58199999999991
 30
0.0
 11
106.2389999999999
 21
215.58199999999991
 31
0.0
  0
LINE
  5
12D
  8
0
 62
     7
 10
105.06999999999989
 20
175.87599999999989
 30
0.0
 11
105.66200000000001
 21
173.66499999999999
 31
0.0
  0
LINE
  5
12E
  8
0
 62
     7
 10
105.66200000000001
 20
173.66499999999999
 30
0.0
 11
106.2549999999999
 21
175.87599999999989
 31
0.0
  0
LINE
  5
12F
  8
0
 62
     7
 10
106.2549999999999
 20
175.87599999999989
 30
0.0
 11
105.06999999999989
 21
175.87599999999989
 31
0.0
  0
LINE
  5
130
  8
0
 62
     7
 10
105.655
 20
217.7649999999999
 30
0.0
 11
105.655
 21
173.66499999999999
 31
0.0
  0
LINE
  5
131
  8
0
 62
     7
 10
77.701899999999995
 20
173.7649999999999
 30
0.0
 11
106.36199999999999
 21
173.7649999999999
 31
0.0
  0
LINE
  5
132
  8
0
 62
     7
 10
77.701899999999995
 20
217.7649999999999
 30
0.0
 11
106.3479999999999
 21
217.7649999999999
 31
0.0
  0
LINE
  5
133
  8
0
 62
     7
 10
55.040900000000001
 20
163.11699999999999
 30
0.0
 11
57.251300000000001
 21
163.709
 31
0.0
  0
LINE
  5
134
  8
0
 62
     7
 10
57.251300000000001
 20
163.709
 30
0.0
 11
55.040900000000001
 21
164.30199999999999
 31
0.0
  0
LINE
  5
135
  8
0
 62
     7
 10
55.040900000000001
 20
164.30199999999999
 30
0.0
 11
55.040900000000001
 21
163.11699999999999
 31
0.0
  0
LINE
  5
136
  8
0
 62
     7
 10
36.5623
 20
164.28700000000001
 30
0.0
 11
34.351300000000002
 21
163.69499999999991
 31
0.0
  0
LINE
  5
137
  8
0
 62
     7
 10
34.351300000000002
 20
163.69499999999991
 30
0.0
 11
36.5623
 21
163.102
 31
0.0
  0
LINE
  5
138
  8
0
 62
     7
 10
36.5623
 20
163.102
 30
0.0
 11
36.5623
 21
164.28700000000001
 31
0.0
  0
LINE
  5
139
  8
0
 62
     7
 10
57.251300000000001
 20
163.70199999999991
 30
0.0
 11
34.351300000000002
 21
163.70199999999991
 31
0.0
  0
LINE
  5
13A
  8
0
 62
     7
 10
54.141100000000002
 20
155.66499999999991
 30
0.0
 11
56.351399999999991
 21
156.25700000000001
 31
0.0
  0
LINE
  5
13B
  8
0
 62
     7
 10
56.351399999999991
 20
156.25700000000001
 30
0.0
 11
54.141100000000002
 21
156.8489999999999
 31
0.0
  0
LINE
  5
13C
  8
0
 62
     7
 10
54.141100000000002
 20
156.8489999999999
 30
0.0
 11
54.141100000000002
 21
155.66499999999991
 31
0.0
  0
LINE
  5
13D
  8
0
 62
     7
 10
36.5623
 20
156.83500000000001
 30
0.0
 11
34.351300000000002
 21
156.24199999999999
 31
0.0
  0
LINE
  5
13E
  8
0
 62
     7
 10
34.351300000000002
 20
156.24199999999999
 30
0.0
 11
36.5623
 21
155.64999999999989
 31
0.0
  0
LINE
  5
13F
  8
0
 62
     7
 10
36.5623
 20
155.64999999999989
 30
0.0
 11
36.5623
 21
156.83500000000001
 31
0.0
  0
LINE
  5
140
  8
0
 62
     7
 10
56.351399999999991
 20
156.25
 30
0.0
 11
34.351300000000002
 21
156.25
 31
0.0
  0
LINE
  5
141
  8
0
 62
     7
 10
76.141199999999984
 20
163.11699999999999
 30
0.0
 11
78.351600000000005
 21
163.709
 31
0.0
  0
LINE
  5
142
  8
0
 62
     7
 10
78.351600000000005
 20
163.709
 30
0.0
 11
76.141199999999984
 21
164.30199999999999
 31
0.0
  0
LINE
  5
143
  8
0
 62
     7
 10
76.141199999999984
 20
164.30199999999999
 30
0.0
 11
76.141199999999984
 21
163.11699999999999
 31
0.0
  0
LINE
  5
144
  8
0
 62
     7
 10
59.462400000000002
 20
164.28700000000001
 30
0.0
 11
57.251300000000001
 21
163.69499999999991
 31
0.0
  0
LINE
  5
145
  8
0
 62
     7
 10
57.251300000000001
 20
163.69499999999991
 30
0.0
 11
59.462400000000002
 21
163.102
 31
0.0
  0
LINE
  5
146
  8
0
 62
     7
 10
59.462400000000002
 20
163.102
 30
0.0
 11
59.462400000000002
 21
164.28700000000001
 31
0.0
  0
LINE
  5
147
  8
0
 62
     7
 10
78.351600000000005
 20
163.70199999999991
 30
0.0
 11
57.251300000000001
 21
163.70199999999991
 31
0.0
  0
LINE
  5
148
  8
0
 62
     7
 10
76.141199999999984
 20
155.66499999999991
 30
0.0
 11
78.351600000000005
 21
156.25700000000001
 31
0.0
  0
LINE
  5
149
  8
0
 62
     7
 10
78.351600000000005
 20
156.25700000000001
 30
0.0
 11
76.141199999999984
 21
156.8489999999999
 31
0.0
  0
LINE
  5
14A
  8
0
 62
     7
 10
76.141199999999984
 20
156.8489999999999
 30
0.0
 11
76.141199999999984
 21
155.66499999999991
 31
0.0
  0
LINE
  5
14B
  8
0
 62
     7
 10
58.5625
 20
156.83500000000001
 30
0.0
 11
56.351399999999991
 21
156.24199999999999
 31
0.0
  0
LINE
  5
14C
  8
0
 62
     7
 10
56.351399999999991
 20
156.24199999999999
 30
0.0
 11
58.5625
 21
155.64999999999989
 31
0.0
  0
LINE
  5
14D
  8
0
 62
     7
 10
58.5625
 20
155.64999999999989
 30
0.0
 11
58.5625
 21
156.83500000000001
 31
0.0
  0
LINE
  5
14E
  8
0
 62
     7
 10
78.351600000000005
 20
156.25
 30
0.0
 11
56.351399999999991
 21
156.25
 31
0.0
  0
LINE
  5
14F
  8
0
 62
     7
 10
76.141199999999984
 20
234.459
 30
0.0
 11
78.351600000000005
 21
235.0509999999999
 31
0.0
  0
LINE
  5
150
  8
0
 62
     7
 10
78.351600000000005
 20
235.0509999999999
 30
0.0
 11
76.141199999999984
 21
235.64400000000001
 31
0.0
  0
LINE
  5
151
  8
0
 62
     7
 10
76.141199999999984
 20
235.64400000000001
 30
0.0
 11
76.141199999999984
 21
234.459
 31
0.0
  0
LINE
  5
152
  8
0
 62
     7
 10
36.5623
 20
235.643
 30
0.0
 11
34.351300000000002
 21
235.0509999999999
 31
0.0
  0
LINE
  5
153
  8
0
 62
     7
 10
34.351300000000002
 20
235.0509999999999
 30
0.0
 11
36.5623
 21
234.458
 31
0.0
  0
LINE
  5
154
  8
0
 62
     7
 10
36.5623
 20
234.458
 30
0.0
 11
36.5623
 21
235.643
 31
0.0
  0
LINE
  5
155
  8
0
 62
     7
 10
78.351600000000005
 20
235.0509999999999
 30
0.0
 11
34.351300000000002
 21
235.0509999999999
 31
0.0
  0
LINE
  5
156
  8
0
 62
     7
 10
56.351399999999991
 20
169.94900000000001
 30
0.0
 11
56.351399999999991
 21
155.55699999999999
 31
0.0
  0
LINE
  5
157
  8
0
 62
     7
 10
34.351300000000002
 20
235.75099999999989
 30
0.0
 11
34.351300000000002
 21
217.11500000000001
 31
0.0
  0
LINE
  5
158
  8
0
 62
     7
 10
75.751599999999996
 20
212.13499999999999
 30
0.0
 11
86.886499999999998
 21
212.13499999999999
 31
0.0
  0
LINE
  5
159
  8
0
 62
     7
 10
72.721599999999995
 20
229.76300000000001
 30
0.0
 11
72.721599999999995
 21
215.16499999999999
 31
0.0
  0
LINE
  5
15A
  8
0
 62
     7
 10
34.351300000000002
 20
174.69499999999999
 30
0.0
 11
34.351300000000002
 21
155.55699999999999
 31
0.0
  0
LINE
  5
15B
  8
0
 62
     7
 10
78.351600000000005
 20
174.69499999999999
 30
0.0
 11
78.351600000000005
 21
155.55699999999999
 31
0.0
  0
LINE
  5
15C
  8
0
 62
     7
 10
78.351600000000005
 20
235.75099999999989
 30
0.0
 11
78.351600000000005
 21
217.11500000000001
 31
0.0
  0
LINE
  5
15D
  8
0
  6
AIGENLINE001
 62
     7
 10
141.58099999999999
 20
191.31499999999991
 30
0.0
 11
141.58099999999999
 21
202.66499999999999
 31
0.0
  0
LINE
  5
15E
  8
0
  6
AIGENLINE001
 62
     7
 10
136.23099999999991
 20
196.66499999999991
 30
0.0
 11
147.58099999999999
 21
196.66499999999991
 31
0.0
  0
ARC
  5
15F
  8
0
  6
AIGENLINE002
 62
     7
 10
141.5809689999999
 20
196.665121
 30
0.0
 40
4.849950999999999
 50
0.001027
 51
90.000997999999996
  0
ARC
  5
160
  8
0
  6
AIGENLINE002
 62
     7
 10
141.5807979999999
 20
196.665121
 30
0.0
 40
4.849950999999999
 50
89.998982999999996
 51
179.99895299999989
  0
ARC
  5
161
  8
0
  6
AIGENLINE002
 62
     7
 10
141.580883
 20
196.66520700000001
 30
0.0
 40
4.8500350000000001
 50
179.99996999999991
 51
270.00002000000001
  0
ARC
  5
162
  8
0
  6
AIGENLINE002
 62
     7
 10
141.580883
 20
196.665209
 30
0.0
 40
4.8500370000000004
 50
270.00002000000001
 51
359.99998999999991
  0
ARC
  5
163
  8
0
 62
     7
 10
159.931128
 20
176.51523399999999
 30
0.0
 40
1.000289999999999
 50
269.99015299999991
 51
359.99012299999993
  0
ARC
  5
164
  8
0
 62
     7
 10
159.9312139999999
 20
215.01502199999999
 30
0.0
 40
1.0002040000000001
 50
0.014811
 51
90.014780999999985
  0
LINE
  5
165
  8
0
 62
     7
 10
159.93100000000001
 20
216.0149999999999
 30
0.0
 11
140.68100000000001
 21
216.0149999999999
 31
0.0
  0
LINE
  5
166
  8
0
 62
     7
 10
140.68100000000001
 20
175.5149999999999
 30
0.0
 11
159.93100000000001
 21
175.5149999999999
 31
0.0
  0
LINE
  5
167
  8
0
 62
     7
 10
160.93100000000001
 20
176.51499999999999
 30
0.0
 11
160.93100000000001
 21
215.01499999999999
 31
0.0
  0
ARC
  5
168
  8
0
 62
     7
 10
121.430909
 20
176.51523399999999
 30
0.0
 40
1.000289999999999
 50
180.0098769999999
 51
270.00988699999999
  0
ARC
  5
169
  8
0
 62
     7
 10
121.430824
 20
215.01502199999999
 30
0.0
 40
1.0002040000000001
 50
89.985198999999994
 51
179.9851689999999
  0
LINE
  5
16A
  8
0
 62
     7
 10
121.431
 20
216.0149999999999
 30
0.0
 11
140.68100000000001
 21
216.0149999999999
 31
0.0
  0
LINE
  5
16B
  8
0
 62
     7
 10
140.68100000000001
 20
175.5149999999999
 30
0.0
 11
121.431
 21
175.5149999999999
 31
0.0
  0
LINE
  5
16C
  8
0
 62
     7
 10
120.4309999999999
 20
176.51499999999999
 30
0.0
 11
120.4309999999999
 21
215.01499999999999
 31
0.0
  0
ARC
  5
16D
  8
0
  6
AIGENLINE002
 62
     7
 10
157.13085100000001
 20
212.21517499999999
 30
0.0
 40
1.8499419999999991
 50
0.002677
 51
90.002647999999994
  0
ARC
  5
16E
  8
0
  6
AIGENLINE002
 62
     7
 10
157.13067899999999
 20
212.21517499999999
 30
0.0
 40
1.8499419999999991
 50
89.997331999999986
 51
179.99730299999999
  0
ARC
  5
16F
  8
0
  6
AIGENLINE002
 62
     7
 10
157.13085100000001
 20
212.21517499999999
 30
0.0
 40
1.8501139999999989
 50
179.99730299999999
 51
269.99735299999992
  0
ARC
  5
170
  8
0
  6
AIGENLINE002
 62
     7
 10
157.13067799999999
 20
212.2151759999999
 30
0.0
 40
1.8501139999999989
 50
270.00268699999998
 51
0.002657
  0
LINE
  5
171
  8
0
  6
AIGENLINE001
 62
     7
 10
157.05199999999999
 20
209.965
 30
0.0
 11
157.05199999999999
 21
214.46499999999989
 31
0.0
  0
LINE
  5
172
  8
0
  6
AIGENLINE001
 62
     7
 10
154.881
 20
212.13499999999999
 30
0.0
 11
159.38099999999989
 21
212.13499999999999
 31
0.0
  0
LINE
  5
173
  8
0
  6
AIGENLINE001
 62
     7
 10
140.68100000000001
 20
170.649
 30
0.0
 11
140.68100000000001
 21
220.649
 31
0.0
  0
LINE
  5
174
  8
0
  6
AIGENLINE001
 62
     7
 10
115.565
 20
195.7649999999999
 30
0.0
 11
165.565
 21
195.7649999999999
 31
0.0
  0
ARC
  5
175
  8
0
  6
AIGENLINE002
 62
     7
 10
74.459238999999997
 20
121.357694
 30
0.0
 40
0.9123319999999999
 50
129.10328799999991
 51
175.03872100000001
  0
ARC
  5
176
  8
0
  6
AIGENLINE002
 62
     7
 10
74.459517000000005
 20
121.357634
 30
0.0
 40
1.0125200000000001
 50
129.0878689999999
 51
175.05786000000001
  0
ARC
  5
177
  8
0
  6
AIGENLINE002
 62
     7
 10
40.016939000000001
 20
119.86498899999989
 30
0.0
 40
0.909195
 50
5.2576849999999986
 51
50.209136000000001
  0
ARC
  5
178
  8
0
  6
AIGENLINE002
 62
     7
 10
40.011108999999998
 20
119.8616879999999
 30
0.0
 40
1.0155499999999991
 50
5.3609869999999997
 51
50.098998999999999
  0
ARC
  5
179
  8
0
  6
AIGENLINE002
 62
     7
 10
45.817112999999999
 20
106.8494399999999
 30
0.0
 40
3.7226370000000002
 50
186.645445
 51
265.3821759999999
  0
LINE
  5
17A
  8
0
  6
AIGENLINE002
 62
     7
 10
40.922299999999993
 20
119.94799999999989
 30
0.0
 11
42.119500000000002
 21
106.4189999999999
 31
0.0
  0
ARC
  5
17B
  8
0
  6
AIGENLINE002
 62
     7
 10
45.814056000000001
 20
106.8459629999999
 30
0.0
 40
3.6189249999999991
 50
186.63855399999991
 51
265.38018
  0
LINE
  5
17C
  8
0
  6
AIGENLINE002
 62
     7
 10
41.022199999999991
 20
119.95699999999999
 30
0.0
 11
42.2194
 21
106.4279999999999
 31
0.0
  0
ARC
  5
17D
  8
0
  6
AIGENLINE002
 62
     7
 10
68.634056000000001
 20
106.8448909999999
 30
0.0
 40
3.6193179999999989
 50
274.63673499999987
 51
353.75248599999992
  0
ARC
  5
17E
  8
0
  6
AIGENLINE002
 62
     7
 10
68.630285999999984
 20
106.848625
 30
0.0
 40
3.723344
 50
274.64488899999998
 51
353.74192599999998
  0
LINE
  5
17F
  8
0
  6
AIGENLINE002
 62
     7
 10
73.450800000000001
 20
121.44499999999999
 30
0.0
 11
72.231899999999996
 21
106.45099999999999
 31
0.0
  0
LINE
  5
180
  8
0
  6
AIGENLINE002
 62
     7
 10
73.550299999999993
 20
121.437
 30
0.0
 11
72.331400000000002
 21
106.4429999999999
 31
0.0
  0
LINE
  5
181
  8
0
 62
     7
 10
38.06219999999999
 20
122.0739999999999
 30
0.0
 11
37.399700000000003
 21
122.621
 31
0.0
  0
LINE
  5
182
  8
0
  6
AIGENLINE001
 62
     7
 10
57.235500000000002
 20
99.474000000000004
 30
0.0
 11
57.235500000000002
 21
125.374
 31
0.0
  0
LINE
  5
183
  8
0
 62
     7
 10
74.612099999999998
 20
122.0739999999999
 30
0.0
 11
75.297300000000007
 21
122.6239999999999
 31
0.0
  0
LINE
  5
184
  8
0
  6
AIGENLINE002
 62
     7
 10
50.674199999999999
 20
102.8629999999999
 30
0.0
 11
45.39439999999999
 21
103.1449999999999
 31
0.0
  0
LINE
  5
185
  8
0
  6
AIGENLINE002
 62
     7
 10
50.67969999999999
 20
102.96299999999999
 30
0.0
 11
45.399900000000002
 21
103.245
 31
0.0
  0
LINE
  5
186
  8
0
  6
AIGENLINE002
 62
     7
 10
52.285499999999999
 20
101.0739999999999
 30
0.0
 11
52.285499999999999
 21
101.166
 31
0.0
  0
ARC
  5
187
  8
0
  6
AIGENLINE002
 62
     7
 10
50.523204
 20
101.106461
 30
0.0
 40
1.7632959999999991
 50
1.9195209999999989
 51
85.086618000000001
  0
LINE
  5
188
  8
0
  6
AIGENLINE002
 62
     7
 10
52.385399999999997
 20
101.0739999999999
 30
0.0
 11
52.385399999999997
 21
101.166
 31
0.0
  0
ARC
  5
189
  8
0
  6
AIGENLINE002
 62
     7
 10
50.519565999999998
 20
101.10317499999989
 30
0.0
 40
1.8668949999999991
 50
1.913864
 51
85.078070999999994
  0
ARC
  5
18A
  8
0
 62
     7
 10
37.110861
 20
122.26613500000001
 30
0.0
 40
0.4575600000000001
 50
50.860790000000001
 51
89.726881000000006
  0
ARC
  5
18B
  8
0
 62
     7
 10
75.581408999999994
 20
122.2674659999999
 30
0.0
 40
0.456229
 50
90.28313
 51
128.50896
  0
LINE
  5
18C
  8
0
  6
AIGENLINE002
 62
     7
 10
63.791200000000003
 20
102.96299999999999
 30
0.0
 11
69.043099999999995
 21
103.244
 31
0.0
  0
LINE
  5
18D
  8
0
  6
AIGENLINE002
 62
     7
 10
63.796700000000001
 20
102.8629999999999
 30
0.0
 11
69.048199999999994
 21
103.14399999999991
 31
0.0
  0
LINE
  5
18E
  8
0
  6
AIGENLINE002
 62
     7
 10
62.185400000000001
 20
101.0739999999999
 30
0.0
 11
62.185400000000001
 21
101.166
 31
0.0
  0
ARC
  5
18F
  8
0
  6
AIGENLINE002
 62
     7
 10
63.947988000000002
 20
101.1061939999999
 30
0.0
 40
1.7635860000000001
 50
94.921724999999995
 51
178.07209599999999
  0
ARC
  5
190
  8
0
  6
AIGENLINE002
 62
     7
 10
63.951624000000002
 20
101.10291099999991
 30
0.0
 40
1.867183
 50
94.929739999999981
 51
178.07828599999999
  0
ARC
  5
191
  8
0
  6
AIGENLINE002
 62
     7
 10
36.987941999999997
 20
122.362956
 30
0.0
 40
0.9112709999999999
 50
50.706635999999989
 51
89.759010999999987
  0
ARC
  5
192
  8
0
  6
AIGENLINE002
 62
     7
 10
36.98771
 20
122.362486
 30
0.0
 40
1.0116499999999991
 50
50.70273499999999
 51
89.769777000000005
  0
ARC
  5
193
  8
0
  6
AIGENLINE002
 62
     7
 10
75.706027000000006
 20
122.366485
 30
0.0
 40
0.9077379999999999
 50
90.158031000000022
 51
128.61213000000001
  0
ARC
  5
194
  8
0
  6
AIGENLINE002
 62
     7
 10
75.706097999999983
 20
122.36944800000001
 30
0.0
 40
1.004683999999999
 50
90.146799000000001
 51
128.75302699999989
  0
LINE
  5
195
  8
0
  6
AIGENLINE002
 62
     7
 10
37.564999999999991
 20
123.0679999999999
 30
0.0
 11
40.59879999999999
 21
120.56399999999999
 31
0.0
  0
LINE
  5
196
  8
0
  6
AIGENLINE002
 62
     7
 10
37.628399999999999
 20
123.1449999999999
 30
0.0
 11
40.662500000000001
 21
120.64099999999991
 31
0.0
  0
LINE
  5
197
  8
0
  6
AIGENLINE002
 62
     7
 10
75.139600000000002
 20
123.07599999999999
 30
0.0
 11
73.883799999999994
 21
122.066
 31
0.0
  0
LINE
  5
198
  8
0
  6
AIGENLINE002
 62
     7
 10
75.077200000000005
 20
123.15300000000001
 30
0.0
 11
73.821100000000001
 21
122.14399999999991
 31
0.0
  0
LINE
  5
199
  8
0
  6
AIGENLINE002
 62
     7
 10
34.54849999999999
 20
122.551
 30
0.0
 11
34.453400000000002
 21
122.0739999999999
 31
0.0
  0
LINE
  5
19A
  8
0
  6
AIGENLINE002
 62
     7
 10
35.431100000000001
 20
123.2739999999999
 30
0.0
 11
36.991799999999998
 21
123.2739999999999
 31
0.0
  0
ARC
  5
19B
  8
0
 62
     7
 10
35.037621000000001
 20
122.2776379999999
 30
0.0
 40
0.203709
 50
270.604781
 51
327.77980600000001
  0
LINE
  5
19C
  8
0
 62
     7
 10
35.405000000000001
 20
122.486
 30
0.0
 11
35.210000000000001
 21
122.1689999999999
 31
0.0
  0
ARC
  5
19D
  8
0
 62
     7
 10
35.83677999999999
 20
122.21268499999999
 30
0.0
 40
0.511041
 50
90.67378699999999
 51
147.67127699999989
  0
LINE
  5
19E
  8
0
 62
     7
 10
35.830800000000004
 20
122.7239999999999
 30
0.0
 11
37.113
 21
122.7239999999999
 31
0.0
  0
ARC
  5
19F
  8
0
  6
AIGENLINE002
 62
     7
 10
35.454374000000001
 20
122.34572199999999
 30
0.0
 40
0.928788
 50
91.433641000000023
 51
167.247367
  0
ARC
  5
1A0
  8
0
 62
     7
 10
77.665559000000002
 20
122.27818000000001
 30
0.0
 40
0.204254
 50
212.30341799999999
 51
269.31203399999993
  0
LINE
  5
1A1
  8
0
 62
     7
 10
77.297899999999998
 20
122.486
 30
0.0
 11
77.492900000000006
 21
122.1689999999999
 31
0.0
  0
ARC
  5
1A2
  8
0
 62
     7
 10
76.868172000000001
 20
122.21640099999991
 30
0.0
 40
0.507304
 50
32.099328
 51
89.555568000000008
  0
LINE
  5
1A3
  8
0
 62
     7
 10
76.872100000000003
 20
122.7239999999999
 30
0.0
 11
75.5792
 21
122.7239999999999
 31
0.0
  0
LINE
  5
1A4
  8
0
  6
AIGENLINE002
 62
     7
 10
77.271699999999996
 20
123.2739999999999
 30
0.0
 11
75.703500000000005
 21
123.2739999999999
 31
0.0
  0
ARC
  5
1A5
  8
0
  6
AIGENLINE002
 62
     7
 10
77.248025999999996
 20
122.345572
 30
0.0
 40
0.9289509999999999
 50
12.759879
 51
88.537140000000008
  0
LINE
  5
1A6
  8
0
  6
AIGENLINE002
 62
     7
 10
78.153999999999996
 20
122.551
 30
0.0
 11
78.249499999999998
 21
122.0739999999999
 31
0.0
  0
LINE
  5
1A7
  8
0
 62
     7
 10
46.710299999999997
 20
102.366
 30
0.0
 11
46.760199999999998
 21
101.8639999999999
 31
0.0
  0
ARC
  5
1A8
  8
0
 62
     7
 10
46.402830999999999
 20
102.3262019999999
 30
0.0
 40
0.309987
 50
7.3396369999999997
 51
85.447744999999998
  0
ARC
  5
1A9
  8
0
 62
     7
 10
46.862479
 20
101.87703500000001
 30
0.0
 40
0.103138
 50
187.5382139999999
 51
268.5093
  0
LINE
  5
1AA
  8
0
 62
     7
 10
47.322099999999999
 20
102.30200000000001
 30
0.0
 11
47.278399999999991
 21
101.8639999999999
 31
0.0
  0
ARC
  5
1AB
  8
0
 62
     7
 10
47.630645000000001
 20
102.26063499999989
 30
0.0
 40
0.311238
 50
88.954164000000006
 51
172.41375199999999
  0
LINE
  5
1AC
  8
0
 62
     7
 10
46.8536
 20
101.774
 30
0.0
 11
47.178800000000003
 21
101.774
 31
0.0
  0
ARC
  5
1AD
  8
0
 62
     7
 10
47.175837000000001
 20
101.87736200000001
 30
0.0
 40
0.103473
 50
271.64879999999999
 51
352.30372499999999
  0
LINE
  5
1AE
  8
0
 62
     7
 10
67.148799999999994
 20
102.30200000000001
 30
0.0
 11
67.192499999999995
 21
101.8639999999999
 31
0.0
  0
ARC
  5
1AF
  8
0
 62
     7
 10
66.839465000000004
 20
102.259702
 30
0.0
 40
0.312157
 50
7.7365519999999997
 51
90.895492000000004
  0
ARC
  5
1B0
  8
0
 62
     7
 10
67.294781
 20
101.87703500000001
 30
0.0
 40
0.103138
 50
187.5382139999999
 51
268.5093
  0
LINE
  5
1B1
  8
0
 62
     7
 10
67.285899999999998
 20
101.774
 30
0.0
 11
67.611099999999993
 21
101.774
 31
0.0
  0
ARC
  5
1B2
  8
0
 62
     7
 10
67.608182999999997
 20
101.8769189999999
 30
0.0
 40
0.103029
 50
271.63119899999998
 51
352.51885499999992
  0
LINE
  5
1B3
  8
0
 62
     7
 10
67.760599999999997
 20
102.366
 30
0.0
 11
67.710300000000004
 21
101.8639999999999
 31
0.0
  0
ARC
  5
1B4
  8
0
 62
     7
 10
68.067588000000001
 20
102.3267179999999
 30
0.0
 40
0.309433
 50
94.468974000000003
 51
172.743604
  0
ARC
  5
1B5
  8
0
 62
     7
 10
40.023870000000002
 20
119.86843500000001
 30
0.0
 40
0.452055
 50
5.1520279999999987
 51
50.317383999999997
  0
LINE
  5
1B6
  8
0
 62
     7
 10
40.4741
 20
119.90899999999991
 30
0.0
 11
41.671300000000002
 21
106.379
 31
0.0
  0
ARC
  5
1B7
  8
0
 62
     7
 10
45.831057999999999
 20
106.86396999999999
 30
0.0
 40
4.1879140000000001
 50
186.64490399999991
 51
265.38336199999998
  0
ARC
  5
1B8
  8
0
 62
     7
 10
68.616450999999998
 20
106.863378
 30
0.0
 40
4.1888350000000001
 50
274.63893999999988
 51
353.74411600000002
  0
ARC
  5
1B9
  8
0
 62
     7
 10
74.451944999999995
 20
121.3616649999999
 30
0.0
 40
0.454749
 50
129.022446
 51
175.06757899999999
  0
LINE
  5
1BA
  8
0
 62
     7
 10
73.998900000000006
 20
121.401
 30
0.0
 11
72.780299999999997
 21
106.407
 31
0.0
  0
LINE
  5
1BB
  8
0
 62
     7
 10
38.06219999999999
 20
122.0739999999999
 30
0.0
 11
40.3125
 21
120.21599999999999
 31
0.0
  0
ARC
  5
1BC
  8
0
 62
     7
 10
51.602654999999999
 20
101.28084200000001
 30
0.0
 40
0.20706
 50
183.5035189999999
 51
268.197745
  0
LINE
  5
1BD
  8
0
 62
     7
 10
57.235500000000002
 20
101.0739999999999
 30
0.0
 11
51.584800000000001
 21
101.0739999999999
 31
0.0
  0
ARC
  5
1BE
  8
0
 62
     7
 10
50.153942999999998
 20
101.19496099999991
 30
0.0
 40
1.2441949999999999
 50
3.3741110000000001
 51
85.152004000000005
  0
LINE
  5
1BF
  8
0
 62
     7
 10
50.248800000000003
 20
102.435
 30
0.0
 11
45.371000000000002
 21
102.696
 31
0.0
  0
LINE
  5
1C0
  8
0
 62
     7
 10
50.248800000000003
 20
102.435
 30
0.0
 11
45.281399999999991
 21
102.70099999999999
 31
0.0
  0
LINE
  5
1C1
  8
0
 62
     7
 10
64.211799999999997
 20
102.435
 30
0.0
 11
69.072000000000003
 21
102.6939999999999
 31
0.0
  0
LINE
  5
1C2
  8
0
 62
     7
 10
57.235500000000002
 20
101.0739999999999
 30
0.0
 11
62.8748
 21
101.0739999999999
 31
0.0
  0
ARC
  5
1C3
  8
0
 62
     7
 10
62.867880000000007
 20
101.281229
 30
0.0
 40
0.20746
 50
271.90267999999992
 51
356.396096
  0
ARC
  5
1C4
  8
0
 62
     7
 10
64.316963000000001
 20
101.19496599999999
 30
0.0
 40
1.244189999999999
 50
94.847778000000005
 51
176.62606700000001
  0
LINE
  5
1C5
  8
0
 62
     7
 10
74.612099999999998
 20
122.0739999999999
 30
0.0
 11
38.06219999999999
 21
122.0739999999999
 31
0.0
  0
LINE
  5
1C6
  8
0
 62
     7
 10
157.084
 20
121.6089999999999
 30
0.0
 11
124.431
 21
120.1479999999999
 31
0.0
  0
LINE
  5
1C7
  8
0
 62
     7
 10
73.485600000000005
 20
121.8739999999999
 30
0.0
 11
40.985399999999991
 21
120.374
 31
0.0
  0
LINE
  5
1C8
  8
0
 62
     7
 10
57.235500000000002
 20
102.8739999999999
 30
0.0
 11
52.385399999999997
 21
102.8739999999999
 31
0.0
  0
LINE
  5
1C9
  8
0
 62
     7
 10
74.612099999999998
 20
122.0739999999999
 30
0.0
 11
74.165599999999998
 21
121.7149999999999
 31
0.0
  0
LINE
  5
1CA
  8
0
  6
AIGENLINE002
 62
     7
 10
62.085500000000003
 20
101.0739999999999
 30
0.0
 11
62.085500000000003
 21
101.166
 31
0.0
  0
LINE
  5
1CB
  8
0
 62
     7
 10
35.431100000000001
 20
123.374
 30
0.0
 11
77.271699999999996
 21
123.374
 31
0.0
  0
LINE
  5
1CC
  8
0
 62
     7
 10
57.235500000000002
 20
102.8739999999999
 30
0.0
 11
62.085500000000003
 21
102.8739999999999
 31
0.0
  0
LINE
  5
1CD
  8
0
 62
     7
 10
35.0398
 20
122.0739999999999
 30
0.0
 11
38.06219999999999
 21
122.0739999999999
 31
0.0
  0
LINE
  5
1CE
  8
0
 62
     7
 10
34.450699999999991
 20
122.56999999999999
 30
0.0
 11
34.351399999999998
 21
122.0739999999999
 31
0.0
  0
LINE
  5
1CF
  8
0
 62
     7
 10
37.351399999999991
 20
123.374
 30
0.0
 11
35.431100000000001
 21
123.374
 31
0.0
  0
LINE
  5
1D0
  8
0
 62
     7
 10
35.0398
 20
122.0739999999999
 30
0.0
 11
34.351399999999998
 21
122.0739999999999
 31
0.0
  0
ARC
  5
1D1
  8
0
 62
     7
 10
35.457385999999993
 20
122.3422919999999
 30
0.0
 40
1.0321689999999999
 50
91.457280999999995
 51
167.25293600000001
  0
LINE
  5
1D2
  8
0
 62
     7
 10
74.612099999999998
 20
122.0739999999999
 30
0.0
 11
78.351399999999984
 21
122.0739999999999
 31
0.0
  0
LINE
  5
1D3
  8
0
 62
     7
 10
75.351399999999998
 20
123.374
 30
0.0
 11
77.271699999999996
 21
123.374
 31
0.0
  0
ARC
  5
1D4
  8
0
 62
     7
 10
77.245908
 20
122.34280099999989
 30
0.0
 40
1.0316510000000001
 50
12.724615
 51
88.565128000000001
  0
LINE
  5
1D5
  8
0
 62
     7
 10
78.252200000000002
 20
122.56999999999999
 30
0.0
 11
78.351399999999984
 21
122.0739999999999
 31
0.0
  0
TEXT
  5
1D6
  8
_________2
 62
     7
 10
29.3491
 20
22.050799999999999
 30
0.0
 40
3.9357000000000002
  1
重量：15.0kg
 41
0.5
  0
TEXT
  5
1D7
  8
_________2
 62
     7
 10
138.97772499999991
 20
30.627400000000002
 30
0.0
 40
3.9357000000000002
  1
CEL514S-WH
 41
0.5
 72
     1
 11
148.489
 21
30.627400000000002
 31
0.0
  0
TEXT
  5
1D8
  8
_________2
 62
     7
 10
142.257475
 20
20.626999999999988
 30
0.0
 40
3.9357000000000002
  1
CEL514S
 41
0.5
 72
     1
 11
148.489
 21
20.626999999999988
 31
0.0
  0
LINE
  5
1D9
  8
_________2
 62
     7
 10
210.24000000000001
 20
148.93100000000001
 30
0.0
 11
188.49000000000001
 21
148.93100000000001
 31
0.0
  0
LINE
  5
1DA
  8
_________2
 62
     7
 10
105.2389999999999
 20
17.428499999999989
 30
0.0
 11
105.2389999999999
 21
0.4482100000000001
 31
0.0
  0
LINE
  5
1DB
  8
_________2
 62
     7
 10
105.2389999999999
 20
297.44999999999987
 30
0.0
 11
105.2389999999999
 21
280.42999999999989
 31
0.0
  0
LINE
  5
1DC
  8
_________2
 62
     7
 10
21.988499999999991
 20
148.93100000000001
 30
0.0
 11
0.238058
 21
148.93100000000001
 31
0.0
  0
LINE
  5
1DD
  8
_________2
 62
     7
 10
81.679900000000004
 20
51.324300000000001
 30
0.0
 11
79.493700000000004
 21
51.324300000000001
 31
0.0
  0
LINE
  5
1DE
  8
_________2
 62
     7
 10
82.172600000000017
 20
51.324300000000001
 30
0.0
 11
81.920400000000001
 21
51.324300000000001
 31
0.0
  0
LINE
  5
1DF
  8
_________2
 62
     7
 10
82.665199999999984
 20
51.324300000000001
 30
0.0
 11
85.590100000000007
 21
51.324300000000001
 31
0.0
  0
LINE
  5
1E0
  8
_________2
 62
     7
 10
82.172600000000017
 20
51.324300000000001
 30
0.0
 11
82.424800000000005
 21
51.324300000000001
 31
0.0
  0
LINE
  5
1E1
  8
_________2
 62
     7
 10
75.776399999999995
 20
51.324300000000001
 30
0.0
 11
73.589399999999998
 21
51.324300000000001
 31
0.0
  0
LINE
  5
1E2
  8
_________2
 62
     7
 10
76.2684
 20
51.324300000000001
 30
0.0
 11
76.016900000000007
 21
51.324300000000001
 31
0.0
  0
LINE
  5
1E3
  8
_________2
 62
     7
 10
76.2684
 20
51.817
 30
0.0
 11
76.2684
 21
54.003900000000002
 31
0.0
  0
LINE
  5
1E4
  8
_________2
 62
     7
 10
76.2684
 20
51.324300000000001
 30
0.0
 11
76.2684
 21
51.576500000000003
 31
0.0
  0
LINE
  5
1E5
  8
_________2
 62
     7
 10
76.76100000000001
 20
51.324300000000001
 30
0.0
 11
78.947999999999993
 21
51.324300000000001
 31
0.0
  0
LINE
  5
1E6
  8
_________2
 62
     7
 10
76.2684
 20
51.324300000000001
 30
0.0
 11
76.520499999999998
 21
51.324300000000001
 31
0.0
  0
LINE
  5
1E7
  8
_________2
 62
     7
 10
76.2684
 20
50.832399999999993
 30
0.0
 11
76.2684
 21
48.645400000000002
 31
0.0
  0
LINE
  5
1E8
  8
_________2
 62
     7
 10
76.2684
 20
51.324300000000001
 30
0.0
 11
76.2684
 21
51.072800000000001
 31
0.0
  0
LINE
  5
1E9
  8
_________2
 62
     7
 10
79.979399999999984
 20
50.104799999999997
 30
0.0
 11
85.157399999999996
 21
49.240000000000002
 31
0.0
  0
LINE
  5
1EA
  8
_________2
 62
     7
 10
79.979399999999984
 20
52.543900000000001
 30
0.0
 11
85.157399999999996
 21
53.409300000000002
 31
0.0
  0
LINE
  5
1EB
  8
_________2
 62
     7
 10
85.157399999999996
 20
49.240000000000002
 30
0.0
 11
85.157399999999996
 21
53.409300000000002
 31
0.0
  0
LINE
  5
1EC
  8
_________2
 62
     7
 10
79.979399999999984
 20
50.104799999999997
 30
0.0
 11
79.979399999999984
 21
52.543900000000001
 31
0.0
  0
ARC
  5
1ED
  8
_________2
 62
     7
 10
76.222110000000001
 20
51.277366999999991
 30
0.0
 40
1.2673709999999989
 50
2.1232950000000002
 51
87.909056000000007
  0
ARC
  5
1EE
  8
_________2
 62
     7
 10
76.315273000000005
 20
51.277400999999998
 30
0.0
 40
1.267363
 50
92.121785999999986
 51
177.878185
  0
ARC
  5
1EF
  8
_________2
 62
     7
 10
76.315273000000005
 20
51.371245999999992
 30
0.0
 40
1.267363
 50
182.12181499999991
 51
267.87821400000001
  0
ARC
  5
1F0
  8
_________2
 62
     7
 10
76.221461000000005
 20
51.371928999999987
 30
0.0
 40
1.2680439999999991
 50
272.11916400000001
 51
357.84848499999993
  0
ARC
  5
1F1
  8
_________2
 62
     7
 10
76.268349999999984
 20
51.324323
 30
0.0
 40
2.0849849999999992
 50
0.00001
 51
89.999980000000008
  0
ARC
  5
1F2
  8
_________2
 62
     7
 10
76.348388
 20
51.245001999999992
 30
0.0
 40
2.1657860000000002
 50
92.117855000000034
 51
177.90105299999991
  0
ARC
  5
1F3
  8
_________2
 62
     7
 10
76.348354
 20
51.404327000000002
 30
0.0
 40
2.1657779999999991
 50
182.11700400000001
 51
267.88302499999992
  0
ARC
  5
1F4
  8
_________2
 62
     7
 10
76.188378999999983
 20
51.405009999999997
 30
0.0
 40
2.1664590000000001
 50
272.11546800000002
 51
357.86560400000002
  0
TEXT
  5
1F5
  8
_________2
 62
     7
 10
109.5439999999999
 20
23.199100000000001
 30
0.0
 40
3.0923400000000001
  1
図番
 41
0.5
  0
LINE
  5
1F6
  8
_________2
 62
     7
 10
108.4889999999999
 20
27.4283
 30
0.0
 11
188.49000000000001
 21
27.4283
 31
0.0
  0
TEXT
  5
1F7
  8
_________2
 62
     7
 10
109.5439999999999
 20
33.198900000000002
 30
0.0
 40
3.0923400000000001
  1
品番
 41
0.5
  0
TEXT
  5
1F8
  8
_________2
 62
     7
 10
109.5439999999999
 20
53.337699999999998
 30
0.0
 40
3.0923400000000001
  1
名称
 41
0.5
  0
TEXT
  5
1F9
  8
_________2
 62
     7
 10
96.784058333333334
 20
48.341500000000011
 30
0.0
 40
3.6545800000000002
  1
mm
 41
0.5
 72
     1
 11
98.306799999999996
 21
48.341500000000011
 31
0.0
  0
TEXT
  5
1FA
  8
_________2
 62
     7
 10
90.582099999999997
 20
53.337699999999998
 30
0.0
 40
3.0923400000000001
  1
単位
 41
0.5
  0
TEXT
  5
1FB
  8
_________2
 62
     7
 10
90.582099999999997
 20
40.930399999999999
 30
0.0
 40
3.0923400000000001
  1
尺度
 41
0.5
  0
TEXT
  5
1FC
  8
_________2
 62
     7
 10
95.030836166666674
 20
34.73749999999999
 30
0.0
 40
3.6545800000000002
  1
1 ： 10
 41
0.5
 72
     1
 11
98.898600000000002
 21
34.73749999999999
 31
0.0
  0
TEXT
  5
1FD
  8
_________2
 62
     7
 10
114.11799999999999
 20
45.7453
 30
0.0
 40
3.9357000000000002
  1
パーティーシンク（いものホーローシンク）
 41
0.5
  0
TEXT
  5
1FE
  8
_________2
 62
     7
 10
44.364200333333329
 20
35.122599999999991
 30
0.0
 40
3.6545800000000002
  1
早川
 41
0.5
 72
     1
 11
46.252400000000002
 21
35.122599999999991
 31
0.0
  0
TEXT
  5
1FF
  8
_________2
 62
     7
 10
25.72929066666666
 20
35.122599999999991
 30
0.0
 40
3.6545800000000002
  1
石原
 41
0.5
 72
     1
 11
27.6784
 21
35.122599999999991
 31
0.0
  0
TEXT
  5
200
  8
_________2
 62
     7
 10
72.724699999999999
 20
34.73749999999999
 30
0.0
 40
3.6545800000000002
  1
13.12.09
 41
0.5
  0
TEXT
  5
201
  8
_________2
 62
     7
 10
71.531999999999996
 20
40.930399999999999
 30
0.0
 40
3.0923400000000001
  1
日付
 41
0.5
  0
TEXT
  5
202
  8
_________2
 62
     7
 10
34.578299999999992
 20
40.930399999999999
 30
0.0
 40
3.0923400000000001
  1
検図
 41
0.5
  0
TEXT
  5
203
  8
_________2
 62
     7
 10
22.960000000000001
 20
26.730999999999991
 30
0.0
 40
3.0923400000000001
  1
備考
 41
0.5
  0
TEXT
  5
204
  8
_________2
 62
     7
 10
22.960000000000001
 20
40.930399999999999
 30
0.0
 40
3.0923400000000001
  1
製図
 41
0.5
  0
TEXT
  5
205
  8
_________2
 62
     7
 10
28.727365333333339
 20
49.456400000000002
 30
0.0
 40
4.4979399999999989
  1
セラトレーディング株式会社
 41
0.5
 72
     1
 11
46.119399999999992
 21
49.456400000000002
 31
0.0
  0
LINE
  5
206
  8
_________2
 62
     7
 10
188.49000000000001
 20
17.428499999999989
 30
0.0
 11
21.988499999999991
 21
17.428499999999989
 31
0.0
  0
LINE
  5
207
  8
_________2
 62
     7
 10
21.988499999999991
 20
17.428499999999989
 30
0.0
 11
21.988499999999991
 21
280.42999999999989
 31
0.0
  0
LINE
  5
208
  8
_________2
 62
     7
 10
21.988499999999991
 20
280.42999999999989
 30
0.0
 11
188.49000000000001
 21
280.42999999999989
 31
0.0
  0
LINE
  5
209
  8
_________2
 62
     7
 10
188.49000000000001
 20
280.42999999999989
 30
0.0
 11
188.49000000000001
 21
17.428499999999989
 31
0.0
  0
LINE
  5
20A
  8
_________2
 62
     7
 10
70.488799999999998
 20
30.9285
 30
0.0
 11
70.488799999999998
 21
57.428400000000011
 31
0.0
  0
LINE
  5
20B
  8
_________2
 62
     7
 10
89.488600000000005
 20
30.9285
 30
0.0
 11
89.488600000000005
 21
57.428400000000011
 31
0.0
  0
LINE
  5
20C
  8
_________2
 62
     7
 10
108.4889999999999
 20
17.428499999999989
 30
0.0
 11
108.4889999999999
 21
57.428400000000011
 31
0.0
  0
LINE
  5
20D
  8
_________2
 62
     7
 10
33.488300000000002
 20
30.9285
 30
0.0
 11
33.488300000000002
 21
44.928800000000003
 31
0.0
  0
LINE
  5
20E
  8
_________2
 62
     7
 10
21.988499999999991
 20
30.9285
 30
0.0
 11
108.4889999999999
 21
30.9285
 31
0.0
  0
LINE
  5
20F
  8
_________2
 62
     7
 10
21.988499999999991
 20
44.928800000000003
 30
0.0
 11
108.4889999999999
 21
44.928800000000003
 31
0.0
  0
LINE
  5
210
  8
_________2
 62
     7
 10
108.4889999999999
 20
37.428100000000001
 30
0.0
 11
188.49000000000001
 21
37.428100000000001
 31
0.0
  0
LINE
  5
211
  8
_________2
 62
     7
 10
21.988499999999991
 20
57.428400000000011
 30
0.0
 11
188.49000000000001
 21
57.428400000000011
 31
0.0
  0
ENDSEC
  0
EOF
