  0
SECTION
  2
HEADER
  9
$ACADVER
  1
AC1009
  9
$INSBASE
 10
0.0
 20
0.0
 30
0.0
  9
$EXTMIN
 10
0.238058
 20
0.4482100000000001
 30
0.0
  9
$EXTMAX
 10
210.24000000000001
 20
297.44999999999987
 30
0.0
  9
$LIMMIN
 10
0.0
 20
0.0
  9
$LIMMAX
 10
12.0
 20
9.0
  9
$ORTHOMODE
 70
     0
  9
$REGENMODE
 70
     1
  9
$FILLMODE
 70
     1
  9
$QTEXTMODE
 70
     0
  9
$MIRRTEXT
 70
     1
  9
$DRAGMODE
 70
     2
  9
$LTSCALE
 40
1.0
  9
$OSMODE
 70
    37
  9
$ATTMODE
 70
     1
  9
$TEXTSIZE
 40
0.0
  9
$TRACEWID
 40
0.05
  9
$TEXTSTYLE
  7
STANDARD
  9
$CLAYER
  8
0
  9
$CELTYPE
  6
CONTINUOUS
  9
$CECOLOR
 62
   256
  9
$DIMSCALE
 40
1.0
  9
$DIMASZ
 40
0.18
  9
$DIMEXO
 40
0.0625
  9
$DIMDLI
 40
0.38
  9
$DIMRND
 40
0.0
  9
$DIMDLE
 40
0.0
  9
$DIMEXE
 40
0.18
  9
$DIMTP
 40
0.0
  9
$DIMTM
 40
0.0
  9
$DIMTXT
 40
0.18
  9
$DIMCEN
 40
0.09
  9
$DIMTSZ
 40
0.0
  9
$DIMTOL
 70
     0
  9
$DIMLIM
 70
     0
  9
$DIMTIH
 70
     1
  9
$DIMTOH
 70
     1
  9
$DIMSE1
 70
     0
  9
$DIMSE2
 70
     0
  9
$DIMTAD
 70
     0
  9
$DIMZIN
 70
     0
  9
$DIMBLK
  1

  9
$DIMASO
 70
     1
  9
$DIMSHO
 70
     1
  9
$DIMPOST
  1

  9
$DIMAPOST
  1

  9
$DIMALT
 70
     0
  9
$DIMALTD
 70
     2
  9
$DIMALTF
 40
25.399999999999999
  9
$DIMLFAC
 40
1.0
  9
$DIMTOFL
 70
     0
  9
$DIMTVP
 40
0.0
  9
$DIMTIX
 70
     0
  9
$DIMSOXD
 70
     0
  9
$DIMSAH
 70
     0
  9
$DIMBLK1
  1

  9
$DIMBLK2
  1

  9
$DIMSTYLE
  2
STANDARD
  9
$DIMCLRD
 70
     0
  9
$DIMCLRE
 70
     0
  9
$DIMCLRT
 70
     0
  9
$DIMTFAC
 40
1.0
  9
$DIMGAP
 40
0.09
  9
$LUNITS
 70
     2
  9
$LUPREC
 70
     4
  9
$SKETCHINC
 40
0.1
  9
$FILLETRAD
 40
0.0
  9
$AUNITS
 70
     0
  9
$AUPREC
 70
     0
  9
$MENU
  1
.
  9
$ELEVATION
 40
0.0
  9
$PELEVATION
 40
0.0
  9
$THICKNESS
 40
0.0
  9
$LIMCHECK
 70
     0
  9
$BLIPMODE
 70
     0
  9
$CHAMFERA
 40
0.0
  9
$CHAMFERB
 40
0.0
  9
$SKPOLY
 70
     0
  9
$TDCREATE
 40
2444972.375
  9
$TDUPDATE
 40
2456700.2467922922
  9
$TDINDWG
 40
0.0000126157
  9
$TDUSRTIMER
 40
0.0000126157
  9
$USRTIMER
 70
     1
  9
$ANGBASE
 50
0.0
  9
$ANGDIR
 70
     0
  9
$PDMODE
 70
     0
  9
$PDSIZE
 40
0.0
  9
$PLINEWID
 40
0.0
  9
$COORDS
 70
     1
  9
$SPLFRAME
 70
     0
  9
$SPLINETYPE
 70
     6
  9
$SPLINESEGS
 70
     8
  9
$ATTDIA
 70
     0
  9
$ATTREQ
 70
     1
  9
$HANDLING
 70
     1
  9
$HANDSEED
  5
50F
  9
$SURFTAB1
 70
     6
  9
$SURFTAB2
 70
     6
  9
$SURFTYPE
 70
     6
  9
$SURFU
 70
     6
  9
$SURFV
 70
     6
  9
$UCSNAME
  2

  9
$UCSORG
 10
0.0
 20
0.0
 30
0.0
  9
$UCSXDIR
 10
1.0
 20
0.0
 30
0.0
  9
$UCSYDIR
 10
0.0
 20
1.0
 30
0.0
  9
$PUCSNAME
  2

  9
$PUCSORG
 10
0.0
 20
0.0
 30
0.0
  9
$PUCSXDIR
 10
1.0
 20
0.0
 30
0.0
  9
$PUCSYDIR
 10
0.0
 20
1.0
 30
0.0
  9
$USERI1
 70
     0
  9
$USERI2
 70
     0
  9
$USERI3
 70
     0
  9
$USERI4
 70
     0
  9
$USERI5
 70
     0
  9
$USERR1
 40
0.0
  9
$USERR2
 40
0.0
  9
$USERR3
 40
0.0
  9
$USERR4
 40
0.0
  9
$USERR5
 40
0.0
  9
$WORLDVIEW
 70
     1
  9
$SHADEDGE
 70
     3
  9
$SHADEDIF
 70
    70
  9
$TILEMODE
 70
     1
  9
$MAXACTVP
 70
    48
  9
$PLIMCHECK
 70
     0
  9
$PEXTMIN
 10
1.0000000000000000E+020
 20
1.0000000000000000E+020
 30
1.0000000000000000E+020
  9
$PEXTMAX
 10
-1.0000000000000000E+020
 20
-1.0000000000000000E+020
 30
-1.0000000000000000E+020
  9
$PLIMMIN
 10
0.0
 20
0.0
  9
$PLIMMAX
 10
12.0
 20
9.0
  9
$UNITMODE
 70
     0
  9
$VISRETAIN
 70
     1
  9
$PLINEGEN
 70
     0
  9
$PSLTSCALE
 70
     1
  0
ENDSEC
  0
SECTION
  2
TABLES
  0
TABLE
  2
VPORT
 70
     2
  0
VPORT
  2
*ACTIVE
 70
     0
 10
0.0
 20
0.0
 11
1.0
 21
1.0
 12
206.97982146115791
 22
148.72499999999991
 13
0.0
 23
0.0
 14
1.0
 24
1.0
 15
0.0
 25
0.0
 16
0.0
 26
0.0
 36
1.0
 17
0.0
 27
0.0
 37
0.0
 40
299.90488308115528
 41
2.2894736842105261
 42
50.0
 43
0.0
 44
0.0
 50
0.0
 51
0.0
 71
     0
 72
   100
 73
     1
 74
     1
 75
     0
 76
     0
 77
     0
 78
     0
  0
ENDTAB
  0
TABLE
  2
LTYPE
 70
     3
  0
LTYPE
  2
CONTINUOUS
 70
     0
  3
Solid line
 72
    65
 73
     0
 40
0.0
  0
LTYPE
  2
AIGENLINE001
 70
     0
  3
generate AI->DXF Converter
 72
    65
 73
     4
 40
5.8561449999999988
 49
3.5278
 49
-0.776115
 49
0.776115
 49
-0.776115
  0
LTYPE
  2
AIGENLINE002
 70
     0
  3
generate AI->DXF Converter
 72
    65
 73
     2
 40
1.5522299999999991
 49
0.776115
 49
-0.776115
  0
ENDTAB
  0
TABLE
  2
LAYER
 70
     2
  0
LAYER
  2
0
 70
     0
 62
     7
  6
CONTINUOUS
  0
LAYER
  2
_________2
 70
     0
 62
     7
  6
CONTINUOUS
  0
ENDTAB
  0
TABLE
  2
STYLE
 70
     1
  0
STYLE
  2
STANDARD
 70
     0
 40
0.0
 41
0.0
 50
0.0
 71
     0
 42
0.0
  3
TXT
  4
EXTFONT.SHX
  0
ENDTAB
  0
TABLE
  2
VIEW
 70
     0
  0
ENDTAB
  0
TABLE
  2
UCS
 70
     0
  0
ENDTAB
  0
TABLE
  2
APPID
 70
     1
  0
APPID
  2
ACAD
 70
     0
  0
ENDTAB
  0
TABLE
  2
DIMSTYLE
 70
     1
  0
DIMSTYLE
  2
STANDARD
 70
     0
  3

  4

  5

  6

  7

 40
1.0
 41
0.18
 42
0.0625
 43
0.38
 44
0.18
 45
0.0
 46
0.0
 47
0.0
 48
0.0
140
0.18
141
0.09
142
0.0
143
25.399999999999999
144
1.0
145
0.0
146
1.0
147
0.09
 71
     0
 72
     0
 73
     1
 74
     1
 75
     0
 76
     0
 77
     0
 78
     0
170
     0
171
     2
172
     0
173
     0
174
     0
175
     0
176
     0
177
     0
178
     0
  0
ENDTAB
  0
ENDSEC
  0
SECTION
  2
BLOCKS
  0
BLOCK
  8
0
  2
$MODEL_SPACE
 70
     0
 10
0.0
 20
0.0
 30
0.0
  3
$MODEL_SPACE
  1

  0
ENDBLK
  5
1A
  8
0
  0
BLOCK
 67
     1
  8
0
  2
$PAPER_SPACE
 70
     0
 10
0.0
 20
0.0
 30
0.0
  3
$PAPER_SPACE
  1

  0
ENDBLK
  5
17
 67
     1
  8
0
  0
ENDSEC
  0
SECTION
  2
ENTITIES
  0
TEXT
  5
23
  8
0
 62
     7
 10
111.9909999999999
 20
215.55376000000001
 30
0.0
 40
3.0923400000000001
  1
カウンター切込寸法
 50
90.0
 41
0.5
 72
     1
 11
111.9909999999999
 21
223.7999999999999
 31
0.0
  0
TEXT
  5
24
  8
0
 62
     7
 10
177.8779999999999
 20
235.36728749999989
 30
0.0
 40
3.0923400000000001
  1
290
 50
90.0
 41
0.5
 72
     1
 11
177.8779999999999
 21
237.30000000000001
 31
0.0
  0
TEXT
  5
25
  8
0
 62
     7
 10
140.6579999999999
 20
254.67404999999991
 30
0.0
 40
3.0923400000000001
  1
27
 50
90.0
 41
0.5
 72
     2
 11
140.6579999999999
 21
257.25099999999992
 31
0.0
  0
TEXT
  5
26
  8
0
 62
     7
 10
105.8456124999999
 20
183.96199999999999
 30
0.0
 40
3.092309999999999
  1
R20
 41
0.5
 72
     2
 11
109.711
 21
183.96199999999999
 31
0.0
  0
TEXT
  5
27
  8
0
 62
     7
 10
154.98143999999999
 20
243.0749999999999
 30
0.0
 40
3.0923400000000001
  1
12
 41
0.5
 72
     2
 11
157.04299999999989
 21
243.0749999999999
 31
0.0
  0
TEXT
  5
28
  8
0
 62
     7
 10
141.8479999999999
 20
159.63499999999991
 30
0.0
 40
3.0923400000000001
  1
14
 41
0.5
  0
TEXT
  5
29
  8
0
 62
     7
 10
174.76443999999989
 20
120.262
 30
0.0
 40
3.0923400000000001
  1
18
 41
0.5
 72
     2
 11
176.82599999999991
 21
120.262
 31
0.0
  0
TEXT
  5
2A
  8
0
 62
     7
 10
156.8462874999999
 20
120.262
 30
0.0
 40
3.0923400000000001
  1
206
 41
0.5
 72
     1
 11
158.779
 21
120.262
 31
0.0
  0
TEXT
  5
2B
  8
0
 62
     7
 10
157.61644000000001
 20
165.9129999999999
 30
0.0
 40
3.0923400000000001
  1
224
 41
0.5
 72
     1
 11
159.678
 21
165.9129999999999
 31
0.0
  0
TEXT
  5
2C
  8
0
 62
     7
 10
66.009519999999995
 20
123.3
 30
0.0
 40
3.0923400000000001
  1
%%c35.5
 41
0.5
 72
     2
 11
72.194199999999995
 21
123.3
 31
0.0
  0
TEXT
  5
2D
  8
0
 62
     7
 10
88.789595000000006
 20
108.03700000000001
 30
0.0
 40
3.0923400000000001
  1
%%c170
 41
0.5
 72
     2
 11
93.685799999999986
 21
108.03700000000001
 31
0.0
  0
TEXT
  5
2E
  8
0
 62
     7
 10
62.577089999999998
 20
100.2329999999999
 30
0.0
 40
3.0923400000000001
  1
48.5
 41
0.5
 72
     2
 11
67.215599999999995
 21
100.2329999999999
 31
0.0
  0
TEXT
  5
2F
  8
0
 62
     7
 10
41.868199999999987
 20
100.2329999999999
 30
0.0
 40
3.0923400000000001
  1
61.5
 41
0.5
  0
TEXT
  5
30
  8
0
 62
     7
 10
52.4815775
 20
165.9129999999999
 30
0.0
 40
3.0923400000000001
  1
110
 41
0.5
 72
     1
 11
53.898899999999998
 21
165.9129999999999
 31
0.0
  0
TEXT
  5
31
  8
0
 62
     7
 10
61.673940000000002
 20
207.351
 30
0.0
 40
3.0923400000000001
  1
273
 41
0.5
 72
     1
 11
63.735500000000002
 21
207.351
 31
0.0
  0
TEXT
  5
32
  8
0
 62
     7
 10
82.131444999999999
 20
241.642
 30
0.0
 40
3.0923400000000001
  1
20
 41
0.5
 72
     2
 11
84.450699999999983
 21
241.642
 31
0.0
  0
TEXT
  5
33
  8
0
 62
     7
 10
82.131744999999995
 20
96.651000000000025
 30
0.0
 40
3.0923400000000001
  1
20
 41
0.5
 72
     2
 11
84.451000000000008
 21
96.651000000000025
 31
0.0
  0
TEXT
  5
34
  8
0
 62
     7
 10
66.091487499999999
 20
130.92799999999991
 30
0.0
 40
3.0923400000000001
  1
290
 41
0.5
 72
     1
 11
68.024199999999993
 21
130.92799999999991
 31
0.0
  0
TEXT
  5
35
  8
0
 62
     7
 10
59.9660875
 20
64.486000000000004
 30
0.0
 40
3.0923400000000001
  1
270
 41
0.5
 72
     1
 11
61.898800000000001
 21
64.486000000000004
 31
0.0
  0
TEXT
  5
36
  8
0
 62
     7
 10
86.966487499999985
 20
64.486000000000004
 30
0.0
 40
3.0923400000000001
  1
270
 41
0.5
 72
     1
 11
88.899199999999993
 21
64.486000000000004
 31
0.0
  0
TEXT
  5
37
  8
0
 62
     7
 10
105.8797449999999
 20
165.928
 30
0.0
 40
3.0923400000000001
  1
30
 41
0.5
 72
     2
 11
108.199
 21
165.928
 31
0.0
  0
TEXT
  5
38
  8
0
 62
     7
 10
42.795900000000003
 20
159.62700000000001
 30
0.0
 40
3.0923400000000001
  1
27
 41
0.5
  0
TEXT
  5
39
  8
0
 62
     7
 10
53.96052499999999
 20
159.62700000000001
 30
0.0
 40
3.0923400000000001
  1
83
 41
0.5
 72
     1
 11
55.248999999999988
 21
159.62700000000001
 31
0.0
  0
TEXT
  5
3A
  8
0
 62
     7
 10
77.595434999999995
 20
165.928
 30
0.0
 40
3.0923400000000001
  1
400
 41
0.5
 72
     1
 11
79.399299999999997
 21
165.928
 31
0.0
  0
TEXT
  5
3B
  8
0
 62
     7
 10
58.493989999999997
 20
236.364
 30
0.0
 40
3.0923400000000001
  1
44.5
 41
0.5
 72
     2
 11
63.1325
 21
236.364
 31
0.0
  0
TEXT
  5
3C
  8
0
 62
     7
 10
85.995439999999988
 20
268.59699999999992
 30
0.0
 40
3.0923400000000001
  1
253
 41
0.5
 72
     1
 11
88.056999999999988
 21
268.59699999999992
 31
0.0
  0
TEXT
  5
3D
  8
0
 62
     7
 10
60.695340000000002
 20
268.59699999999992
 30
0.0
 40
3.0923400000000001
  1
253
 41
0.5
 72
     1
 11
62.756900000000002
 21
268.59699999999992
 31
0.0
  0
TEXT
  5
3E
  8
0
 62
     7
 10
73.474387500000006
 20
273.96699999999993
 30
0.0
 40
3.0923400000000001
  1
506
 41
0.5
 72
     1
 11
75.4071
 21
273.96699999999993
 31
0.0
  0
TEXT
  5
3F
  8
0
 62
     7
 10
73.46638750000001
 20
172.1509999999999
 30
0.0
 40
3.0923400000000001
  1
540
 41
0.5
 72
     1
 11
75.399100000000004
 21
172.1509999999999
 31
0.0
  0
TEXT
  5
40
  8
0
 62
     7
 10
133.95400000000001
 20
243.88267749999989
 30
0.0
 40
3.0923400000000001
  1
110
 50
90.0
 41
0.5
 72
     1
 11
133.95400000000001
 21
245.30000000000001
 31
0.0
  0
TEXT
  5
41
  8
0
 62
     7
 10
133.95400000000001
 20
217.995135
 30
0.0
 40
3.0923400000000001
  1
400
 50
90.0
 41
0.5
 72
     1
 11
133.95400000000001
 21
219.79900000000001
 31
0.0
  0
TEXT
  5
42
  8
0
 62
     7
 10
133.95400000000001
 20
190.03999999999991
 30
0.0
 40
3.0923400000000001
  1
30
 50
90.0
 41
0.5
  0
TEXT
  5
43
  8
0
 62
     7
 10
137.5079999999999
 20
111.2891349999999
 30
0.0
 40
3.0923400000000001
  1
716
 50
90.0
 41
0.5
 72
     1
 11
137.5079999999999
 21
113.0929999999999
 31
0.0
  0
TEXT
  5
44
  8
0
 62
     7
 10
137.5079999999999
 20
149.854525
 30
0.0
 40
3.0923400000000001
  1
45
 50
90.0
 41
0.5
 72
     1
 11
137.5079999999999
 21
151.143
 31
0.0
  0
TEXT
  5
45
  8
0
 62
     7
 10
137.5079999999999
 20
73.754124999999988
 30
0.0
 40
3.0923400000000001
  1
45
 50
90.0
 41
0.5
 72
     1
 11
137.5079999999999
 21
75.042599999999993
 31
0.0
  0
TEXT
  5
46
  8
0
 62
     7
 10
113.702
 20
131.31028749999999
 30
0.0
 40
3.0923400000000001
  1
403
 50
90.0
 41
0.5
 72
     1
 11
113.702
 21
133.24299999999999
 31
0.0
  0
TEXT
  5
47
  8
0
 62
     7
 10
113.702
 20
91.009987499999994
 30
0.0
 40
3.0923400000000001
  1
403
 50
90.0
 41
0.5
 72
     1
 11
113.702
 21
92.942700000000002
 31
0.0
  0
TEXT
  5
48
  8
0
 62
     7
 10
38.772399999999998
 20
239.18265999999991
 30
0.0
 40
3.0923400000000001
  1
369.5
 50
90.0
 41
0.5
 72
     1
 11
38.772399999999998
 21
242.27500000000001
 31
0.0
  0
TEXT
  5
49
  8
0
 62
     7
 10
38.772399999999998
 20
202.2326599999999
 30
0.0
 40
3.0923400000000001
  1
369.5
 50
90.0
 41
0.5
 72
     1
 11
38.772399999999998
 21
205.3249999999999
 31
0.0
  0
TEXT
  5
4A
  8
0
 62
     7
 10
30.998100000000001
 20
221.73844
 30
0.0
 40
3.0923400000000001
  1
739
 50
90.0
 41
0.5
 72
     1
 11
30.998100000000001
 21
223.7999999999999
 31
0.0
  0
TEXT
  5
4B
  8
0
 62
     7
 10
37.4694
 20
111.1602874999999
 30
0.0
 40
3.0923400000000001
  1
806
 50
90.0
 41
0.5
 72
     1
 11
37.4694
 21
113.0929999999999
 31
0.0
  0
ARC
  5
4C
  8
0
 62
     7
 10
98.699250000000021
 20
188.8495289999999
 30
0.0
 40
1.9999769999999999
 50
270.00248699999997
 51
0.002457
  0
LINE
  5
4D
  8
0
 62
     7
 10
98.699299999999994
 20
186.84999999999999
 30
0.0
 11
52.098999999999997
 21
186.84999999999999
 31
0.0
  0
ARC
  5
4E
  8
0
 62
     7
 10
52.099043999999999
 20
188.8495289999999
 30
0.0
 40
1.9999759999999991
 50
179.99750299999991
 51
269.99755199999993
  0
LINE
  5
4F
  8
0
 62
     7
 10
50.0991
 20
188.84999999999999
 30
0.0
 11
50.0991
 21
258.74999999999989
 31
0.0
  0
ARC
  5
50
  8
0
 62
     7
 10
52.099044999999997
 20
258.75009699999998
 30
0.0
 40
1.9999769999999999
 50
90.00246700000001
 51
180.002477
  0
LINE
  5
51
  8
0
 62
     7
 10
52.098999999999997
 20
260.74999999999989
 30
0.0
 11
98.699299999999994
 21
260.74999999999989
 31
0.0
  0
ARC
  5
52
  8
0
 62
     7
 10
98.699250000000021
 20
258.75009699999998
 30
0.0
 40
1.9999769999999999
 50
359.99754300000001
 51
89.997512999999984
  0
LINE
  5
53
  8
0
 62
     7
 10
100.699
 20
258.74999999999989
 30
0.0
 11
100.699
 21
188.84999999999999
 31
0.0
  0
LINE
  5
54
  8
0
 62
     7
 10
50.0989
 20
261.44199999999989
 30
0.0
 11
50.0989
 21
273.95999999999992
 31
0.0
  0
LINE
  5
55
  8
0
  6
AIGENLINE001
 62
     7
 10
75.399100000000004
 20
181.79899999999989
 30
0.0
 11
75.399100000000004
 21
265.80000000000001
 31
0.0
  0
LINE
  5
56
  8
0
 62
     7
 10
170.72099999999989
 20
230.42199999999991
 30
0.0
 11
169.11699999999999
 21
232.02699999999999
 31
0.0
  0
LINE
  5
57
  8
0
 62
     7
 10
169.57400000000001
 20
232.41
 30
0.0
 11
169.04599999999991
 21
232.93799999999999
 31
0.0
  0
LINE
  5
58
  8
0
 62
     7
 10
169.55799999999991
 20
233.26699999999991
 30
0.0
 11
168.95500000000001
 21
233.87
 31
0.0
  0
LINE
  5
59
  8
0
 62
     7
 10
169.54400000000001
 20
234.12899999999999
 30
0.0
 11
169.06700000000001
 21
234.60599999999999
 31
0.0
  0
LINE
  5
5A
  8
0
 62
     7
 10
179.1629999999999
 20
248.589
 30
0.0
 11
178.57099999999991
 21
250.80000000000001
 31
0.0
  0
LINE
  5
5B
  8
0
 62
     7
 10
178.57099999999991
 20
250.80000000000001
 30
0.0
 11
177.97799999999989
 21
248.589
 31
0.0
  0
LINE
  5
5C
  8
0
 62
     7
 10
177.97799999999989
 20
248.589
 30
0.0
 11
179.1629999999999
 21
248.589
 31
0.0
  0
LINE
  5
5D
  8
0
 62
     7
 10
177.99299999999999
 20
224.00999999999991
 30
0.0
 11
178.58500000000001
 21
221.79899999999989
 31
0.0
  0
LINE
  5
5E
  8
0
 62
     7
 10
178.58500000000001
 20
221.79899999999989
 30
0.0
 11
179.17799999999991
 21
224.00999999999991
 31
0.0
  0
LINE
  5
5F
  8
0
 62
     7
 10
179.17799999999991
 20
224.00999999999991
 30
0.0
 11
177.99299999999999
 21
224.00999999999991
 31
0.0
  0
LINE
  5
60
  8
0
 62
     7
 10
178.578
 20
250.80000000000001
 30
0.0
 11
178.578
 21
221.79899999999989
 31
0.0
  0
LINE
  5
61
  8
0
 62
     7
 10
141.94300000000001
 20
246.05799999999991
 30
0.0
 11
141.34999999999991
 21
248.26900000000001
 31
0.0
  0
LINE
  5
62
  8
0
 62
     7
 10
141.34999999999991
 20
248.26900000000001
 30
0.0
 11
140.7579999999999
 21
246.05799999999991
 31
0.0
  0
LINE
  5
63
  8
0
 62
     7
 10
140.7579999999999
 20
246.05799999999991
 30
0.0
 11
141.94300000000001
 21
246.05799999999991
 31
0.0
  0
LINE
  5
64
  8
0
 62
     7
 10
141.94300000000001
 20
253.011
 30
0.0
 11
141.34999999999991
 21
250.80000000000001
 31
0.0
  0
LINE
  5
65
  8
0
 62
     7
 10
141.34999999999991
 20
250.80000000000001
 30
0.0
 11
140.7579999999999
 21
253.011
 31
0.0
  0
LINE
  5
66
  8
0
 62
     7
 10
140.7579999999999
 20
253.011
 30
0.0
 11
141.94300000000001
 21
253.011
 31
0.0
  0
LINE
  5
67
  8
0
 62
     7
 10
141.358
 20
257.25099999999992
 30
0.0
 11
141.358
 21
244.6579999999999
 31
0.0
  0
LINE
  5
68
  8
0
 62
     7
 10
109.711
 20
183.262
 30
0.0
 11
104.3739999999999
 21
183.262
 31
0.0
  0
LINE
  5
69
  8
0
 62
     7
 10
101.30200000000001
 20
185.5
 30
0.0
 11
100.1549999999999
 21
187.48099999999999
 31
0.0
  0
LINE
  5
6A
  8
0
 62
     7
 10
100.1549999999999
 20
187.48099999999999
 30
0.0
 11
102.13799999999991
 21
186.339
 31
0.0
  0
LINE
  5
6B
  8
0
 62
     7
 10
102.13799999999991
 20
186.339
 30
0.0
 11
101.30200000000001
 21
185.5
 31
0.0
  0
LINE
  5
6C
  8
0
 62
     7
 10
104.3739999999999
 20
183.262
 30
0.0
 11
100.1549999999999
 21
187.48099999999999
 31
0.0
  0
LINE
  5
6D
  8
0
 62
     7
 10
151.8899999999999
 20
242.96000000000001
 30
0.0
 11
149.679
 21
242.36799999999999
 31
0.0
  0
LINE
  5
6E
  8
0
 62
     7
 10
149.679
 20
242.36799999999999
 30
0.0
 11
151.8899999999999
 21
241.7759999999999
 31
0.0
  0
LINE
  5
6F
  8
0
 62
     7
 10
151.8899999999999
 20
241.7759999999999
 30
0.0
 11
151.8899999999999
 21
242.96000000000001
 31
0.0
  0
LINE
  5
70
  8
0
 62
     7
 10
146.26699999999991
 20
242.96000000000001
 30
0.0
 11
148.47799999999989
 21
242.36799999999999
 31
0.0
  0
LINE
  5
71
  8
0
 62
     7
 10
148.47799999999989
 20
242.36799999999999
 30
0.0
 11
146.26699999999991
 21
241.7759999999999
 31
0.0
  0
LINE
  5
72
  8
0
 62
     7
 10
146.26699999999991
 20
241.7759999999999
 30
0.0
 11
146.26699999999991
 21
242.96000000000001
 31
0.0
  0
LINE
  5
73
  8
0
 62
     7
 10
144.87499999999989
 20
242.375
 30
0.0
 11
157.04299999999989
 21
242.375
 31
0.0
  0
LINE
  5
74
  8
0
 62
     7
 10
152.09
 20
159.51900000000001
 30
0.0
 11
149.87799999999999
 21
158.92699999999999
 31
0.0
  0
LINE
  5
75
  8
0
 62
     7
 10
149.87799999999999
 20
158.92699999999999
 30
0.0
 11
152.09
 21
158.33399999999989
 31
0.0
  0
LINE
  5
76
  8
0
 62
     7
 10
152.09
 20
158.33399999999989
 30
0.0
 11
152.09
 21
159.51900000000001
 31
0.0
  0
LINE
  5
77
  8
0
 62
     7
 10
146.26699999999991
 20
159.51900000000001
 30
0.0
 11
148.47799999999989
 21
158.92699999999999
 31
0.0
  0
LINE
  5
78
  8
0
 62
     7
 10
148.47799999999989
 20
158.92699999999999
 30
0.0
 11
146.26699999999991
 21
158.33399999999989
 31
0.0
  0
LINE
  5
79
  8
0
 62
     7
 10
146.26699999999991
 20
158.33399999999989
 30
0.0
 11
146.26699999999991
 21
159.51900000000001
 31
0.0
  0
LINE
  5
7A
  8
0
 62
     7
 10
141.8479999999999
 20
158.93399999999991
 30
0.0
 11
153.14199999999991
 21
158.93399999999991
 31
0.0
  0
LINE
  5
7B
  8
0
 62
     7
 10
173.089
 20
120.14700000000001
 30
0.0
 11
170.87899999999999
 21
119.55500000000001
 31
0.0
  0
LINE
  5
7C
  8
0
 62
     7
 10
170.87899999999999
 20
119.55500000000001
 30
0.0
 11
173.089
 21
118.96299999999989
 31
0.0
  0
LINE
  5
7D
  8
0
 62
     7
 10
173.089
 20
118.96299999999989
 30
0.0
 11
173.089
 21
120.14700000000001
 31
0.0
  0
LINE
  5
7E
  8
0
 62
     7
 10
150.68899999999999
 20
120.14700000000001
 30
0.0
 11
148.47799999999989
 21
119.55500000000001
 31
0.0
  0
LINE
  5
7F
  8
0
 62
     7
 10
148.47799999999989
 20
119.55500000000001
 30
0.0
 11
150.68899999999999
 21
118.96299999999989
 31
0.0
  0
LINE
  5
80
  8
0
 62
     7
 10
150.68899999999999
 20
118.96299999999989
 30
0.0
 11
150.68899999999999
 21
120.14700000000001
 31
0.0
  0
LINE
  5
81
  8
0
 62
     7
 10
166.86799999999991
 20
118.977
 30
0.0
 11
169.07899999999989
 21
119.56999999999989
 31
0.0
  0
LINE
  5
82
  8
0
 62
     7
 10
169.07899999999989
 20
119.56999999999989
 30
0.0
 11
166.86799999999991
 21
120.16200000000001
 31
0.0
  0
LINE
  5
83
  8
0
 62
     7
 10
166.86799999999991
 20
120.16200000000001
 30
0.0
 11
166.86799999999991
 21
118.977
 31
0.0
  0
LINE
  5
84
  8
0
 62
     7
 10
148.47799999999989
 20
119.562
 30
0.0
 11
176.82599999999991
 21
119.562
 31
0.0
  0
LINE
  5
85
  8
0
 62
     7
 10
150.68899999999999
 20
165.798
 30
0.0
 11
148.47799999999989
 21
165.2059999999999
 31
0.0
  0
LINE
  5
86
  8
0
 62
     7
 10
148.47799999999989
 20
165.2059999999999
 30
0.0
 11
150.68899999999999
 21
164.613
 31
0.0
  0
LINE
  5
87
  8
0
 62
     7
 10
150.68899999999999
 20
164.613
 30
0.0
 11
150.68899999999999
 21
165.798
 31
0.0
  0
LINE
  5
88
  8
0
 62
     7
 10
168.667
 20
164.6279999999999
 30
0.0
 11
170.87899999999999
 21
165.22
 31
0.0
  0
LINE
  5
89
  8
0
 62
     7
 10
170.87899999999999
 20
165.22
 30
0.0
 11
168.667
 21
165.8129999999999
 31
0.0
  0
LINE
  5
8A
  8
0
 62
     7
 10
168.667
 20
165.8129999999999
 30
0.0
 11
168.667
 21
164.6279999999999
 31
0.0
  0
LINE
  5
8B
  8
0
 62
     7
 10
148.47799999999989
 20
165.21299999999991
 30
0.0
 11
170.87899999999999
 21
165.21299999999991
 31
0.0
  0
LINE
  5
8C
  8
0
 62
     7
 10
170.87899999999999
 20
123.4199999999999
 30
0.0
 11
170.87899999999999
 21
165.90599999999989
 31
0.0
  0
LINE
  5
8D
  8
0
 62
     7
 10
149.87799999999999
 20
154.268
 30
0.0
 11
149.87799999999999
 21
159.62700000000001
 31
0.0
  0
LINE
  5
8E
  8
0
 62
     7
 10
148.47799999999989
 20
153.63599999999991
 30
0.0
 11
148.47799999999989
 21
165.90599999999989
 31
0.0
  0
LINE
  5
8F
  8
0
 62
     7
 10
51.262999999999998
 20
110.6449999999999
 30
0.0
 11
53.244999999999997
 21
111.79000000000001
 31
0.0
  0
LINE
  5
90
  8
0
 62
     7
 10
53.244999999999997
 20
111.79000000000001
 30
0.0
 11
52.10049999999999
 21
109.807
 31
0.0
  0
LINE
  5
91
  8
0
 62
     7
 10
52.10049999999999
 20
109.807
 30
0.0
 11
51.262999999999998
 21
110.6449999999999
 31
0.0
  0
LINE
  5
92
  8
0
 62
     7
 10
57.839399999999998
 20
115.545
 30
0.0
 11
55.857399999999998
 21
114.401
 31
0.0
  0
LINE
  5
93
  8
0
 62
     7
 10
55.857399999999998
 20
114.401
 30
0.0
 11
57.001899999999999
 21
116.3829999999999
 31
0.0
  0
LINE
  5
94
  8
0
 62
     7
 10
57.001899999999999
 20
116.3829999999999
 30
0.0
 11
57.839399999999998
 21
115.545
 31
0.0
  0
LINE
  5
95
  8
0
 62
     7
 10
51.43869999999999
 20
109.9829999999999
 30
0.0
 11
63.600000000000001
 21
122.1449999999999
 31
0.0
  0
LINE
  5
96
  8
0
 62
     7
 10
63.600000000000001
 20
122.1449999999999
 30
0.0
 11
72.194199999999995
 21
122.1449999999999
 31
0.0
  0
LINE
  5
97
  8
0
 62
     7
 10
83.348799999999997
 20
106.979
 30
0.0
 11
93.685799999999986
 21
106.979
 31
0.0
  0
LINE
  5
98
  8
0
 62
     7
 10
72.482200000000006
 20
117.029
 30
0.0
 11
71.337699999999998
 21
119.011
 31
0.0
  0
LINE
  5
99
  8
0
 62
     7
 10
71.337699999999998
 20
119.011
 30
0.0
 11
73.319999999999993
 21
117.866
 31
0.0
  0
LINE
  5
9A
  8
0
 62
     7
 10
73.319999999999993
 20
117.866
 30
0.0
 11
72.482200000000006
 21
117.029
 31
0.0
  0
LINE
  5
9B
  8
0
 62
     7
 10
82.203900000000004
 20
108.9609999999999
 30
0.0
 11
83.348799999999997
 21
106.979
 31
0.0
  0
LINE
  5
9C
  8
0
 62
     7
 10
83.348799999999997
 20
106.979
 30
0.0
 11
81.366100000000003
 21
108.1239999999999
 31
0.0
  0
LINE
  5
9D
  8
0
 62
     7
 10
81.366100000000003
 20
108.1239999999999
 30
0.0
 11
82.203900000000004
 21
108.9609999999999
 31
0.0
  0
LINE
  5
9E
  8
0
 62
     7
 10
71.332899999999995
 20
119.005
 30
0.0
 11
83.353899999999996
 21
106.9839999999999
 31
0.0
  0
LINE
  5
9F
  8
0
 62
     7
 10
56.75930000000001
 20
100.1179999999999
 30
0.0
 11
54.548999999999999
 21
99.525300000000016
 31
0.0
  0
LINE
  5
A0
  8
0
 62
     7
 10
54.548999999999999
 20
99.525300000000016
 30
0.0
 11
56.75930000000001
 21
98.932700000000011
 31
0.0
  0
LINE
  5
A1
  8
0
 62
     7
 10
56.75930000000001
 20
98.932700000000011
 30
0.0
 11
56.75930000000001
 21
100.1179999999999
 31
0.0
  0
LINE
  5
A2
  8
0
 62
     7
 10
57.187899999999999
 20
98.947599999999994
 30
0.0
 11
59.398999999999987
 21
99.539800000000014
 31
0.0
  0
LINE
  5
A3
  8
0
 62
     7
 10
59.398999999999987
 20
99.539800000000014
 30
0.0
 11
57.187899999999999
 21
100.13199999999991
 31
0.0
  0
LINE
  5
A4
  8
0
 62
     7
 10
57.187899999999999
 20
100.13199999999991
 30
0.0
 11
57.187899999999999
 21
98.947599999999994
 31
0.0
  0
LINE
  5
A5
  8
0
 62
     7
 10
50.609499999999997
 20
100.1179999999999
 30
0.0
 11
48.39909999999999
 21
99.525300000000016
 31
0.0
  0
LINE
  5
A6
  8
0
 62
     7
 10
48.39909999999999
 20
99.525300000000016
 30
0.0
 11
50.609499999999997
 21
98.932700000000011
 31
0.0
  0
LINE
  5
A7
  8
0
 62
     7
 10
50.609499999999997
 20
98.932700000000011
 30
0.0
 11
50.609499999999997
 21
100.1179999999999
 31
0.0
  0
LINE
  5
A8
  8
0
 62
     7
 10
52.337899999999991
 20
98.947599999999994
 30
0.0
 11
54.548999999999999
 21
99.539800000000014
 31
0.0
  0
LINE
  5
A9
  8
0
 62
     7
 10
54.548999999999999
 20
99.539800000000014
 30
0.0
 11
52.337899999999991
 21
100.13199999999991
 31
0.0
  0
LINE
  5
AA
  8
0
 62
     7
 10
52.337899999999991
 20
100.13199999999991
 30
0.0
 11
52.337899999999991
 21
98.947599999999994
 31
0.0
  0
LINE
  5
AB
  8
0
 62
     7
 10
41.868199999999987
 20
99.532499999999999
 30
0.0
 11
67.215599999999995
 21
99.532499999999999
 31
0.0
  0
LINE
  5
AC
  8
0
 62
     7
 10
50.609499999999997
 20
165.798
 30
0.0
 11
48.39909999999999
 21
165.2059999999999
 31
0.0
  0
LINE
  5
AD
  8
0
 62
     7
 10
48.39909999999999
 20
165.2059999999999
 30
0.0
 11
50.609499999999997
 21
164.613
 31
0.0
  0
LINE
  5
AE
  8
0
 62
     7
 10
50.609499999999997
 20
164.613
 30
0.0
 11
50.609499999999997
 21
165.798
 31
0.0
  0
LINE
  5
AF
  8
0
 62
     7
 10
57.279600000000002
 20
164.6279999999999
 30
0.0
 11
59.490600000000001
 21
165.22
 31
0.0
  0
LINE
  5
B0
  8
0
 62
     7
 10
59.490600000000001
 20
165.22
 30
0.0
 11
57.279600000000002
 21
165.8129999999999
 31
0.0
  0
LINE
  5
B1
  8
0
 62
     7
 10
57.279600000000002
 20
165.8129999999999
 30
0.0
 11
57.279600000000002
 21
164.6279999999999
 31
0.0
  0
LINE
  5
B2
  8
0
 62
     7
 10
48.39909999999999
 20
165.21299999999991
 30
0.0
 11
108.199
 21
165.21299999999991
 31
0.0
  0
LINE
  5
B3
  8
0
 62
     7
 10
61.609400000000001
 20
165.81200000000001
 30
0.0
 11
59.398999999999987
 21
165.22
 31
0.0
  0
LINE
  5
B4
  8
0
 62
     7
 10
59.398999999999987
 20
165.22
 30
0.0
 11
61.609400000000001
 21
164.6279999999999
 31
0.0
  0
LINE
  5
B5
  8
0
 62
     7
 10
61.609400000000001
 20
164.6279999999999
 30
0.0
 11
61.609400000000001
 21
165.81200000000001
 31
0.0
  0
LINE
  5
B6
  8
0
 62
     7
 10
97.187999999999988
 20
164.64199999999991
 30
0.0
 11
99.399000000000015
 21
165.23500000000001
 31
0.0
  0
LINE
  5
B7
  8
0
 62
     7
 10
99.399000000000015
 20
165.23500000000001
 30
0.0
 11
97.187999999999988
 21
165.82699999999991
 31
0.0
  0
LINE
  5
B8
  8
0
 62
     7
 10
97.187999999999988
 20
165.82699999999991
 30
0.0
 11
97.187999999999988
 21
164.64199999999991
 31
0.0
  0
LINE
  5
B9
  8
0
 62
     7
 10
104.61
 20
164.64199999999991
 30
0.0
 11
102.3989999999999
 21
165.23500000000001
 31
0.0
  0
LINE
  5
BA
  8
0
 62
     7
 10
102.3989999999999
 20
165.23500000000001
 30
0.0
 11
104.61
 21
165.82699999999991
 31
0.0
  0
LINE
  5
BB
  8
0
 62
     7
 10
104.61
 20
165.82699999999991
 30
0.0
 11
104.61
 21
164.64199999999991
 31
0.0
  0
LINE
  5
BC
  8
0
 62
     7
 10
52.282200000000003
 20
207.2359999999999
 30
0.0
 11
50.071899999999999
 21
206.64299999999989
 31
0.0
  0
LINE
  5
BD
  8
0
 62
     7
 10
50.071899999999999
 20
206.64299999999989
 30
0.0
 11
52.282200000000003
 21
206.0509999999999
 31
0.0
  0
LINE
  5
BE
  8
0
 62
     7
 10
52.282200000000003
 20
206.0509999999999
 30
0.0
 11
52.282200000000003
 21
207.2359999999999
 31
0.0
  0
LINE
  5
BF
  8
0
 62
     7
 10
75.188100000000006
 20
206.06599999999989
 30
0.0
 11
77.399199999999993
 21
206.65799999999999
 31
0.0
  0
LINE
  5
C0
  8
0
 62
     7
 10
77.399199999999993
 20
206.65799999999999
 30
0.0
 11
75.188100000000006
 21
207.25
 31
0.0
  0
LINE
  5
C1
  8
0
 62
     7
 10
75.188100000000006
 20
207.25
 30
0.0
 11
75.188100000000006
 21
206.06599999999989
 31
0.0
  0
LINE
  5
C2
  8
0
 62
     7
 10
50.071899999999999
 20
206.65100000000001
 30
0.0
 11
77.399199999999993
 21
206.65100000000001
 31
0.0
  0
LINE
  5
C3
  8
0
 62
     7
 10
77.399199999999993
 20
205.95799999999991
 30
0.0
 11
77.398899999999983
 21
212.84999999999991
 31
0.0
  0
LINE
  5
C4
  8
0
 62
     7
 10
79.609300000000005
 20
241.53399999999999
 30
0.0
 11
77.398899999999983
 21
240.94200000000001
 31
0.0
  0
LINE
  5
C5
  8
0
 62
     7
 10
77.398899999999983
 20
240.94200000000001
 30
0.0
 11
79.609300000000005
 21
240.34899999999999
 31
0.0
  0
LINE
  5
C6
  8
0
 62
     7
 10
79.609300000000005
 20
240.34899999999999
 30
0.0
 11
79.609300000000005
 21
241.53399999999999
 31
0.0
  0
LINE
  5
C7
  8
0
 62
     7
 10
73.187700000000007
 20
240.34899999999999
 30
0.0
 11
75.398799999999994
 21
240.94200000000001
 31
0.0
  0
LINE
  5
C8
  8
0
 62
     7
 10
75.398799999999994
 20
240.94200000000001
 30
0.0
 11
73.187700000000007
 21
241.53399999999999
 31
0.0
  0
LINE
  5
C9
  8
0
 62
     7
 10
73.187700000000007
 20
241.53399999999999
 30
0.0
 11
73.187700000000007
 21
240.34899999999999
 31
0.0
  0
LINE
  5
CA
  8
0
 62
     7
 10
71.058300000000003
 20
240.94200000000001
 30
0.0
 11
84.450699999999983
 21
240.94200000000001
 31
0.0
  0
LINE
  5
CB
  8
0
 62
     7
 10
77.398899999999983
 20
234.75
 30
0.0
 11
77.398499999999999
 21
241.642
 31
0.0
  0
LINE
  5
CC
  8
0
 62
     7
 10
79.6096
 20
96.543199999999999
 30
0.0
 11
77.399199999999993
 21
95.950999999999993
 31
0.0
  0
LINE
  5
CD
  8
0
 62
     7
 10
77.399199999999993
 20
95.950999999999993
 30
0.0
 11
79.6096
 21
95.358400000000003
 31
0.0
  0
LINE
  5
CE
  8
0
 62
     7
 10
79.6096
 20
95.358400000000003
 30
0.0
 11
79.6096
 21
96.543199999999999
 31
0.0
  0
LINE
  5
CF
  8
0
 62
     7
 10
73.188100000000006
 20
95.358800000000002
 30
0.0
 11
75.399100000000004
 21
95.950999999999993
 31
0.0
  0
LINE
  5
D0
  8
0
 62
     7
 10
75.399100000000004
 20
95.950999999999993
 30
0.0
 11
73.188100000000006
 21
96.543599999999998
 31
0.0
  0
LINE
  5
D1
  8
0
 62
     7
 10
73.188100000000006
 20
96.543599999999998
 30
0.0
 11
73.188100000000006
 21
95.358800000000002
 31
0.0
  0
LINE
  5
D2
  8
0
 62
     7
 10
71.058599999999984
 20
95.950999999999993
 30
0.0
 11
84.451000000000008
 21
95.950999999999993
 31
0.0
  0
LINE
  5
D3
  8
0
 62
     7
 10
50.609499999999997
 20
130.81200000000001
 30
0.0
 11
48.39909999999999
 21
130.22
 31
0.0
  0
LINE
  5
D4
  8
0
 62
     7
 10
48.39909999999999
 20
130.22
 30
0.0
 11
50.609499999999997
 21
129.6279999999999
 31
0.0
  0
LINE
  5
D5
  8
0
 62
     7
 10
50.609499999999997
 20
129.6279999999999
 30
0.0
 11
50.609499999999997
 21
130.81200000000001
 31
0.0
  0
LINE
  5
D6
  8
0
 62
     7
 10
75.188100000000006
 20
129.64299999999989
 30
0.0
 11
77.399199999999993
 21
130.23500000000001
 31
0.0
  0
LINE
  5
D7
  8
0
 62
     7
 10
77.399199999999993
 20
130.23500000000001
 30
0.0
 11
75.188100000000006
 21
130.827
 31
0.0
  0
LINE
  5
D8
  8
0
 62
     7
 10
75.188100000000006
 20
130.827
 30
0.0
 11
75.188100000000006
 21
129.64299999999989
 31
0.0
  0
LINE
  5
D9
  8
0
 62
     7
 10
48.39909999999999
 20
130.227
 30
0.0
 11
77.399199999999993
 21
130.227
 31
0.0
  0
LINE
  5
DA
  8
0
 62
     7
 10
50.609099999999991
 20
64.370999999999995
 30
0.0
 11
48.398699999999998
 21
63.778799999999997
 31
0.0
  0
LINE
  5
DB
  8
0
 62
     7
 10
48.398699999999998
 20
63.778799999999997
 30
0.0
 11
50.609099999999991
 21
63.186199999999999
 31
0.0
  0
LINE
  5
DC
  8
0
 62
     7
 10
50.609099999999991
 20
63.186199999999999
 30
0.0
 11
50.609099999999991
 21
64.370999999999995
 31
0.0
  0
LINE
  5
DD
  8
0
 62
     7
 10
77.609499999999997
 20
64.370999999999995
 30
0.0
 11
75.399100000000004
 21
63.778799999999997
 31
0.0
  0
LINE
  5
DE
  8
0
 62
     7
 10
75.399100000000004
 20
63.778799999999997
 30
0.0
 11
77.609499999999997
 21
63.186199999999999
 31
0.0
  0
LINE
  5
DF
  8
0
 62
     7
 10
77.609499999999997
 20
63.186199999999999
 30
0.0
 11
77.609499999999997
 21
64.370999999999995
 31
0.0
  0
LINE
  5
E0
  8
0
 62
     7
 10
73.188100000000006
 20
63.186599999999999
 30
0.0
 11
75.399100000000004
 21
63.778799999999997
 31
0.0
  0
LINE
  5
E1
  8
0
 62
     7
 10
75.399100000000004
 20
63.778799999999997
 30
0.0
 11
73.188100000000006
 21
64.371300000000005
 31
0.0
  0
LINE
  5
E2
  8
0
 62
     7
 10
73.188100000000006
 20
64.371300000000005
 30
0.0
 11
73.188100000000006
 21
63.186599999999999
 31
0.0
  0
LINE
  5
E3
  8
0
 62
     7
 10
100.1879999999999
 20
63.201000000000001
 30
0.0
 11
102.3989999999999
 21
63.793199999999992
 31
0.0
  0
LINE
  5
E4
  8
0
 62
     7
 10
102.3989999999999
 20
63.793199999999992
 30
0.0
 11
100.1879999999999
 21
64.385800000000003
 31
0.0
  0
LINE
  5
E5
  8
0
 62
     7
 10
100.1879999999999
 20
64.385800000000003
 30
0.0
 11
100.1879999999999
 21
63.201000000000001
 31
0.0
  0
LINE
  5
E6
  8
0
 62
     7
 10
48.398699999999998
 20
63.786000000000001
 30
0.0
 11
102.3989999999999
 21
63.786000000000001
 31
0.0
  0
LINE
  5
E7
  8
0
 62
     7
 10
48.398699999999998
 20
63.078699999999998
 30
0.0
 11
48.398699999999998
 21
74.642600000000002
 31
0.0
  0
LINE
  5
E8
  8
0
 62
     7
 10
102.3989999999999
 20
63.078699999999998
 30
0.0
 11
102.3989999999999
 21
74.642600000000002
 31
0.0
  0
LINE
  5
E9
  8
0
 62
     7
 10
75.399100000000004
 20
63.078699999999998
 30
0.0
 11
75.399100000000004
 21
70.275899999999993
 31
0.0
  0
LINE
  5
EA
  8
0
 62
     7
 10
57.188600000000001
 20
159.512
 30
0.0
 11
59.398999999999987
 21
158.9199999999999
 31
0.0
  0
LINE
  5
EB
  8
0
 62
     7
 10
59.398999999999987
 20
158.9199999999999
 30
0.0
 11
57.188600000000001
 21
158.32699999999991
 31
0.0
  0
LINE
  5
EC
  8
0
 62
     7
 10
57.188600000000001
 20
158.32699999999991
 30
0.0
 11
57.188600000000001
 21
159.512
 31
0.0
  0
LINE
  5
ED
  8
0
 62
     7
 10
46.188699999999997
 20
159.512
 30
0.0
 11
48.39909999999999
 21
158.9199999999999
 31
0.0
  0
LINE
  5
EE
  8
0
 62
     7
 10
48.39909999999999
 20
158.9199999999999
 30
0.0
 11
46.188699999999997
 21
158.32699999999991
 31
0.0
  0
LINE
  5
EF
  8
0
 62
     7
 10
46.188699999999997
 20
158.32699999999991
 30
0.0
 11
46.188699999999997
 21
159.512
 31
0.0
  0
LINE
  5
F0
  8
0
 62
     7
 10
53.309399999999997
 20
159.512
 30
0.0
 11
51.09899999999999
 21
158.9199999999999
 31
0.0
  0
LINE
  5
F1
  8
0
 62
     7
 10
51.09899999999999
 20
158.9199999999999
 30
0.0
 11
53.309399999999997
 21
158.32699999999991
 31
0.0
  0
LINE
  5
F2
  8
0
 62
     7
 10
53.309399999999997
 20
158.32699999999991
 30
0.0
 11
53.309399999999997
 21
159.512
 31
0.0
  0
LINE
  5
F3
  8
0
 62
     7
 10
42.795900000000003
 20
158.92699999999999
 30
0.0
 11
59.398999999999987
 21
158.92699999999999
 31
0.0
  0
LINE
  5
F4
  8
0
 62
     7
 10
47.888500000000001
 20
236.249
 30
0.0
 11
50.0989
 21
235.65700000000001
 31
0.0
  0
LINE
  5
F5
  8
0
 62
     7
 10
50.0989
 20
235.65700000000001
 30
0.0
 11
47.888500000000001
 21
235.06399999999999
 31
0.0
  0
LINE
  5
F6
  8
0
 62
     7
 10
47.888500000000001
 20
235.06399999999999
 30
0.0
 11
47.888500000000001
 21
236.249
 31
0.0
  0
LINE
  5
F7
  8
0
 62
     7
 10
56.744199999999999
 20
235.07899999999989
 30
0.0
 11
54.533099999999997
 21
235.672
 31
0.0
  0
LINE
  5
F8
  8
0
 62
     7
 10
54.533099999999997
 20
235.672
 30
0.0
 11
56.744199999999999
 21
236.26400000000001
 31
0.0
  0
LINE
  5
F9
  8
0
 62
     7
 10
56.744199999999999
 20
236.26400000000001
 30
0.0
 11
56.744199999999999
 21
235.07899999999989
 31
0.0
  0
LINE
  5
FA
  8
0
 62
     7
 10
63.1325
 20
235.66399999999999
 30
0.0
 11
46.7864
 21
235.66399999999999
 31
0.0
  0
LINE
  5
FB
  8
0
 62
     7
 10
77.625200000000007
 20
268.48200000000003
 30
0.0
 11
75.414799999999985
 21
267.88999999999999
 31
0.0
  0
LINE
  5
FC
  8
0
 62
     7
 10
75.414799999999985
 20
267.88999999999999
 30
0.0
 11
77.625200000000007
 21
267.29700000000003
 31
0.0
  0
LINE
  5
FD
  8
0
 62
     7
 10
77.625200000000007
 20
267.29700000000003
 30
0.0
 11
77.625200000000007
 21
268.48200000000003
 31
0.0
  0
LINE
  5
FE
  8
0
 62
     7
 10
98.488200000000006
 20
267.31200000000001
 30
0.0
 11
100.699
 21
267.904
 31
0.0
  0
LINE
  5
FF
  8
0
 62
     7
 10
100.699
 20
267.904
 30
0.0
 11
98.488200000000006
 21
268.49700000000001
 31
0.0
  0
LINE
  5
100
  8
0
 62
     7
 10
98.488200000000006
 20
268.49700000000001
 30
0.0
 11
98.488200000000006
 21
267.31200000000001
 31
0.0
  0
LINE
  5
101
  8
0
 62
     7
 10
52.325099999999999
 20
268.48200000000003
 30
0.0
 11
50.114699999999999
 21
267.88999999999999
 31
0.0
  0
LINE
  5
102
  8
0
 62
     7
 10
50.114699999999999
 20
267.88999999999999
 30
0.0
 11
52.325099999999999
 21
267.29700000000003
 31
0.0
  0
LINE
  5
103
  8
0
 62
     7
 10
52.325099999999999
 20
267.29700000000003
 30
0.0
 11
52.325099999999999
 21
268.48200000000003
 31
0.0
  0
LINE
  5
104
  8
0
 62
     7
 10
73.188100000000006
 20
267.31200000000001
 30
0.0
 11
75.399100000000004
 21
267.904
 31
0.0
  0
LINE
  5
105
  8
0
 62
     7
 10
75.399100000000004
 20
267.904
 30
0.0
 11
73.188100000000006
 21
268.49700000000001
 31
0.0
  0
LINE
  5
106
  8
0
 62
     7
 10
73.188100000000006
 20
268.49700000000001
 30
0.0
 11
73.188100000000006
 21
267.31200000000001
 31
0.0
  0
LINE
  5
107
  8
0
 62
     7
 10
50.114699999999999
 20
267.89699999999999
 30
0.0
 11
100.699
 21
267.89699999999999
 31
0.0
  0
LINE
  5
108
  8
0
 62
     7
 10
52.325099999999999
 20
273.85199999999998
 30
0.0
 11
50.114699999999999
 21
273.25999999999999
 31
0.0
  0
LINE
  5
109
  8
0
 62
     7
 10
50.114699999999999
 20
273.25999999999999
 30
0.0
 11
52.325099999999999
 21
272.66699999999997
 31
0.0
  0
LINE
  5
10A
  8
0
 62
     7
 10
52.325099999999999
 20
272.66699999999997
 30
0.0
 11
52.325099999999999
 21
273.85199999999998
 31
0.0
  0
LINE
  5
10B
  8
0
 62
     7
 10
98.488200000000006
 20
272.68200000000002
 30
0.0
 11
100.699
 21
273.274
 31
0.0
  0
LINE
  5
10C
  8
0
 62
     7
 10
100.699
 20
273.274
 30
0.0
 11
98.488200000000006
 21
273.86700000000002
 31
0.0
  0
LINE
  5
10D
  8
0
 62
     7
 10
98.488200000000006
 20
273.86700000000002
 30
0.0
 11
98.488200000000006
 21
272.68200000000002
 31
0.0
  0
LINE
  5
10E
  8
0
 62
     7
 10
50.114699999999999
 20
273.267
 30
0.0
 11
100.699
 21
273.267
 31
0.0
  0
LINE
  5
10F
  8
0
 62
     7
 10
75.399100000000004
 20
266.5
 30
0.0
 11
75.399100000000004
 21
268.60300000000001
 31
0.0
  0
LINE
  5
110
  8
0
 62
     7
 10
100.699
 20
261.44199999999989
 30
0.0
 11
100.699
 21
273.97399999999988
 31
0.0
  0
LINE
  5
111
  8
0
 62
     7
 10
50.609499999999997
 20
172.03599999999989
 30
0.0
 11
48.39909999999999
 21
171.44399999999999
 31
0.0
  0
LINE
  5
112
  8
0
 62
     7
 10
48.39909999999999
 20
171.44399999999999
 30
0.0
 11
50.609499999999997
 21
170.852
 31
0.0
  0
LINE
  5
113
  8
0
 62
     7
 10
50.609499999999997
 20
170.852
 30
0.0
 11
50.609499999999997
 21
172.03599999999989
 31
0.0
  0
LINE
  5
114
  8
0
 62
     7
 10
100.1879999999999
 20
170.8659999999999
 30
0.0
 11
102.3989999999999
 21
171.459
 31
0.0
  0
LINE
  5
115
  8
0
 62
     7
 10
102.3989999999999
 20
171.459
 30
0.0
 11
100.1879999999999
 21
172.0509999999999
 31
0.0
  0
LINE
  5
116
  8
0
 62
     7
 10
100.1879999999999
 20
172.0509999999999
 30
0.0
 11
100.1879999999999
 21
170.8659999999999
 31
0.0
  0
LINE
  5
117
  8
0
 62
     7
 10
48.39909999999999
 20
171.45099999999991
 30
0.0
 11
102.3989999999999
 21
171.45099999999991
 31
0.0
  0
LINE
  5
118
  8
0
 62
     7
 10
99.399000000000015
 20
147.04300000000001
 30
0.0
 11
99.399000000000015
 21
165.983
 31
0.0
  0
LINE
  5
119
  8
0
 62
     7
 10
102.3989999999999
 20
151.54300000000001
 30
0.0
 11
102.3989999999999
 21
172.15899999999999
 31
0.0
  0
LINE
  5
11A
  8
0
 62
     7
 10
59.398999999999987
 20
147.04300000000001
 30
0.0
 11
59.398999999999987
 21
165.91999999999999
 31
0.0
  0
LINE
  5
11B
  8
0
 62
     7
 10
51.09899999999999
 20
147.04300000000001
 30
0.0
 11
51.09899999999999
 21
159.66800000000001
 31
0.0
  0
LINE
  5
11C
  8
0
 62
     7
 10
54.548999999999999
 20
228.5
 30
0.0
 11
54.548999999999999
 21
236.37200000000001
 31
0.0
  0
LINE
  5
11D
  8
0
 62
     7
 10
54.548999999999999
 20
98.825299999999999
 30
0.0
 11
54.548999999999999
 21
108.3929999999999
 31
0.0
  0
LINE
  5
11E
  8
0
 62
     7
 10
48.39909999999999
 20
151.54300000000001
 30
0.0
 11
48.39909999999999
 21
172.14400000000001
 31
0.0
  0
LINE
  5
11F
  8
0
 62
     7
 10
135.24600000000001
 20
242.00999999999999
 30
0.0
 11
134.654
 21
239.80000000000001
 31
0.0
  0
LINE
  5
120
  8
0
 62
     7
 10
134.654
 20
239.80000000000001
 30
0.0
 11
134.06100000000001
 21
242.00999999999999
 31
0.0
  0
LINE
  5
121
  8
0
 62
     7
 10
134.06100000000001
 20
242.00999999999999
 30
0.0
 11
135.24600000000001
 21
242.00999999999999
 31
0.0
  0
LINE
  5
122
  8
0
 62
     7
 10
135.24600000000001
 20
248.589
 30
0.0
 11
134.654
 21
250.80000000000001
 31
0.0
  0
LINE
  5
123
  8
0
 62
     7
 10
134.654
 20
250.80000000000001
 30
0.0
 11
134.06100000000001
 21
248.589
 31
0.0
  0
LINE
  5
124
  8
0
 62
     7
 10
134.06100000000001
 20
248.589
 30
0.0
 11
135.24600000000001
 21
248.589
 31
0.0
  0
LINE
  5
125
  8
0
 62
     7
 10
135.24600000000001
 20
237.589
 30
0.0
 11
134.654
 21
239.80000000000001
 31
0.0
  0
LINE
  5
126
  8
0
 62
     7
 10
134.654
 20
239.80000000000001
 30
0.0
 11
134.06100000000001
 21
237.589
 31
0.0
  0
LINE
  5
127
  8
0
 62
     7
 10
134.06100000000001
 20
237.589
 30
0.0
 11
135.24600000000001
 21
237.589
 31
0.0
  0
LINE
  5
128
  8
0
 62
     7
 10
134.0689999999999
 20
194.58799999999999
 30
0.0
 11
134.661
 21
196.79900000000001
 31
0.0
  0
LINE
  5
129
  8
0
 62
     7
 10
134.661
 20
196.79900000000001
 30
0.0
 11
135.25399999999991
 21
194.58799999999999
 31
0.0
  0
LINE
  5
12A
  8
0
 62
     7
 10
135.25399999999991
 20
194.58799999999999
 30
0.0
 11
134.0689999999999
 21
194.58799999999999
 31
0.0
  0
LINE
  5
12B
  8
0
 62
     7
 10
134.0689999999999
 20
202.00999999999991
 30
0.0
 11
134.661
 21
199.79900000000001
 31
0.0
  0
LINE
  5
12C
  8
0
 62
     7
 10
134.661
 20
199.79900000000001
 30
0.0
 11
135.25399999999991
 21
202.00999999999991
 31
0.0
  0
LINE
  5
12D
  8
0
 62
     7
 10
135.25399999999991
 20
202.00999999999991
 30
0.0
 11
134.0689999999999
 21
202.00999999999991
 31
0.0
  0
LINE
  5
12E
  8
0
 62
     7
 10
134.654
 20
250.80000000000001
 30
0.0
 11
134.654
 21
190.03999999999991
 31
0.0
  0
LINE
  5
12F
  8
0
 62
     7
 10
133.95400000000001
 20
199.79900000000001
 30
0.0
 11
149.178
 21
199.79900000000001
 31
0.0
  0
LINE
  5
130
  8
0
 62
     7
 10
133.95400000000001
 20
196.79900000000001
 30
0.0
 11
148.1279999999999
 21
196.79900000000001
 31
0.0
  0
LINE
  5
131
  8
0
 62
     7
 10
133.95400000000001
 20
239.80000000000001
 30
0.0
 11
149.178
 21
239.80000000000001
 31
0.0
  0
LINE
  5
132
  8
0
 62
     7
 10
140.65000000000001
 20
248.09999999999991
 30
0.0
 11
147.77799999999991
 21
248.09999999999991
 31
0.0
  0
LINE
  5
133
  8
0
 62
     7
 10
173.178
 20
221.79899999999989
 30
0.0
 11
179.27799999999999
 21
221.79899999999989
 31
0.0
  0
LINE
  5
134
  8
0
 62
     7
 10
150.7529999999999
 20
250.80000000000001
 30
0.0
 11
179.27799999999999
 21
250.80000000000001
 31
0.0
  0
LINE
  5
135
  8
0
 62
     7
 10
133.95400000000001
 20
250.80000000000001
 30
0.0
 11
148.1279999999999
 21
250.80000000000001
 31
0.0
  0
LINE
  5
136
  8
0
 62
     7
 10
138.80000000000001
 20
155.60299999999989
 30
0.0
 11
138.20799999999991
 21
153.39299999999989
 31
0.0
  0
LINE
  5
137
  8
0
 62
     7
 10
138.20799999999991
 20
153.39299999999989
 30
0.0
 11
137.61500000000001
 21
155.60299999999989
 31
0.0
  0
LINE
  5
138
  8
0
 62
     7
 10
137.61500000000001
 20
155.60299999999989
 30
0.0
 11
138.80000000000001
 21
155.60299999999989
 31
0.0
  0
LINE
  5
139
  8
0
 62
     7
 10
138.79300000000001
 20
146.68199999999999
 30
0.0
 11
138.1999999999999
 21
148.893
 31
0.0
  0
LINE
  5
13A
  8
0
 62
     7
 10
138.1999999999999
 20
148.893
 30
0.0
 11
137.60799999999989
 21
146.68199999999999
 31
0.0
  0
LINE
  5
13B
  8
0
 62
     7
 10
137.60799999999989
 20
146.68199999999999
 30
0.0
 11
138.79300000000001
 21
146.68199999999999
 31
0.0
  0
LINE
  5
13C
  8
0
 62
     7
 10
137.62299999999991
 20
70.581500000000005
 30
0.0
 11
138.21499999999989
 21
72.792599999999993
 31
0.0
  0
LINE
  5
13D
  8
0
 62
     7
 10
138.21499999999989
 20
72.792599999999993
 30
0.0
 11
138.80799999999991
 21
70.581500000000005
 31
0.0
  0
LINE
  5
13E
  8
0
 62
     7
 10
138.80799999999991
 20
70.581500000000005
 30
0.0
 11
137.62299999999991
 21
70.581500000000005
 31
0.0
  0
LINE
  5
13F
  8
0
 62
     7
 10
137.62299999999991
 20
79.503699999999995
 30
0.0
 11
138.21499999999989
 21
77.292599999999993
 31
0.0
  0
LINE
  5
140
  8
0
 62
     7
 10
138.21499999999989
 20
77.292599999999993
 30
0.0
 11
138.80699999999999
 21
79.503699999999995
 31
0.0
  0
LINE
  5
141
  8
0
 62
     7
 10
138.80699999999999
 20
79.503699999999995
 30
0.0
 11
137.62299999999991
 21
79.503699999999995
 31
0.0
  0
LINE
  5
142
  8
0
 62
     7
 10
138.20799999999991
 20
156.89299999999989
 30
0.0
 11
138.20799999999991
 21
69.308499999999995
 31
0.0
  0
LINE
  5
143
  8
0
 62
     7
 10
137.5
 20
77.292599999999993
 30
0.0
 11
147.77799999999991
 21
77.292599999999993
 31
0.0
  0
LINE
  5
144
  8
0
 62
     7
 10
137.5
 20
72.792599999999993
 30
0.0
 11
148.1279999999999
 21
72.792599999999993
 31
0.0
  0
LINE
  5
145
  8
0
 62
     7
 10
137.5
 20
148.893
 30
0.0
 11
147.77799999999991
 21
148.893
 31
0.0
  0
LINE
  5
146
  8
0
 62
     7
 10
137.5
 20
153.39299999999989
 30
0.0
 11
148.1279999999999
 21
153.39299999999989
 31
0.0
  0
LINE
  5
147
  8
0
 62
     7
 10
106.0989999999999
 20
113.0929999999999
 30
0.0
 11
115.1089999999999
 21
113.0929999999999
 31
0.0
  0
LINE
  5
148
  8
0
 62
     7
 10
100.55
 20
72.792599999999993
 30
0.0
 11
115.1089999999999
 21
72.792599999999993
 31
0.0
  0
LINE
  5
149
  8
0
 62
     7
 10
100.55
 20
153.39299999999989
 30
0.0
 11
115.0949999999999
 21
153.39299999999989
 31
0.0
  0
LINE
  5
14A
  8
0
 62
     7
 10
114.98699999999999
 20
151.18199999999999
 30
0.0
 11
114.395
 21
153.39299999999989
 31
0.0
  0
LINE
  5
14B
  8
0
 62
     7
 10
114.395
 20
153.39299999999989
 30
0.0
 11
113.80200000000001
 21
151.18199999999999
 31
0.0
  0
LINE
  5
14C
  8
0
 62
     7
 10
113.80200000000001
 20
151.18199999999999
 30
0.0
 11
114.98699999999999
 21
151.18199999999999
 31
0.0
  0
LINE
  5
14D
  8
0
 62
     7
 10
113.81699999999999
 20
115.304
 30
0.0
 11
114.40900000000001
 21
113.0929999999999
 31
0.0
  0
LINE
  5
14E
  8
0
 62
     7
 10
114.40900000000001
 20
113.0929999999999
 30
0.0
 11
115.002
 21
115.304
 31
0.0
  0
LINE
  5
14F
  8
0
 62
     7
 10
115.002
 20
115.304
 30
0.0
 11
113.81699999999999
 21
115.304
 31
0.0
  0
LINE
  5
150
  8
0
 62
     7
 10
114.402
 20
153.39299999999989
 30
0.0
 11
114.402
 21
113.0929999999999
 31
0.0
  0
LINE
  5
151
  8
0
 62
     7
 10
114.98699999999999
 20
110.88200000000001
 30
0.0
 11
114.395
 21
113.0929999999999
 31
0.0
  0
LINE
  5
152
  8
0
 62
     7
 10
114.395
 20
113.0929999999999
 30
0.0
 11
113.80200000000001
 21
110.88200000000001
 31
0.0
  0
LINE
  5
153
  8
0
 62
     7
 10
113.80200000000001
 20
110.88200000000001
 30
0.0
 11
114.98699999999999
 21
110.88200000000001
 31
0.0
  0
LINE
  5
154
  8
0
 62
     7
 10
113.81699999999999
 20
75.003600000000006
 30
0.0
 11
114.40900000000001
 21
72.792599999999993
 31
0.0
  0
LINE
  5
155
  8
0
 62
     7
 10
114.40900000000001
 20
72.792599999999993
 30
0.0
 11
115.002
 21
75.003600000000006
 31
0.0
  0
LINE
  5
156
  8
0
 62
     7
 10
115.002
 20
75.003600000000006
 30
0.0
 11
113.81699999999999
 21
75.003600000000006
 31
0.0
  0
LINE
  5
157
  8
0
 62
     7
 10
114.402
 20
113.0929999999999
 30
0.0
 11
114.402
 21
72.792599999999993
 31
0.0
  0
LINE
  5
158
  8
0
 62
     7
 10
40.057400000000001
 20
258.54000000000002
 30
0.0
 11
39.465200000000003
 21
260.74999999999989
 31
0.0
  0
LINE
  5
159
  8
0
 62
     7
 10
39.465200000000003
 20
260.74999999999989
 30
0.0
 11
38.872599999999991
 21
258.54000000000002
 31
0.0
  0
LINE
  5
15A
  8
0
 62
     7
 10
38.872599999999991
 20
258.54000000000002
 30
0.0
 11
40.057400000000001
 21
258.54000000000002
 31
0.0
  0
LINE
  5
15B
  8
0
 62
     7
 10
38.887500000000003
 20
226.011
 30
0.0
 11
39.479700000000001
 21
223.7999999999999
 31
0.0
  0
LINE
  5
15C
  8
0
 62
     7
 10
39.479700000000001
 20
223.7999999999999
 30
0.0
 11
40.072200000000002
 21
226.011
 31
0.0
  0
LINE
  5
15D
  8
0
 62
     7
 10
40.072200000000002
 20
226.011
 30
0.0
 11
38.887500000000003
 21
226.011
 31
0.0
  0
LINE
  5
15E
  8
0
 62
     7
 10
39.4724
 20
260.74999999999989
 30
0.0
 11
39.4724
 21
223.7999999999999
 31
0.0
  0
LINE
  5
15F
  8
0
 62
     7
 10
40.057400000000001
 20
221.589
 30
0.0
 11
39.465200000000003
 21
223.7999999999999
 31
0.0
  0
LINE
  5
160
  8
0
 62
     7
 10
39.465200000000003
 20
223.7999999999999
 30
0.0
 11
38.872599999999991
 21
221.589
 31
0.0
  0
LINE
  5
161
  8
0
 62
     7
 10
38.872599999999991
 20
221.589
 30
0.0
 11
40.057400000000001
 21
221.589
 31
0.0
  0
LINE
  5
162
  8
0
 62
     7
 10
38.887500000000003
 20
189.06099999999989
 30
0.0
 11
39.479700000000001
 21
186.84999999999999
 31
0.0
  0
LINE
  5
163
  8
0
 62
     7
 10
39.479700000000001
 20
186.84999999999999
 30
0.0
 11
40.072200000000002
 21
189.06099999999989
 31
0.0
  0
LINE
  5
164
  8
0
 62
     7
 10
40.072200000000002
 20
189.06099999999989
 30
0.0
 11
38.887500000000003
 21
189.06099999999989
 31
0.0
  0
LINE
  5
165
  8
0
 62
     7
 10
39.4724
 20
223.7999999999999
 30
0.0
 11
39.4724
 21
186.84999999999999
 31
0.0
  0
LINE
  5
166
  8
0
 62
     7
 10
32.283200000000001
 20
258.53899999999987
 30
0.0
 11
31.690899999999999
 21
260.74999999999989
 31
0.0
  0
LINE
  5
167
  8
0
 62
     7
 10
31.690899999999999
 20
260.74999999999989
 30
0.0
 11
31.098400000000002
 21
258.53899999999987
 31
0.0
  0
LINE
  5
168
  8
0
 62
     7
 10
31.098400000000002
 20
258.53899999999987
 30
0.0
 11
32.283200000000001
 21
258.53899999999987
 31
0.0
  0
LINE
  5
169
  8
0
 62
     7
 10
31.113199999999999
 20
189.06099999999989
 30
0.0
 11
31.705400000000001
 21
186.84999999999999
 31
0.0
  0
LINE
  5
16A
  8
0
 62
     7
 10
31.705400000000001
 20
186.84999999999999
 30
0.0
 11
32.298000000000002
 21
189.06099999999989
 31
0.0
  0
LINE
  5
16B
  8
0
 62
     7
 10
32.298000000000002
 20
189.06099999999989
 30
0.0
 11
31.113199999999999
 21
189.06099999999989
 31
0.0
  0
LINE
  5
16C
  8
0
 62
     7
 10
31.6982
 20
260.74999999999989
 30
0.0
 11
31.6982
 21
186.84999999999999
 31
0.0
  0
LINE
  5
16D
  8
0
 62
     7
 10
38.772399999999998
 20
223.7999999999999
 30
0.0
 11
44.698999999999991
 21
223.7999999999999
 31
0.0
  0
LINE
  5
16E
  8
0
 62
     7
 10
31.005400000000002
 20
186.84999999999999
 30
0.0
 11
49.1494
 21
186.84999999999999
 31
0.0
  0
LINE
  5
16F
  8
0
 62
     7
 10
31.005400000000002
 20
260.74999999999989
 30
0.0
 11
49.1494
 21
260.74999999999989
 31
0.0
  0
LINE
  5
170
  8
0
 62
     7
 10
38.7545
 20
151.18199999999999
 30
0.0
 11
38.162300000000002
 21
153.39299999999989
 31
0.0
  0
LINE
  5
171
  8
0
 62
     7
 10
38.162300000000002
 20
153.39299999999989
 30
0.0
 11
37.56969999999999
 21
151.18199999999999
 31
0.0
  0
LINE
  5
172
  8
0
 62
     7
 10
37.56969999999999
 20
151.18199999999999
 30
0.0
 11
38.7545
 21
151.18199999999999
 31
0.0
  0
LINE
  5
173
  8
0
 62
     7
 10
37.584499999999991
 20
75.003600000000006
 30
0.0
 11
38.17669999999999
 21
72.792599999999993
 31
0.0
  0
LINE
  5
174
  8
0
 62
     7
 10
38.17669999999999
 20
72.792599999999993
 30
0.0
 11
38.769300000000001
 21
75.003600000000006
 31
0.0
  0
LINE
  5
175
  8
0
 62
     7
 10
38.769300000000001
 20
75.003600000000006
 30
0.0
 11
37.584499999999991
 21
75.003600000000006
 31
0.0
  0
LINE
  5
176
  8
0
 62
     7
 10
38.169499999999999
 20
153.39299999999989
 30
0.0
 11
38.169499999999999
 21
72.792599999999993
 31
0.0
  0
LINE
  5
177
  8
0
 62
     7
 10
37.476700000000001
 20
72.792599999999993
 30
0.0
 11
50.249099999999999
 21
72.792599999999993
 31
0.0
  0
LINE
  5
178
  8
0
 62
     7
 10
37.476700000000001
 20
153.39299999999989
 30
0.0
 11
50.249099999999999
 21
153.39299999999989
 31
0.0
  0
ARC
  5
179
  8
0
  6
AIGENLINE002
 62
     7
 10
77.399381000000005
 20
223.79963900000001
 30
0.0
 40
8.4999669999999998
 50
0.001171
 51
90.001141000000004
  0
ARC
  5
17A
  8
0
  6
AIGENLINE002
 62
     7
 10
77.399208999999999
 20
223.799814
 30
0.0
 40
8.5001390000000008
 50
270.00002000000001
 51
359.99998999999991
  0
ARC
  5
17B
  8
0
  6
AIGENLINE002
 62
     7
 10
77.399208999999999
 20
223.79981099999989
 30
0.0
 40
8.5001359999999995
 50
179.99996999999991
 51
270.00002000000001
  0
ARC
  5
17C
  8
0
  6
AIGENLINE002
 62
     7
 10
77.399039000000002
 20
223.79963900000001
 30
0.0
 40
8.4999669999999998
 50
89.998839000000004
 51
179.99880899999999
  0
ARC
  5
17D
  8
0
  6
AIGENLINE002
 62
     7
 10
54.619805000000007
 20
223.72896099999991
 30
0.0
 40
1.9221859999999991
 50
92.112391000000017
 51
177.88757899999999
  0
ARC
  5
17E
  8
0
  6
AIGENLINE002
 62
     7
 10
54.619810000000001
 20
223.87066999999999
 30
0.0
 40
1.9221909999999991
 50
182.1125649999999
 51
267.88746499999991
  0
ARC
  5
17F
  8
0
  6
AIGENLINE002
 62
     7
 10
54.478105999999997
 20
223.8706599999999
 30
0.0
 40
1.9221809999999999
 50
272.11228499999987
 51
357.88772499999999
  0
ARC
  5
180
  8
0
  6
AIGENLINE002
 62
     7
 10
54.548952999999997
 20
223.799813
 30
0.0
 40
1.8500279999999989
 50
0.00001
 51
89.999980000000008
  0
LINE
  5
181
  8
0
  6
AIGENLINE001
 62
     7
 10
54.548999999999999
 20
219.7999999999999
 30
0.0
 11
54.548999999999999
 21
227.80000000000001
 31
0.0
  0
ARC
  5
182
  8
0
 62
     7
 10
54.616588999999998
 20
113.025229
 30
0.0
 40
1.8438009999999989
 50
92.102226999999999
 51
177.89774299999991
  0
ARC
  5
183
  8
0
 62
     7
 10
54.548952999999997
 20
113.09286400000001
 30
0.0
 40
1.7749239999999999
 50
179.99996999999991
 51
270.00002000000001
  0
ARC
  5
184
  8
0
 62
     7
 10
54.548952999999997
 20
113.0928649999999
 30
0.0
 40
1.7749250000000001
 50
270.00002000000001
 51
359.99998999999991
  0
ARC
  5
185
  8
0
 62
     7
 10
54.480930000000001
 20
113.0248409999999
 30
0.0
 40
1.8442029999999989
 50
2.1138279999999989
 51
87.886161999999985
  0
ARC
  5
186
  8
0
 62
     7
 10
65.649119999999996
 20
83.542715000000015
 30
0.0
 40
4.9998979999999991
 50
179.99996999999991
 51
270.00002000000001
  0
ARC
  5
187
  8
0
 62
     7
 10
93.149423999999996
 20
83.542544000000007
 30
0.0
 40
4.999727
 50
270.00199399999991
 51
0.001964
  0
ARC
  5
188
  8
0
 62
     7
 10
93.149423999999996
 20
142.64318499999999
 30
0.0
 40
4.999727
 50
359.9980359999999
 51
89.998006000000004
  0
ARC
  5
189
  8
0
 62
     7
 10
65.649121999999991
 20
142.643012
 30
0.0
 40
4.9999000000000002
 50
90.0
 51
179.99996999999991
  0
LINE
  5
18A
  8
0
 62
     7
 10
93.149600000000007
 20
147.643
 30
0.0
 11
65.649100000000004
 21
147.643
 31
0.0
  0
LINE
  5
18B
  8
0
 62
     7
 10
60.6492
 20
83.542699999999996
 30
0.0
 11
60.6492
 21
142.643
 31
0.0
  0
LINE
  5
18C
  8
0
 62
     7
 10
93.149600000000007
 20
78.5428
 30
0.0
 11
65.649100000000004
 21
78.5428
 31
0.0
  0
LINE
  5
18D
  8
0
 62
     7
 10
98.149199999999993
 20
83.542699999999996
 30
0.0
 11
98.149199999999993
 21
142.643
 31
0.0
  0
LINE
  5
18E
  8
0
  6
AIGENLINE001
 62
     7
 10
105.3989999999999
 20
223.7999999999999
 30
0.0
 11
45.39909999999999
 21
223.7999999999999
 31
0.0
  0
LINE
  5
18F
  8
0
  6
AIGENLINE001
 62
     7
 10
105.3989999999999
 20
113.0929999999999
 30
0.0
 11
45.39909999999999
 21
113.0929999999999
 31
0.0
  0
LINE
  5
190
  8
0
  6
AIGENLINE001
 62
     7
 10
75.399100000000004
 20
71.092799999999997
 30
0.0
 11
75.399100000000004
 21
155.0929999999999
 31
0.0
  0
LINE
  5
191
  8
0
  6
AIGENLINE001
 62
     7
 10
54.548999999999999
 20
109.0929999999999
 30
0.0
 11
54.548999999999999
 21
117.093
 31
0.0
  0
ARC
  5
192
  8
0
 62
     7
 10
97.399148999999994
 20
77.792470999999992
 30
0.0
 40
4.9999000000000002
 50
270.00396799999999
 51
0.003938
  0
ARC
  5
193
  8
0
 62
     7
 10
53.399143999999993
 20
77.792642000000001
 30
0.0
 40
5.00007
 50
179.99799599999989
 51
269.99804599999987
  0
ARC
  5
194
  8
0
 62
     7
 10
53.398974000000003
 20
148.39291299999991
 30
0.0
 40
4.9999000000000002
 50
90.0
 51
179.99996999999991
  0
ARC
  5
195
  8
0
 62
     7
 10
97.399321
 20
148.39308500000001
 30
0.0
 40
4.999727
 50
359.9980359999999
 51
89.998006000000004
  0
ARC
  5
196
  8
0
 62
     7
 10
55.398864000000003
 20
144.592949
 30
0.0
 40
4.2998519999999987
 50
89.995408999999995
 51
179.99538000000001
  0
ARC
  5
197
  8
0
 62
     7
 10
55.39920699999999
 20
81.592779000000007
 30
0.0
 40
4.3001949999999987
 50
179.99996999999991
 51
270.00002000000001
  0
LINE
  5
198
  8
0
 62
     7
 10
51.09899999999999
 20
81.592799999999997
 30
0.0
 11
51.09899999999999
 21
144.5929999999999
 31
0.0
  0
ARC
  5
199
  8
0
 62
     7
 10
77.399212000000006
 20
113.09286299999989
 30
0.0
 40
8.5001390000000008
 50
90.0
 51
179.99996999999991
  0
ARC
  5
19A
  8
0
 62
     7
 10
77.399036999999993
 20
113.093035
 30
0.0
 40
8.4999640000000003
 50
180.00117099999991
 51
270.00118099999997
  0
ARC
  5
19B
  8
0
 62
     7
 10
77.399381000000005
 20
113.09303799999989
 30
0.0
 40
8.4999669999999998
 50
269.99885899999992
 51
359.998829
  0
ARC
  5
19C
  8
0
 62
     7
 10
77.399208999999999
 20
113.09286299999989
 30
0.0
 40
8.5001390000000008
 50
0.00001
 51
89.999980000000008
  0
LINE
  5
19D
  8
0
 62
     7
 10
63.699199999999998
 20
77.292599999999993
 30
0.0
 11
55.3992
 21
77.292599999999993
 31
0.0
  0
LINE
  5
19E
  8
0
 62
     7
 10
63.699199999999998
 20
148.893
 30
0.0
 11
55.3992
 21
148.893
 31
0.0
  0
ARC
  5
19F
  8
0
 62
     7
 10
63.698841000000002
 20
144.592949
 30
0.0
 40
4.2998519999999987
 50
89.995408999999995
 51
179.99538000000001
  0
ARC
  5
1A0
  8
0
 62
     7
 10
63.699183999999988
 20
81.592779000000007
 30
0.0
 40
4.3001949999999987
 50
179.99996999999991
 51
270.00002000000001
  0
ARC
  5
1A1
  8
0
 62
     7
 10
95.099187999999984
 20
81.592434999999995
 30
0.0
 40
4.2998519999999987
 50
270.00461000000001
 51
0.004581
  0
ARC
  5
1A2
  8
0
 62
     7
 10
95.099532999999994
 20
144.5932929999999
 30
0.0
 40
4.2995070000000002
 50
0.00001
 51
89.999980000000008
  0
LINE
  5
1A3
  8
0
 62
     7
 10
95.099500000000006
 20
148.893
 30
0.0
 11
63.699199999999998
 21
148.893
 31
0.0
  0
LINE
  5
1A4
  8
0
 62
     7
 10
95.099500000000006
 20
77.292599999999993
 30
0.0
 11
63.699199999999998
 21
77.292599999999993
 31
0.0
  0
LINE
  5
1A5
  8
0
 62
     7
 10
99.399000000000015
 20
81.592799999999997
 30
0.0
 11
99.399000000000015
 21
144.5929999999999
 31
0.0
  0
LINE
  5
1A6
  8
0
 62
     7
 10
59.398999999999987
 20
81.592799999999997
 30
0.0
 11
59.398999999999987
 21
144.5929999999999
 31
0.0
  0
LINE
  5
1A7
  8
0
 62
     7
 10
102.3989999999999
 20
77.792799999999986
 30
0.0
 11
102.3989999999999
 21
148.39299999999989
 31
0.0
  0
LINE
  5
1A8
  8
0
 62
     7
 10
77.399199999999993
 20
95.250900000000001
 30
0.0
 11
77.398899999999983
 21
102.1429999999999
 31
0.0
  0
LINE
  5
1A9
  8
0
 62
     7
 10
77.399199999999993
 20
124.04299999999991
 30
0.0
 11
77.398899999999983
 21
130.935
 31
0.0
  0
LINE
  5
1AA
  8
0
  6
AIGENLINE001
 62
     7
 10
77.399199999999993
 20
213.5499999999999
 30
0.0
 11
77.398899999999983
 21
234.05000000000001
 31
0.0
  0
LINE
  5
1AB
  8
0
  6
AIGENLINE001
 62
     7
 10
77.399199999999993
 20
102.8429999999999
 30
0.0
 11
77.398899999999983
 21
123.343
 31
0.0
  0
LINE
  5
1AC
  8
0
 62
     7
 10
48.39909999999999
 20
77.792799999999986
 30
0.0
 11
48.39909999999999
 21
148.39299999999989
 31
0.0
  0
LINE
  5
1AD
  8
0
 62
     7
 10
97.399500000000003
 20
72.792599999999993
 30
0.0
 11
53.399000000000001
 21
72.792599999999993
 31
0.0
  0
LINE
  5
1AE
  8
0
 62
     7
 10
97.399500000000003
 20
153.39299999999989
 30
0.0
 11
53.399000000000001
 21
153.39299999999989
 31
0.0
  0
LINE
  5
1AF
  8
0
 62
     7
 10
149.87799999999999
 20
196.94399999999999
 30
0.0
 11
148.57900000000001
 21
198.244
 31
0.0
  0
LINE
  5
1B0
  8
0
 62
     7
 10
149.21600000000001
 20
198.45500000000001
 30
0.0
 11
148.8239999999999
 21
198.8479999999999
 31
0.0
  0
LINE
  5
1B1
  8
0
 62
     7
 10
149.61699999999999
 20
198.90299999999991
 30
0.0
 11
149.25999999999991
 21
199.25999999999991
 31
0.0
  0
LINE
  5
1B2
  8
0
 62
     7
 10
150.16800000000001
 20
199.1999999999999
 30
0.0
 11
149.78699999999989
 21
199.5809999999999
 31
0.0
  0
LINE
  5
1B3
  8
0
 62
     7
 10
150.86399999999989
 20
199.35299999999989
 30
0.0
 11
150.42099999999999
 21
199.7949999999999
 31
0.0
  0
LINE
  5
1B4
  8
0
 62
     7
 10
151.66599999999991
 20
199.399
 30
0.0
 11
151.19499999999991
 21
199.87
 31
0.0
  0
LINE
  5
1B5
  8
0
 62
     7
 10
152.465
 20
199.44900000000001
 30
0.0
 11
151.994
 21
199.9199999999999
 31
0.0
  0
LINE
  5
1B6
  8
0
 62
     7
 10
153.26300000000001
 20
199.499
 30
0.0
 11
152.79199999999989
 21
199.96999999999991
 31
0.0
  0
LINE
  5
1B7
  8
0
 62
     7
 10
154.06200000000001
 20
199.54900000000001
 30
0.0
 11
153.58999999999989
 21
200.02099999999999
 31
0.0
  0
LINE
  5
1B8
  8
0
 62
     7
 10
154.86000000000001
 20
199.59899999999999
 30
0.0
 11
154.38900000000001
 21
200.071
 31
0.0
  0
LINE
  5
1B9
  8
0
 62
     7
 10
155.6579999999999
 20
199.65000000000001
 30
0.0
 11
155.18700000000001
 21
200.1209999999999
 31
0.0
  0
LINE
  5
1BA
  8
0
 62
     7
 10
156.45699999999991
 20
199.6999999999999
 30
0.0
 11
155.98500000000001
 21
200.17099999999999
 31
0.0
  0
LINE
  5
1BB
  8
0
 62
     7
 10
157.25499999999991
 20
199.75
 30
0.0
 11
156.7829999999999
 21
200.22099999999989
 31
0.0
  0
LINE
  5
1BC
  8
0
 62
     7
 10
158.05299999999991
 20
199.80000000000001
 30
0.0
 11
157.58199999999999
 21
200.2709999999999
 31
0.0
  0
LINE
  5
1BD
  8
0
 62
     7
 10
158.852
 20
199.84999999999991
 30
0.0
 11
158.38
 21
200.322
 31
0.0
  0
LINE
  5
1BE
  8
0
 62
     7
 10
159.64999999999989
 20
199.90000000000001
 30
0.0
 11
159.17799999999991
 21
200.37200000000001
 31
0.0
  0
LINE
  5
1BF
  8
0
 62
     7
 10
160.44799999999989
 20
199.95099999999991
 30
0.0
 11
159.977
 21
200.422
 31
0.0
  0
LINE
  5
1C0
  8
0
 62
     7
 10
161.24700000000001
 20
200.00099999999989
 30
0.0
 11
160.77500000000001
 21
200.47200000000001
 31
0.0
  0
LINE
  5
1C1
  8
0
 62
     7
 10
162.0449999999999
 20
200.0509999999999
 30
0.0
 11
161.57299999999989
 21
200.523
 31
0.0
  0
LINE
  5
1C2
  8
0
 62
     7
 10
162.8429999999999
 20
200.10099999999991
 30
0.0
 11
162.37200000000001
 21
200.572
 31
0.0
  0
LINE
  5
1C3
  8
0
 62
     7
 10
163.642
 20
200.1509999999999
 30
0.0
 11
163.1699999999999
 21
200.62299999999991
 31
0.0
  0
LINE
  5
1C4
  8
0
 62
     7
 10
164.44
 20
200.20099999999991
 30
0.0
 11
163.96799999999999
 21
200.673
 31
0.0
  0
LINE
  5
1C5
  8
0
 62
     7
 10
165.23799999999989
 20
200.25200000000001
 30
0.0
 11
164.76699999999991
 21
200.7229999999999
 31
0.0
  0
LINE
  5
1C6
  8
0
 62
     7
 10
165.9799999999999
 20
200.3589999999999
 30
0.0
 11
165.55299999999991
 21
200.78499999999991
 31
0.0
  0
LINE
  5
1C7
  8
0
 62
     7
 10
166.61799999999991
 20
200.5679999999999
 30
0.0
 11
166.233
 21
200.95400000000001
 31
0.0
  0
LINE
  5
1C8
  8
0
 62
     7
 10
167.179
 20
200.85599999999999
 30
0.0
 11
166.81399999999999
 21
201.22200000000001
 31
0.0
  0
LINE
  5
1C9
  8
0
 62
     7
 10
167.6699999999999
 20
201.21299999999991
 30
0.0
 11
167.31599999999989
 21
201.5679999999999
 31
0.0
  0
LINE
  5
1CA
  8
0
 62
     7
 10
168.09999999999999
 20
201.6329999999999
 30
0.0
 11
167.7459999999999
 21
201.98699999999999
 31
0.0
  0
LINE
  5
1CB
  8
0
 62
     7
 10
168.46599999999989
 20
202.11500000000001
 30
0.0
 11
168.10299999999989
 21
202.47799999999989
 31
0.0
  0
LINE
  5
1CC
  8
0
 62
     7
 10
168.7649999999999
 20
202.6639999999999
 30
0.0
 11
168.38399999999999
 21
203.04599999999999
 31
0.0
  0
LINE
  5
1CD
  8
0
 62
     7
 10
168.988
 20
203.28999999999999
 30
0.0
 11
168.56999999999991
 21
203.709
 31
0.0
  0
LINE
  5
1CE
  8
0
 62
     7
 10
169.113
 20
204.01400000000001
 30
0.0
 11
168.63799999999989
 21
204.489
 31
0.0
  0
LINE
  5
1CF
  8
0
 62
     7
 10
169.155
 20
204.81999999999999
 30
0.0
 11
168.67799999999991
 21
205.29599999999999
 31
0.0
  0
LINE
  5
1D0
  8
0
 62
     7
 10
169.19599999999991
 20
205.62799999999999
 30
0.0
 11
168.71899999999999
 21
206.1049999999999
 31
0.0
  0
LINE
  5
1D1
  8
0
 62
     7
 10
169.2359999999999
 20
206.43599999999989
 30
0.0
 11
168.75899999999999
 21
206.9129999999999
 31
0.0
  0
LINE
  5
1D2
  8
0
 62
     7
 10
169.27699999999999
 20
207.244
 30
0.0
 11
168.80000000000001
 21
207.721
 31
0.0
  0
LINE
  5
1D3
  8
0
 62
     7
 10
169.31700000000001
 20
208.05199999999999
 30
0.0
 11
168.84
 21
208.529
 31
0.0
  0
LINE
  5
1D4
  8
0
 62
     7
 10
169.357
 20
208.86000000000001
 30
0.0
 11
168.88
 21
209.33699999999999
 31
0.0
  0
LINE
  5
1D5
  8
0
 62
     7
 10
169.39799999999991
 20
209.66800000000001
 30
0.0
 11
168.92099999999991
 21
210.14500000000001
 31
0.0
  0
LINE
  5
1D6
  8
0
 62
     7
 10
169.4379999999999
 20
210.477
 30
0.0
 11
168.96199999999999
 21
210.95299999999989
 31
0.0
  0
LINE
  5
1D7
  8
0
 62
     7
 10
169.51599999999999
 20
211.25299999999999
 30
0.0
 11
169.03899999999999
 21
211.7299999999999
 31
0.0
  0
LINE
  5
1D8
  8
0
 62
     7
 10
169.77000000000001
 20
211.8419999999999
 30
0.0
 11
169.29300000000001
 21
212.31899999999999
 31
0.0
  0
LINE
  5
1D9
  8
0
 62
     7
 10
170.26300000000001
 20
212.19900000000001
 30
0.0
 11
169.68199999999999
 21
212.779
 31
0.0
  0
LINE
  5
1DA
  8
0
 62
     7
 10
170.86500000000001
 20
212.43700000000001
 30
0.0
 11
170.21199999999999
 21
213.09800000000001
 31
0.0
  0
LINE
  5
1DB
  8
0
 62
     7
 10
151.13900000000001
 20
239.80600000000001
 30
0.0
 11
149.77899999999991
 21
241.16699999999989
 31
0.0
  0
LINE
  5
1DC
  8
0
 62
     7
 10
150.37899999999991
 20
241.41499999999991
 30
0.0
 11
149.77899999999991
 21
242.01599999999999
 31
0.0
  0
LINE
  5
1DD
  8
0
 62
     7
 10
152.04699999999991
 20
239.74700000000001
 30
0.0
 11
151.51099999999991
 21
240.2829999999999
 31
0.0
  0
LINE
  5
1DE
  8
0
 62
     7
 10
150.37899999999991
 20
242.26400000000001
 30
0.0
 11
149.8429999999999
 21
242.80000000000001
 31
0.0
  0
LINE
  5
1DF
  8
0
 62
     7
 10
152.95400000000001
 20
239.68899999999999
 30
0.0
 11
152.41800000000001
 21
240.22399999999999
 31
0.0
  0
LINE
  5
1E0
  8
0
 62
     7
 10
153.86000000000001
 20
239.63
 30
0.0
 11
153.3249999999999
 21
240.166
 31
0.0
  0
LINE
  5
1E1
  8
0
 62
     7
 10
154.76799999999989
 20
239.572
 30
0.0
 11
154.232
 21
240.10799999999989
 31
0.0
  0
LINE
  5
1E2
  8
0
 62
     7
 10
155.67500000000001
 20
239.51400000000001
 30
0.0
 11
155.13900000000001
 21
240.04900000000001
 31
0.0
  0
LINE
  5
1E3
  8
0
 62
     7
 10
156.58099999999999
 20
239.45500000000001
 30
0.0
 11
156.04599999999991
 21
239.9909999999999
 31
0.0
  0
LINE
  5
1E4
  8
0
 62
     7
 10
150.37899999999991
 20
246.50700000000001
 30
0.0
 11
148.6109999999999
 21
248.27500000000001
 31
0.0
  0
LINE
  5
1E5
  8
0
 62
     7
 10
149.4789999999999
 20
248.25499999999991
 30
0.0
 11
148.578
 21
249.155
 31
0.0
  0
LINE
  5
1E6
  8
0
 62
     7
 10
149.47499999999991
 20
249.107
 30
0.0
 11
148.61799999999999
 21
249.964
 31
0.0
  0
LINE
  5
1E7
  8
0
 62
     7
 10
149.61799999999999
 20
249.8129999999999
 30
0.0
 11
148.98099999999999
 21
250.4499999999999
 31
0.0
  0
LINE
  5
1E8
  8
0
 62
     7
 10
149.87799999999999
 20
250.40100000000001
 30
0.0
 11
149.631
 21
250.64799999999991
 31
0.0
  0
LINE
  5
1E9
  8
0
 62
     7
 10
157.488
 20
239.39699999999999
 30
0.0
 11
156.953
 21
239.93199999999999
 31
0.0
  0
LINE
  5
1EA
  8
0
 62
     7
 10
158.39500000000001
 20
239.33799999999999
 30
0.0
 11
157.85900000000001
 21
239.874
 31
0.0
  0
LINE
  5
1EB
  8
0
 62
     7
 10
159.30199999999999
 20
239.28
 30
0.0
 11
158.76699999999991
 21
239.815
 31
0.0
  0
LINE
  5
1EC
  8
0
 62
     7
 10
160.209
 20
239.22200000000001
 30
0.0
 11
159.67400000000001
 21
239.75699999999989
 31
0.0
  0
LINE
  5
1ED
  8
0
 62
     7
 10
161.11600000000001
 20
239.1629999999999
 30
0.0
 11
160.58000000000001
 21
239.69799999999989
 31
0.0
  0
LINE
  5
1EE
  8
0
 62
     7
 10
162.023
 20
239.10400000000001
 30
0.0
 11
161.488
 21
239.6399999999999
 31
0.0
  0
LINE
  5
1EF
  8
0
 62
     7
 10
162.93000000000001
 20
239.04599999999999
 30
0.0
 11
162.39500000000001
 21
239.58199999999999
 31
0.0
  0
LINE
  5
1F0
  8
0
 62
     7
 10
163.83699999999999
 20
238.988
 30
0.0
 11
163.30099999999999
 21
239.523
 31
0.0
  0
LINE
  5
1F1
  8
0
 62
     7
 10
164.744
 20
238.92899999999989
 30
0.0
 11
164.20799999999991
 21
239.46499999999989
 31
0.0
  0
LINE
  5
1F2
  8
0
 62
     7
 10
165.6509999999999
 20
238.8709999999999
 30
0.0
 11
165.1159999999999
 21
239.40599999999989
 31
0.0
  0
LINE
  5
1F3
  8
0
 62
     7
 10
169.5449999999999
 20
234.97599999999991
 30
0.0
 11
169.01699999999991
 21
235.50399999999999
 31
0.0
  0
LINE
  5
1F4
  8
0
 62
     7
 10
166.74199999999999
 20
238.6279999999999
 30
0.0
 11
166.0379999999999
 21
239.33199999999999
 31
0.0
  0
LINE
  5
1F5
  8
0
 62
     7
 10
169.47900000000001
 20
235.89099999999991
 30
0.0
 11
168.7759999999999
 21
236.59399999999999
 31
0.0
  0
LINE
  5
1F6
  8
0
 62
     7
 10
169.077
 20
237.142
 30
0.0
 11
167.28899999999999
 21
238.92899999999989
 31
0.0
  0
LINE
  5
1F7
  8
0
 62
     7
 10
149.77899999999991
 20
240.73699999999991
 30
0.0
 11
149.77899999999991
 21
242.80000000000001
 31
0.0
  0
LINE
  5
1F8
  8
0
 62
     7
 10
149.77899999999991
 20
242.80000000000001
 30
0.0
 11
150.37899999999991
 21
242.80000000000001
 31
0.0
  0
LINE
  5
1F9
  8
0
 62
     7
 10
150.62100000000001
 20
239.839
 30
0.0
 11
150.45400000000001
 21
239.86600000000001
 31
0.0
  0
LINE
  5
1FA
  8
0
 62
     7
 10
150.45400000000001
 20
239.86600000000001
 30
0.0
 11
150.29499999999999
 21
239.92400000000001
 31
0.0
  0
LINE
  5
1FB
  8
0
 62
     7
 10
150.29499999999999
 20
239.92400000000001
 30
0.0
 11
150.14899999999989
 21
240.00999999999999
 31
0.0
  0
LINE
  5
1FC
  8
0
 62
     7
 10
150.14899999999989
 20
240.00999999999999
 30
0.0
 11
150.02199999999999
 21
240.12200000000001
 31
0.0
  0
LINE
  5
1FD
  8
0
 62
     7
 10
150.02199999999999
 20
240.12200000000001
 30
0.0
 11
149.91800000000001
 21
240.255
 31
0.0
  0
LINE
  5
1FE
  8
0
 62
     7
 10
149.91800000000001
 20
240.255
 30
0.0
 11
149.84099999999989
 21
240.40599999999989
 31
0.0
  0
LINE
  5
1FF
  8
0
 62
     7
 10
149.84099999999989
 20
240.40599999999989
 30
0.0
 11
149.7939999999999
 21
240.56899999999999
 31
0.0
  0
LINE
  5
200
  8
0
 62
     7
 10
149.7939999999999
 20
240.56899999999999
 30
0.0
 11
149.77899999999991
 21
240.73699999999991
 31
0.0
  0
LINE
  5
201
  8
0
 62
     7
 10
165.65599999999989
 20
238.87
 30
0.0
 11
150.62100000000001
 21
239.839
 31
0.0
  0
LINE
  5
202
  8
0
 62
     7
 10
169.0209999999999
 20
235.45799999999991
 30
0.0
 11
168.92899999999989
 21
236.10599999999999
 31
0.0
  0
LINE
  5
203
  8
0
 62
     7
 10
168.92899999999989
 20
236.10599999999999
 30
0.0
 11
168.72099999999989
 21
236.72599999999991
 31
0.0
  0
LINE
  5
204
  8
0
 62
     7
 10
168.72099999999989
 20
236.72599999999991
 30
0.0
 11
168.404
 21
237.29900000000001
 31
0.0
  0
LINE
  5
205
  8
0
 62
     7
 10
168.404
 20
237.29900000000001
 30
0.0
 11
167.989
 21
237.80499999999989
 31
0.0
  0
LINE
  5
206
  8
0
 62
     7
 10
167.989
 20
237.80499999999989
 30
0.0
 11
167.48899999999989
 21
238.22799999999989
 31
0.0
  0
LINE
  5
207
  8
0
 62
     7
 10
167.48899999999989
 20
238.22799999999989
 30
0.0
 11
166.92099999999991
 21
238.55199999999999
 31
0.0
  0
LINE
  5
208
  8
0
 62
     7
 10
166.92099999999991
 20
238.55199999999999
 30
0.0
 11
166.303
 21
238.76900000000001
 31
0.0
  0
LINE
  5
209
  8
0
 62
     7
 10
166.303
 20
238.76900000000001
 30
0.0
 11
165.65599999999989
 21
238.87
 31
0.0
  0
LINE
  5
20A
  8
0
 62
     7
 10
169.07899999999989
 20
232.29099999999991
 30
0.0
 11
169.0209999999999
 21
235.45799999999991
 31
0.0
  0
LINE
  5
20B
  8
0
 62
     7
 10
170.87899999999999
 20
230.40000000000001
 30
0.0
 11
170.53
 21
230.46700000000001
 31
0.0
  0
LINE
  5
20C
  8
0
 62
     7
 10
170.53
 20
230.46700000000001
 30
0.0
 11
170.19799999999989
 21
230.59399999999999
 31
0.0
  0
LINE
  5
20D
  8
0
 62
     7
 10
170.19799999999989
 20
230.59399999999999
 30
0.0
 11
169.89500000000001
 21
230.77699999999999
 31
0.0
  0
LINE
  5
20E
  8
0
 62
     7
 10
169.89500000000001
 20
230.77699999999999
 30
0.0
 11
169.6279999999999
 21
231.01099999999991
 31
0.0
  0
LINE
  5
20F
  8
0
 62
     7
 10
169.6279999999999
 20
231.01099999999991
 30
0.0
 11
169.40700000000001
 21
231.28899999999999
 31
0.0
  0
LINE
  5
210
  8
0
 62
     7
 10
169.40700000000001
 20
231.28899999999999
 30
0.0
 11
169.239
 21
231.60199999999989
 31
0.0
  0
LINE
  5
211
  8
0
 62
     7
 10
169.239
 20
231.60199999999989
 30
0.0
 11
169.1279999999999
 21
231.93899999999999
 31
0.0
  0
LINE
  5
212
  8
0
 62
     7
 10
169.1279999999999
 20
231.93899999999999
 30
0.0
 11
169.07899999999989
 21
232.29099999999991
 31
0.0
  0
LINE
  5
213
  8
0
 62
     7
 10
170.87899999999999
 20
231.09
 30
0.0
 11
170.87899999999999
 21
230.40000000000001
 31
0.0
  0
LINE
  5
214
  8
0
 62
     7
 10
170.685
 20
231.28999999999991
 30
0.0
 11
170.7229999999999
 21
231.285
 31
0.0
  0
LINE
  5
215
  8
0
 62
     7
 10
170.7229999999999
 20
231.285
 30
0.0
 11
170.75899999999999
 21
231.273
 31
0.0
  0
LINE
  5
216
  8
0
 62
     7
 10
170.75899999999999
 20
231.273
 30
0.0
 11
170.79300000000001
 21
231.25399999999999
 31
0.0
  0
LINE
  5
217
  8
0
 62
     7
 10
170.79300000000001
 20
231.25399999999999
 30
0.0
 11
170.822
 21
231.22900000000001
 31
0.0
  0
LINE
  5
218
  8
0
 62
     7
 10
170.822
 20
231.22900000000001
 30
0.0
 11
170.84599999999989
 21
231.19900000000001
 31
0.0
  0
LINE
  5
219
  8
0
 62
     7
 10
170.84599999999989
 20
231.19900000000001
 30
0.0
 11
170.864
 21
231.16499999999991
 31
0.0
  0
LINE
  5
21A
  8
0
 62
     7
 10
170.864
 20
231.16499999999991
 30
0.0
 11
170.875
 21
231.12799999999999
 31
0.0
  0
LINE
  5
21B
  8
0
 62
     7
 10
170.875
 20
231.12799999999999
 30
0.0
 11
170.87899999999999
 21
231.09
 31
0.0
  0
LINE
  5
21C
  8
0
 62
     7
 10
169.57400000000001
 20
232.41
 30
0.0
 11
169.60699999999991
 21
232.19799999999989
 31
0.0
  0
LINE
  5
21D
  8
0
 62
     7
 10
169.60699999999991
 20
232.19799999999989
 30
0.0
 11
169.67699999999999
 21
231.99499999999989
 31
0.0
  0
LINE
  5
21E
  8
0
 62
     7
 10
169.67699999999999
 20
231.99499999999989
 30
0.0
 11
169.78200000000001
 21
231.80799999999999
 31
0.0
  0
LINE
  5
21F
  8
0
 62
     7
 10
169.78200000000001
 20
231.80799999999999
 30
0.0
 11
169.91900000000001
 21
231.64199999999991
 31
0.0
  0
LINE
  5
220
  8
0
 62
     7
 10
169.91900000000001
 20
231.64199999999991
 30
0.0
 11
170.083
 21
231.5029999999999
 31
0.0
  0
LINE
  5
221
  8
0
 62
     7
 10
170.083
 20
231.5029999999999
 30
0.0
 11
170.27000000000001
 21
231.39699999999999
 31
0.0
  0
LINE
  5
222
  8
0
 62
     7
 10
170.27000000000001
 20
231.39699999999999
 30
0.0
 11
170.4729999999999
 21
231.32499999999999
 31
0.0
  0
LINE
  5
223
  8
0
 62
     7
 10
170.4729999999999
 20
231.32499999999999
 30
0.0
 11
170.685
 21
231.28999999999991
 31
0.0
  0
LINE
  5
224
  8
0
 62
     7
 10
169.57299999999989
 20
232.42699999999999
 30
0.0
 11
169.57400000000001
 21
232.41
 31
0.0
  0
LINE
  5
225
  8
0
 62
     7
 10
169.5199999999999
 20
235.483
 30
0.0
 11
169.57299999999989
 21
232.42699999999999
 31
0.0
  0
LINE
  5
226
  8
0
 62
     7
 10
169.41200000000001
 20
236.23400000000001
 30
0.0
 11
169.5199999999999
 21
235.483
 31
0.0
  0
LINE
  5
227
  8
0
 62
     7
 10
165.68899999999999
 20
239.369
 30
0.0
 11
166.423
 21
239.25499999999991
 31
0.0
  0
LINE
  5
228
  8
0
 62
     7
 10
166.423
 20
239.25499999999991
 30
0.0
 11
167.125
 21
239.00899999999999
 31
0.0
  0
LINE
  5
229
  8
0
 62
     7
 10
167.125
 20
239.00899999999999
 30
0.0
 11
167.7709999999999
 21
238.63999999999999
 31
0.0
  0
LINE
  5
22A
  8
0
 62
     7
 10
167.7709999999999
 20
238.63999999999999
 30
0.0
 11
168.339
 21
238.16099999999989
 31
0.0
  0
LINE
  5
22B
  8
0
 62
     7
 10
168.339
 20
238.16099999999989
 30
0.0
 11
168.8129999999999
 21
237.58799999999991
 31
0.0
  0
LINE
  5
22C
  8
0
 62
     7
 10
168.8129999999999
 20
237.58799999999991
 30
0.0
 11
169.17400000000001
 21
236.93799999999999
 31
0.0
  0
LINE
  5
22D
  8
0
 62
     7
 10
169.17400000000001
 20
236.93799999999999
 30
0.0
 11
169.41200000000001
 21
236.23400000000001
 31
0.0
  0
LINE
  5
22E
  8
0
 62
     7
 10
150.84700000000001
 20
240.32599999999991
 30
0.0
 11
165.68899999999999
 21
239.369
 31
0.0
  0
LINE
  5
22F
  8
0
 62
     7
 10
150.37899999999991
 20
240.8249999999999
 30
0.0
 11
150.387
 21
240.73099999999991
 31
0.0
  0
LINE
  5
230
  8
0
 62
     7
 10
150.387
 20
240.73099999999991
 30
0.0
 11
150.4129999999999
 21
240.64099999999999
 31
0.0
  0
LINE
  5
231
  8
0
 62
     7
 10
150.4129999999999
 20
240.64099999999999
 30
0.0
 11
150.45599999999999
 21
240.55699999999999
 31
0.0
  0
LINE
  5
232
  8
0
 62
     7
 10
150.45599999999999
 20
240.55699999999999
 30
0.0
 11
150.51400000000001
 21
240.483
 31
0.0
  0
LINE
  5
233
  8
0
 62
     7
 10
150.51400000000001
 20
240.483
 30
0.0
 11
150.584
 21
240.4199999999999
 31
0.0
  0
LINE
  5
234
  8
0
 62
     7
 10
150.584
 20
240.4199999999999
 30
0.0
 11
150.66499999999999
 21
240.37299999999991
 31
0.0
  0
LINE
  5
235
  8
0
 62
     7
 10
150.66499999999999
 20
240.37299999999991
 30
0.0
 11
150.75399999999991
 21
240.34100000000001
 31
0.0
  0
LINE
  5
236
  8
0
 62
     7
 10
150.75399999999991
 20
240.34100000000001
 30
0.0
 11
150.84700000000001
 21
240.32599999999991
 31
0.0
  0
LINE
  5
237
  8
0
 62
     7
 10
150.37899999999991
 20
242.80000000000001
 30
0.0
 11
150.37899999999991
 21
240.8249999999999
 31
0.0
  0
LINE
  5
238
  8
0
 62
     7
 10
149.78999999999999
 20
249.94
 30
0.0
 11
149.697
 21
249.87899999999999
 31
0.0
  0
LINE
  5
239
  8
0
 62
     7
 10
149.30199999999999
 20
250.58199999999991
 30
0.0
 11
149.87799999999999
 21
250.69799999999989
 31
0.0
  0
LINE
  5
23A
  8
0
 62
     7
 10
149.87799999999999
 20
250.69799999999989
 30
0.0
 11
149.87799999999999
 21
250.10699999999991
 31
0.0
  0
LINE
  5
23B
  8
0
 62
     7
 10
149.43199999999999
 20
247.27399999999989
 30
0.0
 11
148.80500000000001
 21
247.92099999999999
 31
0.0
  0
LINE
  5
23C
  8
0
 62
     7
 10
150.37899999999991
 20
246.494
 30
0.0
 11
150.37899999999991
 21
246.49999999999989
 31
0.0
  0
LINE
  5
23D
  8
0
 62
     7
 10
150.37899999999991
 20
246.49999999999989
 30
0.0
 11
149.77899999999991
 21
246.49999999999989
 31
0.0
  0
LINE
  5
23E
  8
0
 62
     7
 10
149.77899999999991
 20
246.49999999999989
 30
0.0
 11
149.77899999999991
 21
246.494
 31
0.0
  0
LINE
  5
23F
  8
0
 62
     7
 10
149.8429999999999
 20
247.7109999999999
 30
0.0
 11
149.87799999999999
 21
247.67699999999999
 31
0.0
  0
LINE
  5
240
  8
0
 62
     7
 10
149.61999999999989
 20
247.928
 30
0.0
 11
149.8429999999999
 21
247.7109999999999
 31
0.0
  0
LINE
  5
241
  8
0
 62
     7
 10
150.37899999999991
 20
242.80000000000001
 30
0.0
 11
149.679
 21
242.80000000000001
 31
0.0
  0
LINE
  5
242
  8
0
 62
     7
 10
150.37899999999991
 20
246.49999999999989
 30
0.0
 11
149.679
 21
246.49999999999989
 31
0.0
  0
LINE
  5
243
  8
0
 62
     7
 10
170.69900000000001
 20
212.30999999999989
 30
0.0
 11
170.685
 21
212.309
 31
0.0
  0
LINE
  5
244
  8
0
 62
     7
 10
170.87899999999999
 20
212.50899999999999
 30
0.0
 11
170.875
 21
212.47300000000001
 31
0.0
  0
LINE
  5
245
  8
0
 62
     7
 10
170.875
 20
212.47300000000001
 30
0.0
 11
170.86500000000001
 21
212.43700000000001
 31
0.0
  0
LINE
  5
246
  8
0
 62
     7
 10
170.86500000000001
 20
212.43700000000001
 30
0.0
 11
170.84899999999999
 21
212.40499999999989
 31
0.0
  0
LINE
  5
247
  8
0
 62
     7
 10
170.84899999999999
 20
212.40499999999989
 30
0.0
 11
170.82699999999991
 21
212.375
 31
0.0
  0
LINE
  5
248
  8
0
 62
     7
 10
170.82699999999991
 20
212.375
 30
0.0
 11
170.80000000000001
 21
212.34999999999991
 31
0.0
  0
LINE
  5
249
  8
0
 62
     7
 10
170.80000000000001
 20
212.34999999999991
 30
0.0
 11
170.76900000000001
 21
212.33099999999999
 31
0.0
  0
LINE
  5
24A
  8
0
 62
     7
 10
170.76900000000001
 20
212.33099999999999
 30
0.0
 11
170.73500000000001
 21
212.31700000000001
 31
0.0
  0
LINE
  5
24B
  8
0
 62
     7
 10
170.73500000000001
 20
212.31700000000001
 30
0.0
 11
170.69900000000001
 21
212.30999999999989
 31
0.0
  0
LINE
  5
24C
  8
0
 62
     7
 10
170.87899999999999
 20
213.19900000000001
 30
0.0
 11
170.87899999999999
 21
212.50899999999999
 31
0.0
  0
LINE
  5
24D
  8
0
 62
     7
 10
169.07899999999989
 20
211.309
 30
0.0
 11
169.1279999999999
 21
211.66
 31
0.0
  0
LINE
  5
24E
  8
0
 62
     7
 10
169.1279999999999
 20
211.66
 30
0.0
 11
169.239
 21
211.99799999999991
 31
0.0
  0
LINE
  5
24F
  8
0
 62
     7
 10
169.239
 20
211.99799999999991
 30
0.0
 11
169.40700000000001
 21
212.30999999999989
 31
0.0
  0
LINE
  5
250
  8
0
 62
     7
 10
169.40700000000001
 20
212.30999999999989
 30
0.0
 11
169.6279999999999
 21
212.58799999999991
 31
0.0
  0
LINE
  5
251
  8
0
 62
     7
 10
169.6279999999999
 20
212.58799999999991
 30
0.0
 11
169.89500000000001
 21
212.822
 31
0.0
  0
LINE
  5
252
  8
0
 62
     7
 10
169.89500000000001
 20
212.822
 30
0.0
 11
170.19799999999989
 21
213.00599999999989
 31
0.0
  0
LINE
  5
253
  8
0
 62
     7
 10
170.19799999999989
 20
213.00599999999989
 30
0.0
 11
170.53
 21
213.1329999999999
 31
0.0
  0
LINE
  5
254
  8
0
 62
     7
 10
170.53
 20
213.1329999999999
 30
0.0
 11
170.87899999999999
 21
213.19900000000001
 31
0.0
  0
LINE
  5
255
  8
0
 62
     7
 10
168.62200000000001
 20
204.16699999999989
 30
0.0
 11
169.07899999999989
 21
211.309
 31
0.0
  0
LINE
  5
256
  8
0
 62
     7
 10
165.2529999999999
 20
200.75399999999999
 30
0.0
 11
165.89999999999989
 21
200.8539999999999
 31
0.0
  0
LINE
  5
257
  8
0
 62
     7
 10
165.89999999999989
 20
200.8539999999999
 30
0.0
 11
166.518
 21
201.06999999999991
 31
0.0
  0
LINE
  5
258
  8
0
 62
     7
 10
166.518
 20
201.06999999999991
 30
0.0
 11
167.08699999999999
 21
201.39500000000001
 31
0.0
  0
LINE
  5
259
  8
0
 62
     7
 10
167.08699999999999
 20
201.39500000000001
 30
0.0
 11
167.58799999999999
 21
201.81700000000001
 31
0.0
  0
LINE
  5
25A
  8
0
 62
     7
 10
167.58799999999999
 20
201.81700000000001
 30
0.0
 11
168.005
 21
202.32400000000001
 31
0.0
  0
LINE
  5
25B
  8
0
 62
     7
 10
168.005
 20
202.32400000000001
 30
0.0
 11
168.322
 21
202.89699999999999
 31
0.0
  0
LINE
  5
25C
  8
0
 62
     7
 10
168.322
 20
202.89699999999999
 30
0.0
 11
168.52999999999989
 21
203.51799999999989
 31
0.0
  0
LINE
  5
25D
  8
0
 62
     7
 10
168.52999999999989
 20
203.51799999999989
 30
0.0
 11
168.62200000000001
 21
204.16699999999989
 31
0.0
  0
LINE
  5
25E
  8
0
 62
     7
 10
151.00200000000001
 20
199.858
 30
0.0
 11
165.2529999999999
 21
200.75399999999999
 31
0.0
  0
LINE
  5
25F
  8
0
 62
     7
 10
148.78399999999999
 20
198.8009999999999
 30
0.0
 11
149.13800000000001
 21
199.1629999999999
 31
0.0
  0
LINE
  5
260
  8
0
 62
     7
 10
149.13800000000001
 20
199.1629999999999
 30
0.0
 11
149.55099999999999
 21
199.45699999999991
 31
0.0
  0
LINE
  5
261
  8
0
 62
     7
 10
149.55099999999999
 20
199.45699999999991
 30
0.0
 11
150.0089999999999
 21
199.67500000000001
 31
0.0
  0
LINE
  5
262
  8
0
 62
     7
 10
150.0089999999999
 20
199.67500000000001
 30
0.0
 11
150.49799999999991
 21
199.80999999999989
 31
0.0
  0
LINE
  5
263
  8
0
 62
     7
 10
150.49799999999991
 20
199.80999999999989
 30
0.0
 11
151.00200000000001
 21
199.858
 31
0.0
  0
LINE
  5
264
  8
0
 62
     7
 10
148.578
 20
198.22900000000001
 30
0.0
 11
148.59200000000001
 21
198.3829999999999
 31
0.0
  0
LINE
  5
265
  8
0
 62
     7
 10
148.59200000000001
 20
198.3829999999999
 30
0.0
 11
148.631
 21
198.5329999999999
 31
0.0
  0
LINE
  5
266
  8
0
 62
     7
 10
148.631
 20
198.5329999999999
 30
0.0
 11
148.696
 21
198.67400000000001
 31
0.0
  0
LINE
  5
267
  8
0
 62
     7
 10
148.696
 20
198.67400000000001
 30
0.0
 11
148.78399999999999
 21
198.8009999999999
 31
0.0
  0
LINE
  5
268
  8
0
 62
     7
 10
148.578
 20
197.89899999999989
 30
0.0
 11
148.578
 21
198.22900000000001
 31
0.0
  0
LINE
  5
269
  8
0
 62
     7
 10
149.30199999999999
 20
197.01699999999991
 30
0.0
 11
149.1329999999999
 21
197.0679999999999
 31
0.0
  0
LINE
  5
26A
  8
0
 62
     7
 10
149.1329999999999
 20
197.0679999999999
 30
0.0
 11
148.97799999999989
 21
197.1509999999999
 31
0.0
  0
LINE
  5
26B
  8
0
 62
     7
 10
148.97799999999989
 20
197.1509999999999
 30
0.0
 11
148.84100000000001
 21
197.26300000000001
 31
0.0
  0
LINE
  5
26C
  8
0
 62
     7
 10
148.84100000000001
 20
197.26300000000001
 30
0.0
 11
148.7299999999999
 21
197.40000000000001
 31
0.0
  0
LINE
  5
26D
  8
0
 62
     7
 10
148.7299999999999
 20
197.40000000000001
 30
0.0
 11
148.64699999999999
 21
197.55500000000001
 31
0.0
  0
LINE
  5
26E
  8
0
 62
     7
 10
148.64699999999999
 20
197.55500000000001
 30
0.0
 11
148.595
 21
197.72399999999999
 31
0.0
  0
LINE
  5
26F
  8
0
 62
     7
 10
148.595
 20
197.72399999999999
 30
0.0
 11
148.578
 21
197.89899999999989
 31
0.0
  0
LINE
  5
270
  8
0
 62
     7
 10
149.87799999999999
 20
197.49299999999999
 30
0.0
 11
149.87799999999999
 21
196.9009999999999
 31
0.0
  0
LINE
  5
271
  8
0
 62
     7
 10
149.87799999999999
 20
196.9009999999999
 30
0.0
 11
149.30199999999999
 21
197.01699999999991
 31
0.0
  0
LINE
  5
272
  8
0
 62
     7
 10
149.78999999999999
 20
197.65899999999999
 30
0.0
 11
149.815
 21
197.63900000000001
 31
0.0
  0
LINE
  5
273
  8
0
 62
     7
 10
149.815
 20
197.63900000000001
 30
0.0
 11
149.83699999999999
 21
197.614
 31
0.0
  0
LINE
  5
274
  8
0
 62
     7
 10
149.83699999999999
 20
197.614
 30
0.0
 11
149.8549999999999
 21
197.58699999999999
 31
0.0
  0
LINE
  5
275
  8
0
 62
     7
 10
149.8549999999999
 20
197.58699999999999
 30
0.0
 11
149.86799999999999
 21
197.55699999999999
 31
0.0
  0
LINE
  5
276
  8
0
 62
     7
 10
149.86799999999999
 20
197.55699999999999
 30
0.0
 11
149.876
 21
197.52500000000001
 31
0.0
  0
LINE
  5
277
  8
0
 62
     7
 10
149.876
 20
197.52500000000001
 30
0.0
 11
149.87799999999999
 21
197.49299999999999
 31
0.0
  0
LINE
  5
278
  8
0
 62
     7
 10
149.42099999999991
 20
197.90499999999989
 30
0.0
 11
149.78999999999999
 21
197.65899999999999
 31
0.0
  0
LINE
  5
279
  8
0
 62
     7
 10
149.34999999999999
 20
198.679
 30
0.0
 11
149.291
 21
198.61199999999991
 31
0.0
  0
LINE
  5
27A
  8
0
 62
     7
 10
149.291
 20
198.61199999999991
 30
0.0
 11
149.24700000000001
 21
198.535
 31
0.0
  0
LINE
  5
27B
  8
0
 62
     7
 10
149.24700000000001
 20
198.535
 30
0.0
 11
149.21600000000001
 21
198.452
 31
0.0
  0
LINE
  5
27C
  8
0
 62
     7
 10
149.21600000000001
 20
198.452
 30
0.0
 11
149.1999999999999
 21
198.364
 31
0.0
  0
LINE
  5
27D
  8
0
 62
     7
 10
149.1999999999999
 20
198.364
 30
0.0
 11
149.1999999999999
 21
198.27500000000001
 31
0.0
  0
LINE
  5
27E
  8
0
 62
     7
 10
149.1999999999999
 20
198.27500000000001
 30
0.0
 11
149.21600000000001
 21
198.18700000000001
 31
0.0
  0
LINE
  5
27F
  8
0
 62
     7
 10
149.21600000000001
 20
198.18700000000001
 30
0.0
 11
149.24700000000001
 21
198.10400000000001
 31
0.0
  0
LINE
  5
280
  8
0
 62
     7
 10
149.24700000000001
 20
198.10400000000001
 30
0.0
 11
149.29300000000001
 21
198.02799999999999
 31
0.0
  0
LINE
  5
281
  8
0
 62
     7
 10
149.29300000000001
 20
198.02799999999999
 30
0.0
 11
149.351
 21
197.95999999999989
 31
0.0
  0
LINE
  5
282
  8
0
 62
     7
 10
149.351
 20
197.95999999999989
 30
0.0
 11
149.42099999999991
 21
197.90499999999989
 31
0.0
  0
LINE
  5
283
  8
0
 62
     7
 10
149.87799999999999
 20
199.0679999999999
 30
0.0
 11
149.601
 21
198.892
 31
0.0
  0
LINE
  5
284
  8
0
 62
     7
 10
149.601
 20
198.892
 30
0.0
 11
149.34999999999999
 21
198.679
 31
0.0
  0
LINE
  5
285
  8
0
 62
     7
 10
151.01900000000001
 20
199.358
 30
0.0
 11
150.625
 21
199.3249999999999
 31
0.0
  0
LINE
  5
286
  8
0
 62
     7
 10
150.625
 20
199.3249999999999
 30
0.0
 11
150.24100000000001
 21
199.22699999999989
 31
0.0
  0
LINE
  5
287
  8
0
 62
     7
 10
150.24100000000001
 20
199.22699999999989
 30
0.0
 11
149.87799999999999
 21
199.0679999999999
 31
0.0
  0
LINE
  5
288
  8
0
 62
     7
 10
165.28399999999999
 20
200.25499999999991
 30
0.0
 11
151.01900000000001
 21
199.358
 31
0.0
  0
LINE
  5
289
  8
0
 62
     7
 10
169.1209999999999
 20
204.142
 30
0.0
 11
169.01699999999991
 21
203.40299999999999
 31
0.0
  0
LINE
  5
28A
  8
0
 62
     7
 10
169.01699999999991
 20
203.40299999999999
 30
0.0
 11
168.779
 21
202.69499999999991
 31
0.0
  0
LINE
  5
28B
  8
0
 62
     7
 10
168.779
 20
202.69499999999991
 30
0.0
 11
168.41800000000001
 21
202.04300000000001
 31
0.0
  0
LINE
  5
28C
  8
0
 62
     7
 10
168.41800000000001
 20
202.04300000000001
 30
0.0
 11
167.94399999999999
 21
201.46599999999989
 31
0.0
  0
LINE
  5
28D
  8
0
 62
     7
 10
167.94399999999999
 20
201.46599999999989
 30
0.0
 11
167.37299999999991
 21
200.98500000000001
 31
0.0
  0
LINE
  5
28E
  8
0
 62
     7
 10
167.37299999999991
 20
200.98500000000001
 30
0.0
 11
166.72599999999991
 21
200.61500000000001
 31
0.0
  0
LINE
  5
28F
  8
0
 62
     7
 10
166.72599999999991
 20
200.61500000000001
 30
0.0
 11
166.02099999999999
 21
200.369
 31
0.0
  0
LINE
  5
290
  8
0
 62
     7
 10
166.02099999999999
 20
200.369
 30
0.0
 11
165.28399999999999
 21
200.25499999999991
 31
0.0
  0
LINE
  5
291
  8
0
 62
     7
 10
169.57299999999989
 20
211.172
 30
0.0
 11
169.34899999999999
 21
208.69499999999991
 31
0.0
  0
LINE
  5
292
  8
0
 62
     7
 10
169.34899999999999
 20
208.69499999999991
 30
0.0
 11
169.244
 21
206.59700000000001
 31
0.0
  0
LINE
  5
293
  8
0
 62
     7
 10
169.244
 20
206.59700000000001
 30
0.0
 11
169.1209999999999
 21
204.142
 31
0.0
  0
LINE
  5
294
  8
0
 62
     7
 10
170.685
 20
212.309
 30
0.0
 11
170.47099999999989
 21
212.27399999999989
 31
0.0
  0
LINE
  5
295
  8
0
 62
     7
 10
170.47099999999989
 20
212.27399999999989
 30
0.0
 11
170.26699999999991
 21
212.20099999999991
 31
0.0
  0
LINE
  5
296
  8
0
 62
     7
 10
170.26699999999991
 20
212.20099999999991
 30
0.0
 11
170.07900000000001
 21
212.09200000000001
 31
0.0
  0
LINE
  5
297
  8
0
 62
     7
 10
170.07900000000001
 20
212.09200000000001
 30
0.0
 11
169.9129999999999
 21
211.952
 31
0.0
  0
LINE
  5
298
  8
0
 62
     7
 10
169.9129999999999
 20
211.952
 30
0.0
 11
169.77699999999999
 21
211.78299999999999
 31
0.0
  0
LINE
  5
299
  8
0
 62
     7
 10
169.77699999999999
 20
211.78299999999999
 30
0.0
 11
169.672
 21
211.59299999999999
 31
0.0
  0
LINE
  5
29A
  8
0
 62
     7
 10
169.672
 20
211.59299999999999
 30
0.0
 11
169.60299999999989
 21
211.38699999999989
 31
0.0
  0
LINE
  5
29B
  8
0
 62
     7
 10
169.60299999999989
 20
211.38699999999989
 30
0.0
 11
169.57299999999989
 21
211.172
 31
0.0
  0
ARC
  5
29C
  8
0
 62
     7
 10
165.06282200000001
 20
204.27269699999991
 30
0.0
 40
4.0242559999999994
 50
273.14543700000002
 51
319.04554000000002
  0
ARC
  5
29D
  8
0
 62
     7
 10
165.01090500000001
 20
204.35272800000001
 30
0.0
 40
4.1160069999999989
 50
318.677863
 51
357.06016199999999
  0
ARC
  5
29E
  8
0
 62
     7
 10
165.063005
 20
204.26658599999999
 30
0.0
 40
3.5179989999999992
 50
273.089808
 51
315.877678
  0
ARC
  5
29F
  8
0
 62
     7
 10
164.993889
 20
204.36078599999999
 30
0.0
 40
3.633248
 50
315.57010099999991
 51
356.93908099999987
  0
ARC
  5
2A0
  8
0
 62
     7
 10
165.059719
 20
204.275418
 30
0.0
 40
3.4272049999999998
 50
273.11139700000001
 51
317.14351599999998
  0
ARC
  5
2A1
  8
0
 62
     7
 10
165.00241800000001
 20
204.35659799999991
 30
0.0
 40
3.524486
 50
316.80968200000001
 51
356.99123399999991
  0
ARC
  5
2A2
  8
0
 62
     7
 10
169.63894599999989
 20
236.27571800000001
 30
0.0
 40
0.230564
 50
190.5290949999999
 51
215.42482899999999
  0
ARC
  5
2A3
  8
0
 62
     7
 10
169.70802499999991
 20
236.3079689999999
 30
0.0
 40
0.305859
 50
212.846272
 51
241.72949199999991
  0
ARC
  5
2A4
  8
0
 62
     7
 10
165.49980600000001
 20
235.312871
 30
0.0
 40
4.0242129999999987
 50
2.4165689999999991
 51
48.269413999999998
  0
ARC
  5
2A5
  8
0
 62
     7
 10
165.41897099999991
 20
235.26245
 30
0.0
 40
4.1157339999999989
 50
47.896819999999991
 51
86.241228000000007
  0
ARC
  5
2A6
  8
0
 62
     7
 10
165.507496
 20
235.313806
 30
0.0
 40
3.5163500000000001
 50
2.3460160000000001
 51
45.113509999999998
  0
ARC
  5
2A7
  8
0
 62
     7
 10
165.40976199999989
 20
235.2440749999999
 30
0.0
 40
3.6347809999999989
 50
44.797691999999991
 51
86.109255000000005
  0
ARC
  5
2A8
  8
0
 62
     7
 10
165.49947900000001
 20
235.3112799999999
 30
0.0
 40
3.4244269999999992
 50
2.364789
 51
46.381492999999999
  0
ARC
  5
2A9
  8
0
 62
     7
 10
165.4141139999999
 20
235.25267199999999
 30
0.0
 40
3.525811
 50
46.034232000000003
 51
86.160698999999994
  0
LINE
  5
2AA
  8
0
 62
     7
 10
148.47799999999989
 20
197.89899999999989
 30
0.0
 11
148.47799999999989
 21
199.79900000000001
 31
0.0
  0
LINE
  5
2AB
  8
0
  6
AIGENLINE001
 62
     7
 10
152.47799999999989
 20
244.64999999999989
 30
0.0
 11
146.47799999999989
 21
244.64999999999989
 31
0.0
  0
LINE
  5
2AC
  8
0
  6
AIGENLINE001
 62
     7
 10
172.47799999999989
 20
221.79899999999989
 30
0.0
 11
146.47799999999989
 21
221.79899999999989
 31
0.0
  0
LINE
  5
2AD
  8
0
 62
     7
 10
150.82900000000001
 20
199.947
 30
0.0
 11
165.2459999999999
 21
200.85299999999989
 31
0.0
  0
ARC
  5
2AE
  8
0
 62
     7
 10
169.78949800000001
 20
234.49073399999989
 30
0.0
 40
0.188897
 50
129.529819
 51
141.19712999999999
  0
ARC
  5
2AF
  8
0
 62
     7
 10
169.88263000000001
 20
234.41530800000001
 30
0.0
 40
0.308741
 50
141.1191739999999
 51
182.50442699999999
  0
LINE
  5
2B0
  8
0
 62
     7
 10
169.828
 20
235.59700000000001
 30
0.0
 11
169.828
 21
235.00200000000001
 31
0.0
  0
ARC
  5
2B1
  8
0
 62
     7
 10
169.44904899999989
 20
234.90399600000001
 30
0.0
 40
0.346538
 50
309.45603199999999
 51
329.5450699999999
  0
ARC
  5
2B2
  8
0
 62
     7
 10
169.306567
 20
235.00710299999989
 30
0.0
 40
0.5218880000000001
 50
327.71544299999988
 51
359.47281299999997
  0
ARC
  5
2B3
  8
0
 62
     7
 10
169.4154419999999
 20
235.61639700000001
 30
0.0
 40
0.413434
 50
357.34865200000002
 51
26.491275000000002
  0
ARC
  5
2B4
  8
0
 62
     7
 10
169.31889699999999
 20
235.587412
 30
0.0
 40
0.513057
 50
24.578677999999989
 51
61.569527000000001
  0
ARC
  5
2B5
  8
0
 62
     7
 10
169.538364
 20
206.5858289999999
 30
0.0
 40
0.29442
 50
104.78077999999999
 51
177.899573
  0
ARC
  5
2B6
  8
0
 62
     7
 10
169.6152679999999
 20
208.672484
 30
0.0
 40
0.267348
 50
175.15996299999989
 51
211.05655299999989
  0
ARC
  5
2B7
  8
0
 62
     7
 10
169.64980600000001
 20
208.6819219999999
 30
0.0
 40
0.301961
 50
209.20957699999991
 51
246.356965
  0
LINE
  5
2B8
  8
0
 62
     7
 10
169.828
 20
207.947
 30
0.0
 11
169.828
 21
207.352
 31
0.0
  0
ARC
  5
2B9
  8
0
 62
     7
 10
169.40750299999999
 20
207.96533299999999
 30
0.0
 40
0.4213250000000001
 50
357.52053000000001
 51
26.321968999999999
  0
ARC
  5
2BA
  8
0
 62
     7
 10
169.31809799999991
 20
207.935507
 30
0.0
 40
0.514848
 50
24.885066999999999
 51
65.853307000000001
  0
ARC
  5
2BB
  8
0
 62
     7
 10
169.3264629999999
 20
207.35343099999989
 30
0.0
 40
0.501973
 50
282.084924
 51
359.85194899999999
  0
LINE
  5
2BC
  8
0
 62
     7
 10
165.28399999999999
 20
200.25499999999991
 30
0.0
 11
151.01900000000001
 21
199.358
 31
0.0
  0
LINE
  5
2BD
  8
0
 62
     7
 10
165.2529999999999
 20
200.75399999999999
 30
0.0
 11
151.00200000000001
 21
199.858
 31
0.0
  0
LINE
  5
2BE
  8
0
 62
     7
 10
165.69200000000001
 20
200.88200000000001
 30
0.0
 11
150.99899999999991
 21
199.958
 31
0.0
  0
ARC
  5
2BF
  8
0
 62
     7
 10
150.89278100000001
 20
240.837886
 30
0.0
 40
0.514274
 50
181.48609200000001
 51
264.83977299999992
  0
ARC
  5
2C0
  8
0
 62
     7
 10
150.70309399999991
 20
240.760392
 30
0.0
 40
0.92484
 50
181.425377
 51
264.87797099999989
  0
ARC
  5
2C1
  8
0
 62
     7
 10
150.7071929999999
 20
240.7640439999999
 30
0.0
 40
1.028905999999999
 50
181.48456599999989
 51
264.82155899999992
  0
LINE
  5
2C2
  8
0
 62
     7
 10
150.84700000000001
 20
240.32599999999991
 30
0.0
 11
165.68899999999999
 21
239.369
 31
0.0
  0
LINE
  5
2C3
  8
0
 62
     7
 10
150.62100000000001
 20
239.839
 30
0.0
 11
165.65599999999989
 21
238.87
 31
0.0
  0
LINE
  5
2C4
  8
0
 62
     7
 10
150.614
 20
239.739
 30
0.0
 11
165.65000000000001
 21
238.7709999999999
 31
0.0
  0
ARC
  5
2C5
  8
0
 62
     7
 10
149.30853999999999
 20
246.55556799999999
 30
0.0
 40
1.0719190000000001
 50
356.69840799999997
 51
8.0424530000000001
  0
ARC
  5
2C6
  8
0
 62
     7
 10
148.70693299999999
 20
246.4751839999999
 30
0.0
 40
1.6788609999999999
 50
7.8862880000000004
 51
47.400247
  0
ARC
  5
2C7
  8
0
 62
     7
 10
149.98526000000001
 20
249.45681899999991
 30
0.0
 40
0.5110770000000001
 50
124.302635
 51
177.47076599999991
  0
ARC
  5
2C8
  8
0
 62
     7
 10
1241.0909999999999
 20
249.47768699999989
 30
0.0
 40
1091.6159699999989
 50
179.9998919999999
 51
180.06439499999991
  0
ARC
  5
2C9
  8
0
 62
     7
 10
149.9715479999999
 20
248.28030799999999
 30
0.0
 40
0.497032
 50
183.35880900000001
 51
213.8454879999999
  0
ARC
  5
2CA
  8
0
 62
     7
 10
149.885547
 20
248.20773799999989
 30
0.0
 40
0.3853849999999999
 50
212.00544599999989
 51
226.45880699999989
  0
ARC
  5
2CB
  8
0
 62
     7
 10
153.96216200000001
 20
252.16413799999989
 30
0.0
 40
6.065925
 50
224.28975
 51
227.23329899999999
  0
ARC
  5
2CC
  8
0
 62
     7
 10
149.50502700000001
 20
249.67746699999989
 30
0.0
 40
0.9275830000000001
 50
102.6598249999999
 51
177.59463099999991
  0
LINE
  5
2CD
  8
0
 62
     7
 10
148.578
 20
249.71600000000001
 30
0.0
 11
148.578
 21
248.49600000000001
 31
0.0
  0
ARC
  5
2CE
  8
0
 62
     7
 10
149.45456699999991
 20
248.518798
 30
0.0
 40
0.87659
 50
181.45888400000001
 51
191.69539999999989
  0
ARC
  5
2CF
  8
0
 62
     7
 10
149.059493
 20
248.40758199999999
 30
0.0
 40
0.468062
 50
188.165088
 51
195.49762899999999
  0
ARC
  5
2D0
  8
0
 62
     7
 10
149.48929399999989
 20
248.52680099999989
 30
0.0
 40
0.9140909999999999
 50
195.50025299999999
 51
221.5255239999999
  0
ARC
  5
2D1
  8
0
 62
     7
 10
149.07943899999989
 20
246.53519199999991
 30
0.0
 40
0.700323
 50
356.61442299999987
 51
10.58793
  0
ARC
  5
2D2
  8
0
 62
     7
 10
148.698364
 20
246.47283799999991
 30
0.0
 40
1.0864029999999989
 50
10.12758
 51
47.526122999999998
  0
LINE
  5
2D3
  8
0
 62
     7
 10
150.37899999999991
 20
240.8249999999999
 30
0.0
 11
150.37899999999991
 21
246.494
 31
0.0
  0
LINE
  5
2D4
  8
0
 62
     7
 10
149.77899999999991
 20
240.73699999999991
 30
0.0
 11
149.77899999999991
 21
246.494
 31
0.0
  0
ARC
  5
2D5
  8
0
 62
     7
 10
149.02552600000001
 20
246.52985499999991
 30
0.0
 40
0.654099
 50
356.84313900000001
 51
11.507099
  0
ARC
  5
2D6
  8
0
 62
     7
 10
148.6956449999999
 20
246.47198700000001
 30
0.0
 40
0.988934
 50
10.97971299999999
 51
47.500911999999992
  0
ARC
  5
2D7
  8
0
 62
     7
 10
152.21872499999989
 20
250.85839799999999
 30
0.0
 40
4.6037749999999988
 50
220.72675299999989
 51
223.03618599999999
  0
ARC
  5
2D8
  8
0
 62
     7
 10
156.675567
 20
254.9469279999999
 30
0.0
 40
10.651774
 50
222.749942
 51
226.6509439999999
  0
LINE
  5
2D9
  8
0
 62
     7
 10
149.679
 20
240.73699999999991
 30
0.0
 11
149.679
 21
246.494
 31
0.0
  0
LINE
  5
2DA
  8
0
 62
     7
 10
148.47799999999989
 20
197.89899999999989
 30
0.0
 11
148.47799999999989
 21
248.50200000000001
 31
0.0
  0
LINE
  5
2DB
  8
0
 62
     7
 10
149.87799999999999
 20
247.67699999999999
 30
0.0
 11
149.87799999999999
 21
250.80000000000001
 31
0.0
  0
ARC
  5
2DC
  8
0
 62
     7
 10
149.50953200000001
 20
249.673799
 30
0.0
 40
1.0321759999999991
 50
102.7096079999999
 51
177.48161999999999
  0
LINE
  5
2DD
  8
0
 62
     7
 10
148.47799999999989
 20
249.71899999999999
 30
0.0
 11
148.47799999999989
 21
248.48799999999989
 31
0.0
  0
ARC
  5
2DE
  8
0
 62
     7
 10
149.54273499999999
 20
248.5268759999999
 30
0.0
 40
1.065083999999999
 50
182.08037699999991
 51
191.11949599999991
  0
ARC
  5
2DF
  8
0
 62
     7
 10
148.98664099999991
 20
248.39046599999989
 30
0.0
 40
0.493839
 50
188.03148200000001
 51
195.296029
  0
ARC
  5
2E0
  8
0
 62
     7
 10
149.48268899999991
 20
248.52443299999999
 30
0.0
 40
1.0076579999999991
 50
195.202811
 51
221.65838099999991
  0
LINE
  5
2E1
  8
0
 62
     7
 10
149.28200000000001
 20
250.6809999999999
 30
0.0
 11
149.87799999999999
 21
250.80000000000001
 31
0.0
  0
LINE
  5
2E2
  8
0
 62
     7
 10
149.30199999999999
 20
250.58199999999991
 30
0.0
 11
149.87799999999999
 21
250.69799999999989
 31
0.0
  0
ARC
  5
2E3
  8
0
 62
     7
 10
149.70495600000001
 20
250.081245
 30
0.0
 40
0.164365
 50
300.98159399999992
 51
330.89983100000001
  0
ARC
  5
2E4
  8
0
 62
     7
 10
149.67882800000001
 20
250.10635599999989
 30
0.0
 40
0.199621
 50
328.24829499999998
 51
0.106821
  0
LINE
  5
2E5
  8
0
 62
     7
 10
149.78999999999999
 20
249.94
 30
0.0
 11
149.697
 21
249.87899999999999
 31
0.0
  0
LINE
  5
2E6
  8
0
 62
     7
 10
149.87799999999999
 20
197.89899999999989
 30
0.0
 11
149.87799999999999
 21
199.0679999999999
 31
0.0
  0
ARC
  5
2E7
  8
0
 62
     7
 10
149.72382300000001
 20
198.320041
 30
0.0
 40
0.5183210000000001
 50
136.1604439999999
 51
222.16435999999999
  0
ARC
  5
2E8
  8
0
 62
     7
 10
149.6399439999999
 20
198.251002
 30
0.0
 40
0.409836
 50
222.88178199999999
 51
237.698409
  0
LINE
  5
2E9
  8
0
 62
     7
 10
148.578
 20
198.22900000000001
 30
0.0
 11
148.578
 21
197.89899999999989
 31
0.0
  0
ARC
  5
2EA
  8
0
 62
     7
 10
149.16668200000001
 20
198.43774999999991
 30
0.0
 40
0.6280600000000001
 50
137.1243509999999
 51
152.05163999999991
  0
ARC
  5
2EB
  8
0
 62
     7
 10
149.530632
 20
198.218996
 30
0.0
 40
1.052330999999999
 50
150.81742
 51
179.43003300000001
  0
ARC
  5
2EC
  8
0
 62
     7
 10
149.20583999999991
 20
198.410123
 30
0.0
 40
0.5756350000000001
 50
137.18374800000001
 51
152.81281000000001
  0
ARC
  5
2ED
  8
0
 62
     7
 10
149.52954099999991
 20
198.21860699999999
 30
0.0
 40
0.9513419999999999
 50
151.4600989999999
 51
179.34611599999991
  0
ARC
  5
2EE
  8
0
 62
     7
 10
150.93585999999999
 20
197.89172999999991
 30
0.0
 40
1.468696
 50
86.763365000000007
 51
96.699798000000001
  0
ARC
  5
2EF
  8
0
 62
     7
 10
151.024415
 20
197.031364
 30
0.0
 40
2.3335520000000001
 50
96.394687000000005
 51
113.98787900000001
  0
ARC
  5
2F0
  8
0
 62
     7
 10
151.03807900000001
 20
196.8954249999999
 30
0.0
 40
2.4636759999999991
 50
112.99290499999999
 51
129.42962099999991
  0
ARC
  5
2F1
  8
0
 62
     7
 10
150.434798
 20
197.68104099999991
 30
0.0
 40
1.47407
 50
130.71204
 51
137.386887
  0
ARC
  5
2F2
  8
0
 62
     7
 10
150.90502000000001
 20
197.91127599999999
 30
0.0
 40
1.9491199999999991
 50
87.140767999999994
 51
101.021675
  0
ARC
  5
2F3
  8
0
 62
     7
 10
151.0819129999999
 20
196.84381999999991
 30
0.0
 40
3.0308589999999991
 50
100.4460999999999
 51
134.68082100000001
  0
ARC
  5
2F4
  8
0
 62
     7
 10
150.33499900000001
 20
197.65790100000001
 30
0.0
 40
1.927265
 50
135.91005999999999
 51
143.60823300000001
  0
ARC
  5
2F5
  8
0
 62
     7
 10
150.901183
 20
197.944526
 30
0.0
 40
2.0157180000000001
 50
87.224175999999986
 51
100.51424899999989
  0
ARC
  5
2F6
  8
0
 62
     7
 10
151.07798700000001
 20
196.84936699999989
 30
0.0
 40
3.1248599999999991
 50
100.037347
 51
134.36820299999991
  0
ARC
  5
2F7
  8
0
 62
     7
 10
150.334687
 20
197.6619389999999
 30
0.0
 40
2.0245540000000002
 50
135.41108500000001
 51
143.538782
  0
ARC
  5
2F8
  8
0
 62
     7
 10
149.48613399999999
 20
197.905598
 30
0.0
 40
1.0078
 50
180.35115699999989
 51
258.33938199999989
  0
LINE
  5
2F9
  8
0
 62
     7
 10
149.87799999999999
 20
199.0679999999999
 30
0.0
 11
149.87799999999999
 21
196.79900000000001
 31
0.0
  0
LINE
  5
2FA
  8
0
 62
     7
 10
149.78999999999999
 20
197.65899999999999
 30
0.0
 11
149.40100000000001
 21
197.91800000000001
 31
0.0
  0
LINE
  5
2FB
  8
0
 62
     7
 10
149.30199999999999
 20
197.01699999999991
 30
0.0
 11
149.87799999999999
 21
196.9009999999999
 31
0.0
  0
ARC
  5
2FC
  8
0
 62
     7
 10
149.48560699999999
 20
197.9053219999999
 30
0.0
 40
0.907365
 50
180.37259900000001
 51
258.308468
  0
LINE
  5
2FD
  8
0
 62
     7
 10
149.28200000000001
 20
196.91900000000001
 30
0.0
 11
149.87799999999999
 21
196.79900000000001
 31
0.0
  0
ARC
  5
2FE
  8
0
 62
     7
 10
149.717769
 20
197.50106099999999
 30
0.0
 40
0.160905
 50
356.96916499999992
 51
26.350357999999989
  0
ARC
  5
2FF
  8
0
 62
     7
 10
149.6773409999999
 20
197.491467
 30
0.0
 40
0.201607
 50
23.692925999999989
 51
56.175930000000008
  0
LINE
  5
300
  8
0
 62
     7
 10
149.87799999999999
 20
197.07400000000001
 30
0.0
 11
149.87799999999999
 21
199.0679999999999
 31
0.0
  0
LINE
  5
301
  8
0
 62
     7
 10
149.87799999999999
 20
197.07400000000001
 30
0.0
 11
149.87799999999999
 21
196.79900000000001
 31
0.0
  0
LINE
  5
302
  8
0
 62
     7
 10
169.07899999999989
 20
211.309
 30
0.0
 11
168.62200000000001
 21
204.16699999999989
 31
0.0
  0
LINE
  5
303
  8
0
 62
     7
 10
168.9799999999999
 20
211.31399999999999
 30
0.0
 11
168.52199999999999
 21
204.172
 31
0.0
  0
LINE
  5
304
  8
0
 62
     7
 10
169.57299999999989
 20
211.172
 30
0.0
 11
169.1209999999999
 21
204.142
 31
0.0
  0
ARC
  5
305
  8
0
 62
     7
 10
170.795558
 20
211.08838499999999
 30
0.0
 40
1.2256249999999991
 50
94.534044999999992
 51
176.07628399999999
  0
ARC
  5
306
  8
0
 62
     7
 10
170.6729959999999
 20
212.51413099999999
 30
0.0
 40
0.205566
 50
277.174779
 51
358.65395099999989
  0
LINE
  5
307
  8
0
 62
     7
 10
170.87899999999999
 20
223.7999999999999
 30
0.0
 11
170.87899999999999
 21
212.50899999999999
 31
0.0
  0
LINE
  5
308
  8
0
 62
     7
 10
170.87899999999999
 20
223.7999999999999
 30
0.0
 11
170.87899999999999
 21
212.50899999999999
 31
0.0
  0
ARC
  5
309
  8
0
 62
     7
 10
170.671817
 20
212.51586399999999
 30
0.0
 40
0.206792
 50
273.6244299999999
 51
358.181602
  0
ARC
  5
30A
  8
0
 62
     7
 10
171.04673399999999
 20
211.268506
 30
0.0
 40
1.937824999999999
 50
94.980279000000024
 51
138.38463200000001
  0
ARC
  5
30B
  8
0
 62
     7
 10
171.0856399999999
 20
211.205568
 30
0.0
 40
2.008823
 50
137.77951699999991
 51
177.0577449999999
  0
ARC
  5
30C
  8
0
 62
     7
 10
171.0438199999999
 20
211.27867699999999
 30
0.0
 40
2.0276849999999991
 50
94.676432999999975
 51
135.74332999999999
  0
ARC
  5
30D
  8
0
 62
     7
 10
171.098004
 20
211.19996399999999
 30
0.0
 40
2.1215060000000001
 50
135.24199899999999
 51
176.92285799999999
  0
LINE
  5
30E
  8
0
 62
     7
 10
169.07899999999989
 20
221.7999999999999
 30
0.0
 11
169.07899999999989
 21
213.30000000000001
 31
0.0
  0
LINE
  5
30F
  8
0
 62
     7
 10
169.07899999999989
 20
232.29099999999991
 30
0.0
 11
169.0209999999999
 21
235.45799999999991
 31
0.0
  0
LINE
  5
310
  8
0
 62
     7
 10
169.57299999999989
 20
232.42699999999999
 30
0.0
 11
169.5199999999999
 21
235.483
 31
0.0
  0
LINE
  5
311
  8
0
 62
     7
 10
168.9799999999999
 20
232.28499999999991
 30
0.0
 11
168.92099999999991
 21
235.453
 31
0.0
  0
ARC
  5
312
  8
0
 62
     7
 10
170.79438200000001
 20
232.50964399999989
 30
0.0
 40
1.224362999999999
 50
183.866873
 51
264.86933099999999
  0
ARC
  5
313
  8
0
 62
     7
 10
171.01398
 20
232.362336
 30
0.0
 40
1.935843
 50
182.122264
 51
225.57392799999991
  0
ARC
  5
314
  8
0
 62
     7
 10
171.08134299999989
 20
232.40021899999991
 30
0.0
 40
2.010165999999999
 50
224.95854399999999
 51
264.20867299999992
  0
ARC
  5
315
  8
0
 62
     7
 10
171.00395299999991
 20
232.35954699999999
 30
0.0
 40
2.0257509999999992
 50
182.09535099999999
 51
223.19912600000001
  0
ARC
  5
316
  8
0
 62
     7
 10
171.08716799999991
 20
232.4114799999999
 30
0.0
 40
2.122047999999999
 50
222.68326599999989
 51
264.35696200000001
  0
ARC
  5
317
  8
0
 62
     7
 10
170.67197200000001
 20
231.08396899999991
 30
0.0
 40
0.2066219999999999
 50
1.6796249999999999
 51
86.415693999999988
  0
LINE
  5
318
  8
0
 62
     7
 10
170.87899999999999
 20
223.7999999999999
 30
0.0
 11
170.87899999999999
 21
231.09
 31
0.0
  0
LINE
  5
319
  8
0
 62
     7
 10
169.07899999999989
 20
221.7999999999999
 30
0.0
 11
169.07899999999989
 21
230.30000000000001
 31
0.0
  0
ARC
  5
31A
  8
0
 62
     7
 10
170.67197200000001
 20
231.08396899999991
 30
0.0
 40
0.2066219999999999
 50
1.6796249999999999
 51
86.415693999999988
  0
LINE
  5
31B
  8
0
 62
     7
 10
149.58600000000001
 20
72.953100000000006
 30
0.0
 11
148.578
 21
73.961200000000005
 31
0.0
  0
LINE
  5
31C
  8
0
 62
     7
 10
149.185
 20
74.203299999999984
 30
0.0
 11
148.578
 21
74.809700000000007
 31
0.0
  0
LINE
  5
31D
  8
0
 62
     7
 10
149.875
 20
73.512900000000002
 30
0.0
 11
149.685
 21
73.703500000000005
 31
0.0
  0
LINE
  5
31E
  8
0
 62
     7
 10
149.178
 20
75.058099999999996
 30
0.0
 11
148.578
 21
75.658199999999994
 31
0.0
  0
LINE
  5
31F
  8
0
 62
     7
 10
149.184
 20
75.901399999999995
 30
0.0
 11
148.78700000000001
 21
76.298299999999998
 31
0.0
  0
LINE
  5
320
  8
0
 62
     7
 10
149.571
 20
76.362399999999994
 30
0.0
 11
149.214
 21
76.719300000000004
 31
0.0
  0
LINE
  5
321
  8
0
 62
     7
 10
150.1109999999999
 20
76.671400000000006
 30
0.0
 11
149.733
 21
77.048999999999992
 31
0.0
  0
LINE
  5
322
  8
0
 62
     7
 10
150.791
 20
76.839200000000005
 30
0.0
 11
150.357
 21
77.273600000000002
 31
0.0
  0
LINE
  5
323
  8
0
 62
     7
 10
151.58699999999999
 20
76.893000000000001
 30
0.0
 11
151.11600000000001
 21
77.363200000000006
 31
0.0
  0
LINE
  5
324
  8
0
 62
     7
 10
152.3829999999999
 20
76.944299999999998
 30
0.0
 11
151.91200000000001
 21
77.414900000000003
 31
0.0
  0
LINE
  5
325
  8
0
 62
     7
 10
153.18000000000001
 20
76.996000000000009
 30
0.0
 11
152.71000000000001
 21
77.4666
 31
0.0
  0
LINE
  5
326
  8
0
 62
     7
 10
153.977
 20
77.047600000000003
 30
0.0
 11
153.50700000000001
 21
77.518199999999993
 31
0.0
  0
LINE
  5
327
  8
0
 62
     7
 10
154.774
 20
77.099299999999985
 30
0.0
 11
154.30299999999991
 21
77.569900000000004
 31
0.0
  0
LINE
  5
328
  8
0
 62
     7
 10
155.57099999999991
 20
77.15100000000001
 30
0.0
 11
155.10099999999991
 21
77.621600000000001
 31
0.0
  0
LINE
  5
329
  8
0
 62
     7
 10
156.36799999999991
 20
77.202699999999993
 30
0.0
 11
155.89699999999999
 21
77.672899999999998
 31
0.0
  0
LINE
  5
32A
  8
0
 62
     7
 10
157.16499999999991
 20
77.253999999999991
 30
0.0
 11
156.6939999999999
 21
77.724599999999995
 31
0.0
  0
LINE
  5
32B
  8
0
 62
     7
 10
157.96100000000001
 20
77.305700000000002
 30
0.0
 11
157.49100000000001
 21
77.776300000000006
 31
0.0
  0
LINE
  5
32C
  8
0
 62
     7
 10
158.7589999999999
 20
77.357399999999984
 30
0.0
 11
158.2879999999999
 21
77.828000000000003
 31
0.0
  0
LINE
  5
32D
  8
0
 62
     7
 10
159.55500000000001
 20
77.408999999999992
 30
0.0
 11
159.08500000000001
 21
77.879599999999996
 31
0.0
  0
LINE
  5
32E
  8
0
 62
     7
 10
160.352
 20
77.460700000000003
 30
0.0
 11
159.88200000000001
 21
77.931299999999993
 31
0.0
  0
LINE
  5
32F
  8
0
 62
     7
 10
161.149
 20
77.5124
 30
0.0
 11
160.679
 21
77.982600000000005
 31
0.0
  0
LINE
  5
330
  8
0
 62
     7
 10
161.946
 20
77.563699999999997
 30
0.0
 11
161.47499999999991
 21
78.034300000000002
 31
0.0
  0
LINE
  5
331
  8
0
 62
     7
 10
162.74299999999991
 20
77.615399999999994
 30
0.0
 11
162.27299999999991
 21
78.085999999999999
 31
0.0
  0
LINE
  5
332
  8
0
 62
     7
 10
163.53999999999991
 20
77.667100000000005
 30
0.0
 11
163.0689999999999
 21
78.137699999999995
 31
0.0
  0
LINE
  5
333
  8
0
 62
     7
 10
164.33699999999999
 20
77.718699999999984
 30
0.0
 11
163.8659999999999
 21
78.189300000000003
 31
0.0
  0
LINE
  5
334
  8
0
 62
     7
 10
165.113
 20
77.790400000000005
 30
0.0
 11
164.6629999999999
 21
78.241
 31
0.0
  0
LINE
  5
335
  8
0
 62
     7
 10
165.78899999999999
 20
77.963300000000004
 30
0.0
 11
165.3899999999999
 21
78.3626
 31
0.0
  0
LINE
  5
336
  8
0
 62
     7
 10
166.3779999999999
 20
78.223100000000002
 30
0.0
 11
166.00599999999989
 21
78.594499999999996
 31
0.0
  0
LINE
  5
337
  8
0
 62
     7
 10
166.89599999999999
 20
78.5535
 30
0.0
 11
166.5379999999999
 21
78.911100000000005
 31
0.0
  0
LINE
  5
338
  8
0
 62
     7
 10
167.34899999999999
 20
78.948999999999984
 30
0.0
 11
166.9959999999999
 21
79.302499999999995
 31
0.0
  0
LINE
  5
339
  8
0
 62
     7
 10
167.74000000000001
 20
79.406199999999998
 30
0.0
 11
167.38200000000001
 21
79.764099999999999
 31
0.0
  0
LINE
  5
33A
  8
0
 62
     7
 10
168.06700000000001
 20
79.928399999999996
 30
0.0
 11
167.69399999999999
 21
80.301500000000004
 31
0.0
  0
LINE
  5
33B
  8
0
 62
     7
 10
168.321
 20
80.5227
 30
0.0
 11
167.91900000000001
 21
80.924400000000006
 31
0.0
  0
LINE
  5
33C
  8
0
 62
     7
 10
168.48799999999989
 20
81.204899999999995
 30
0.0
 11
168.03200000000001
 21
81.659999999999997
 31
0.0
  0
LINE
  5
33D
  8
0
 62
     7
 10
168.54900000000001
 20
81.991399999999985
 30
0.0
 11
168.07199999999989
 21
82.468199999999996
 31
0.0
  0
LINE
  5
33E
  8
0
 62
     7
 10
168.59
 20
82.799599999999998
 30
0.0
 11
168.113
 21
83.276399999999995
 31
0.0
  0
LINE
  5
33F
  8
0
 62
     7
 10
168.62999999999991
 20
83.607500000000016
 30
0.0
 11
168.15299999999991
 21
84.084299999999999
 31
0.0
  0
LINE
  5
340
  8
0
 62
     7
 10
168.6699999999999
 20
84.415700000000001
 30
0.0
 11
168.1929999999999
 21
84.892499999999998
 31
0.0
  0
LINE
  5
341
  8
0
 62
     7
 10
168.7109999999999
 20
85.223899999999986
 30
0.0
 11
168.23400000000001
 21
85.700699999999983
 31
0.0
  0
LINE
  5
342
  8
0
 62
     7
 10
168.75099999999989
 20
86.031800000000004
 30
0.0
 11
168.27500000000001
 21
86.508599999999987
 31
0.0
  0
LINE
  5
343
  8
0
 62
     7
 10
168.791
 20
86.840000000000003
 30
0.0
 11
168.31499999999991
 21
87.316800000000001
 31
0.0
  0
LINE
  5
344
  8
0
 62
     7
 10
168.83199999999999
 20
87.648300000000006
 30
0.0
 11
168.3549999999999
 21
88.125100000000003
 31
0.0
  0
LINE
  5
345
  8
0
 62
     7
 10
168.87299999999991
 20
88.456500000000005
 30
0.0
 11
168.3959999999999
 21
88.932900000000004
 31
0.0
  0
LINE
  5
346
  8
0
 62
     7
 10
168.9129999999999
 20
89.264399999999995
 30
0.0
 11
168.43599999999989
 21
89.741200000000006
 31
0.0
  0
LINE
  5
347
  8
0
 62
     7
 10
168.95299999999989
 20
90.072599999999994
 30
0.0
 11
168.477
 21
90.549400000000006
 31
0.0
  0
LINE
  5
348
  8
0
 62
     7
 10
168.994
 20
90.880799999999994
 30
0.0
 11
168.517
 21
91.357299999999995
 31
0.0
  0
LINE
  5
349
  8
0
 62
     7
 10
169.03399999999999
 20
91.688699999999997
 30
0.0
 11
168.55699999999999
 21
92.165499999999994
 31
0.0
  0
LINE
  5
34A
  8
0
 62
     7
 10
169.0749999999999
 20
92.496899999999997
 30
0.0
 11
168.5979999999999
 21
92.973699999999994
 31
0.0
  0
LINE
  5
34B
  8
0
 62
     7
 10
169.11500000000001
 20
93.305099999999996
 30
0.0
 11
168.63799999999989
 21
93.781599999999983
 31
0.0
  0
LINE
  5
34C
  8
0
 62
     7
 10
169.155
 20
94.113
 30
0.0
 11
168.67799999999991
 21
94.589799999999997
 31
0.0
  0
LINE
  5
34D
  8
0
 62
     7
 10
169.19599999999991
 20
94.921199999999985
 30
0.0
 11
168.71899999999999
 21
95.398100000000014
 31
0.0
  0
LINE
  5
34E
  8
0
 62
     7
 10
169.2359999999999
 20
95.729500000000002
 30
0.0
 11
168.75899999999999
 21
96.205899999999986
 31
0.0
  0
LINE
  5
34F
  8
0
 62
     7
 10
169.27699999999999
 20
96.537400000000005
 30
0.0
 11
168.80000000000001
 21
97.014200000000002
 31
0.0
  0
LINE
  5
350
  8
0
 62
     7
 10
169.31700000000001
 20
97.345600000000005
 30
0.0
 11
168.84
 21
97.822400000000016
 31
0.0
  0
LINE
  5
351
  8
0
 62
     7
 10
169.357
 20
98.153800000000004
 30
0.0
 11
168.88
 21
98.630600000000001
 31
0.0
  0
LINE
  5
352
  8
0
 62
     7
 10
169.39799999999991
 20
98.961699999999993
 30
0.0
 11
168.92099999999991
 21
99.438500000000005
 31
0.0
  0
LINE
  5
353
  8
0
 62
     7
 10
169.4379999999999
 20
99.769900000000007
 30
0.0
 11
168.96199999999999
 21
100.247
 31
0.0
  0
LINE
  5
354
  8
0
 62
     7
 10
169.47799999999989
 20
100.5779999999999
 30
0.0
 11
169.00200000000001
 21
101.05500000000001
 31
0.0
  0
LINE
  5
355
  8
0
 62
     7
 10
169.51900000000001
 20
101.386
 30
0.0
 11
169.042
 21
101.8629999999999
 31
0.0
  0
LINE
  5
356
  8
0
 62
     7
 10
169.55999999999989
 20
102.194
 30
0.0
 11
169.084
 21
102.6689999999999
 31
0.0
  0
LINE
  5
357
  8
0
 62
     7
 10
169.68599999999989
 20
102.917
 30
0.0
 11
169.26099999999991
 21
103.34099999999999
 31
0.0
  0
LINE
  5
358
  8
0
 62
     7
 10
170.06999999999991
 20
103.38
 30
0.0
 11
169.59999999999991
 21
103.851
 31
0.0
  0
LINE
  5
359
  8
0
 62
     7
 10
170.696
 20
103.60299999999999
 30
0.0
 11
170.06999999999991
 21
104.23
 31
0.0
  0
LINE
  5
35A
  8
0
 62
     7
 10
170.87899999999999
 20
104.26899999999991
 30
0.0
 11
170.684
 21
104.46299999999989
 31
0.0
  0
LINE
  5
35B
  8
0
 62
     7
 10
170.26099999999991
 20
121.857
 30
0.0
 11
169.25099999999989
 21
122.867
 31
0.0
  0
LINE
  5
35C
  8
0
 62
     7
 10
169.6759999999999
 20
123.29000000000001
 30
0.0
 11
169.0629999999999
 21
123.90299999999991
 31
0.0
  0
LINE
  5
35D
  8
0
 62
     7
 10
170.87899999999999
 20
122.08799999999989
 30
0.0
 11
170.28200000000001
 21
122.6849999999999
 31
0.0
  0
LINE
  5
35E
  8
0
 62
     7
 10
169.5449999999999
 20
124.2699999999999
 30
0.0
 11
169.01900000000001
 21
124.797
 31
0.0
  0
LINE
  5
35F
  8
0
 62
     7
 10
169.50099999999989
 20
125.163
 30
0.0
 11
168.97399999999999
 21
125.6899999999999
 31
0.0
  0
LINE
  5
360
  8
0
 62
     7
 10
169.4559999999999
 20
126.0559999999999
 30
0.0
 11
168.92899999999989
 21
126.583
 31
0.0
  0
LINE
  5
361
  8
0
 62
     7
 10
169.41200000000001
 20
126.949
 30
0.0
 11
168.88399999999999
 21
127.476
 31
0.0
  0
LINE
  5
362
  8
0
 62
     7
 10
169.36699999999999
 20
127.842
 30
0.0
 11
168.84
 21
128.36899999999989
 31
0.0
  0
LINE
  5
363
  8
0
 62
     7
 10
169.322
 20
128.73500000000001
 30
0.0
 11
168.7949999999999
 21
129.26300000000001
 31
0.0
  0
LINE
  5
364
  8
0
 62
     7
 10
149.80199999999999
 20
149.1039999999999
 30
0.0
 11
148.59100000000001
 21
150.31499999999991
 31
0.0
  0
LINE
  5
365
  8
0
 62
     7
 10
169.27699999999999
 20
129.62899999999991
 30
0.0
 11
168.75099999999989
 21
130.15499999999989
 31
0.0
  0
LINE
  5
366
  8
0
 62
     7
 10
149.178
 20
150.57599999999991
 30
0.0
 11
148.578
 21
151.17599999999999
 31
0.0
  0
LINE
  5
367
  8
0
 62
     7
 10
150.9199999999999
 20
148.83500000000001
 30
0.0
 11
150.3129999999999
 21
149.44200000000001
 31
0.0
  0
LINE
  5
368
  8
0
 62
     7
 10
149.178
 20
151.42400000000001
 30
0.0
 11
148.578
 21
152.024
 31
0.0
  0
LINE
  5
369
  8
0
 62
     7
 10
151.82599999999991
 20
148.77600000000001
 30
0.0
 11
151.29099999999991
 21
149.31200000000001
 31
0.0
  0
LINE
  5
36A
  8
0
 62
     7
 10
169.1879999999999
 20
131.41499999999991
 30
0.0
 11
168.66099999999989
 21
131.94200000000001
 31
0.0
  0
LINE
  5
36B
  8
0
 62
     7
 10
149.26599999999991
 20
152.185
 30
0.0
 11
148.702
 21
152.749
 31
0.0
  0
LINE
  5
36C
  8
0
 62
     7
 10
152.73400000000001
 20
148.71700000000001
 30
0.0
 11
152.19799999999989
 21
149.2529999999999
 31
0.0
  0
LINE
  5
36D
  8
0
 62
     7
 10
169.14400000000001
 20
132.30799999999999
 30
0.0
 11
168.6159999999999
 21
132.83500000000001
 31
0.0
  0
LINE
  5
36E
  8
0
 62
     7
 10
149.77000000000001
 20
152.53
 30
0.0
 11
149.1639999999999
 21
153.136
 31
0.0
  0
LINE
  5
36F
  8
0
 62
     7
 10
153.64099999999999
 20
148.65899999999991
 30
0.0
 11
153.10499999999999
 21
149.1939999999999
 31
0.0
  0
LINE
  5
370
  8
0
 62
     7
 10
169.09899999999999
 20
133.20099999999991
 30
0.0
 11
168.572
 21
133.72799999999989
 31
0.0
  0
LINE
  5
371
  8
0
 62
     7
 10
149.87799999999999
 20
153.27000000000001
 30
0.0
 11
149.86099999999999
 21
153.28700000000001
 31
0.0
  0
LINE
  5
372
  8
0
 62
     7
 10
154.54900000000001
 20
148.59999999999991
 30
0.0
 11
154.01299999999989
 21
149.136
 31
0.0
  0
LINE
  5
373
  8
0
 62
     7
 10
169.054
 20
134.09399999999999
 30
0.0
 11
168.52799999999991
 21
134.62100000000001
 31
0.0
  0
LINE
  5
374
  8
0
 62
     7
 10
155.45599999999999
 20
148.54099999999991
 30
0.0
 11
154.9199999999999
 21
149.07699999999991
 31
0.0
  0
LINE
  5
375
  8
0
 62
     7
 10
169.00999999999991
 20
134.98799999999989
 30
0.0
 11
168.483
 21
135.5149999999999
 31
0.0
  0
LINE
  5
376
  8
0
 62
     7
 10
156.363
 20
148.482
 30
0.0
 11
155.827
 21
149.018
 31
0.0
  0
LINE
  5
377
  8
0
 62
     7
 10
168.965
 20
135.881
 30
0.0
 11
168.4379999999999
 21
136.4079999999999
 31
0.0
  0
LINE
  5
378
  8
0
 62
     7
 10
157.27000000000001
 20
148.42399999999989
 30
0.0
 11
156.73500000000001
 21
148.95899999999989
 31
0.0
  0
LINE
  5
379
  8
0
 62
     7
 10
168.9199999999999
 20
136.77399999999989
 30
0.0
 11
168.393
 21
137.30099999999999
 31
0.0
  0
LINE
  5
37A
  8
0
 62
     7
 10
158.178
 20
148.36500000000001
 30
0.0
 11
157.64199999999991
 21
148.90000000000001
 31
0.0
  0
LINE
  5
37B
  8
0
 62
     7
 10
168.87599999999989
 20
137.667
 30
0.0
 11
168.3479999999999
 21
138.1939999999999
 31
0.0
  0
LINE
  5
37C
  8
0
 62
     7
 10
159.08500000000001
 20
148.30600000000001
 30
0.0
 11
158.54900000000001
 21
148.84200000000001
 31
0.0
  0
LINE
  5
37D
  8
0
 62
     7
 10
168.8309999999999
 20
138.55999999999989
 30
0.0
 11
168.304
 21
139.08699999999999
 31
0.0
  0
LINE
  5
37E
  8
0
 62
     7
 10
159.99199999999999
 20
148.24700000000001
 30
0.0
 11
159.45699999999999
 21
148.7829999999999
 31
0.0
  0
LINE
  5
37F
  8
0
 62
     7
 10
168.78599999999989
 20
139.45400000000001
 30
0.0
 11
168.25999999999991
 21
139.98099999999991
 31
0.0
  0
LINE
  5
380
  8
0
 62
     7
 10
160.899
 20
148.18899999999991
 30
0.0
 11
160.364
 21
148.7239999999999
 31
0.0
  0
LINE
  5
381
  8
0
 62
     7
 10
168.74199999999999
 20
140.34700000000001
 30
0.0
 11
168.215
 21
140.87399999999991
 31
0.0
  0
LINE
  5
382
  8
0
 62
     7
 10
161.80699999999999
 20
148.13
 30
0.0
 11
161.27099999999999
 21
148.66499999999999
 31
0.0
  0
LINE
  5
383
  8
0
 62
     7
 10
168.697
 20
141.24000000000001
 30
0.0
 11
168.16999999999999
 21
141.767
 31
0.0
  0
LINE
  5
384
  8
0
 62
     7
 10
162.71399999999991
 20
148.071
 30
0.0
 11
162.178
 21
148.60699999999991
 31
0.0
  0
LINE
  5
385
  8
0
 62
     7
 10
168.65199999999999
 20
142.1329999999999
 30
0.0
 11
168.125
 21
142.66
 31
0.0
  0
LINE
  5
386
  8
0
 62
     7
 10
163.62100000000001
 20
148.012
 30
0.0
 11
163.08600000000001
 21
148.548
 31
0.0
  0
LINE
  5
387
  8
0
 62
     7
 10
168.60699999999991
 20
143.02600000000001
 30
0.0
 11
168.08000000000001
 21
143.55299999999991
 31
0.0
  0
LINE
  5
388
  8
0
 62
     7
 10
164.52799999999991
 20
147.953
 30
0.0
 11
163.99299999999991
 21
148.489
 31
0.0
  0
LINE
  5
389
  8
0
 62
     7
 10
168.5629999999999
 20
143.9189999999999
 30
0.0
 11
168.03599999999989
 21
144.447
 31
0.0
  0
LINE
  5
38A
  8
0
 62
     7
 10
165.559
 20
147.77199999999999
 30
0.0
 11
164.905
 21
148.42500000000001
 31
0.0
  0
LINE
  5
38B
  8
0
 62
     7
 10
168.50899999999999
 20
144.822
 30
0.0
 11
167.85599999999999
 21
145.4739999999999
 31
0.0
  0
LINE
  5
38C
  8
0
 62
     7
 10
168.1999999999999
 20
145.9799999999999
 30
0.0
 11
166.06399999999999
 21
148.11500000000001
 31
0.0
  0
LINE
  5
38D
  8
0
 62
     7
 10
170.69900000000001
 20
103.604
 30
0.0
 11
170.685
 21
103.60299999999999
 31
0.0
  0
LINE
  5
38E
  8
0
 62
     7
 10
170.87899999999999
 20
103.803
 30
0.0
 11
170.875
 21
103.76600000000001
 31
0.0
  0
LINE
  5
38F
  8
0
 62
     7
 10
170.875
 20
103.76600000000001
 30
0.0
 11
170.86500000000001
 21
103.73099999999999
 31
0.0
  0
LINE
  5
390
  8
0
 62
     7
 10
170.86500000000001
 20
103.73099999999999
 30
0.0
 11
170.84899999999999
 21
103.69799999999999
 31
0.0
  0
LINE
  5
391
  8
0
 62
     7
 10
170.84899999999999
 20
103.69799999999999
 30
0.0
 11
170.82699999999991
 21
103.6689999999999
 31
0.0
  0
LINE
  5
392
  8
0
 62
     7
 10
170.82699999999991
 20
103.6689999999999
 30
0.0
 11
170.80000000000001
 21
103.64400000000001
 31
0.0
  0
LINE
  5
393
  8
0
 62
     7
 10
170.80000000000001
 20
103.64400000000001
 30
0.0
 11
170.76900000000001
 21
103.624
 31
0.0
  0
LINE
  5
394
  8
0
 62
     7
 10
170.76900000000001
 20
103.624
 30
0.0
 11
170.73500000000001
 21
103.611
 31
0.0
  0
LINE
  5
395
  8
0
 62
     7
 10
170.73500000000001
 20
103.611
 30
0.0
 11
170.69900000000001
 21
103.604
 31
0.0
  0
LINE
  5
396
  8
0
 62
     7
 10
170.87899999999999
 20
104.492
 30
0.0
 11
170.87899999999999
 21
103.803
 31
0.0
  0
LINE
  5
397
  8
0
 62
     7
 10
169.07899999999989
 20
102.602
 30
0.0
 11
169.1279999999999
 21
102.95399999999989
 31
0.0
  0
LINE
  5
398
  8
0
 62
     7
 10
169.1279999999999
 20
102.95399999999989
 30
0.0
 11
169.239
 21
103.2909999999999
 31
0.0
  0
LINE
  5
399
  8
0
 62
     7
 10
169.239
 20
103.2909999999999
 30
0.0
 11
169.40700000000001
 21
103.60299999999999
 31
0.0
  0
LINE
  5
39A
  8
0
 62
     7
 10
169.40700000000001
 20
103.60299999999999
 30
0.0
 11
169.6279999999999
 21
103.881
 31
0.0
  0
LINE
  5
39B
  8
0
 62
     7
 10
169.6279999999999
 20
103.881
 30
0.0
 11
169.89500000000001
 21
104.116
 31
0.0
  0
LINE
  5
39C
  8
0
 62
     7
 10
169.89500000000001
 20
104.116
 30
0.0
 11
170.19799999999989
 21
104.29899999999989
 31
0.0
  0
LINE
  5
39D
  8
0
 62
     7
 10
170.19799999999989
 20
104.29899999999989
 30
0.0
 11
170.53
 21
104.4259999999999
 31
0.0
  0
LINE
  5
39E
  8
0
 62
     7
 10
170.53
 20
104.4259999999999
 30
0.0
 11
170.87899999999999
 21
104.492
 31
0.0
  0
LINE
  5
39F
  8
0
 62
     7
 10
168.03099999999989
 20
81.654099999999985
 30
0.0
 11
169.07899999999989
 21
102.602
 31
0.0
  0
LINE
  5
3A0
  8
0
 62
     7
 10
164.66900000000001
 20
78.241399999999985
 30
0.0
 11
165.315
 21
78.342699999999994
 31
0.0
  0
LINE
  5
3A1
  8
0
 62
     7
 10
165.315
 20
78.342699999999994
 30
0.0
 11
165.93299999999991
 21
78.559700000000007
 31
0.0
  0
LINE
  5
3A2
  8
0
 62
     7
 10
165.93299999999991
 20
78.559700000000007
 30
0.0
 11
166.5
 21
78.884600000000006
 31
0.0
  0
LINE
  5
3A3
  8
0
 62
     7
 10
166.5
 20
78.884600000000006
 30
0.0
 11
167.00099999999989
 21
79.306899999999999
 31
0.0
  0
LINE
  5
3A4
  8
0
 62
     7
 10
167.00099999999989
 20
79.306899999999999
 30
0.0
 11
167.41499999999999
 21
79.813000000000002
 31
0.0
  0
LINE
  5
3A5
  8
0
 62
     7
 10
167.41499999999999
 20
79.813000000000002
 30
0.0
 11
167.73199999999991
 21
80.385599999999997
 31
0.0
  0
LINE
  5
3A6
  8
0
 62
     7
 10
167.73199999999991
 20
80.385599999999997
 30
0.0
 11
167.94
 21
81.006100000000004
 31
0.0
  0
LINE
  5
3A7
  8
0
 62
     7
 10
167.94
 20
81.006100000000004
 30
0.0
 11
168.03099999999989
 21
81.654099999999985
 31
0.0
  0
LINE
  5
3A8
  8
0
 62
     7
 10
150.83500000000001
 20
77.345299999999995
 30
0.0
 11
164.66900000000001
 21
78.241399999999985
 31
0.0
  0
LINE
  5
3A9
  8
0
 62
     7
 10
148.78399999999999
 20
76.294499999999999
 30
0.0
 11
149.114
 21
76.634200000000007
 31
0.0
  0
LINE
  5
3AA
  8
0
 62
     7
 10
149.114
 20
76.634200000000007
 30
0.0
 11
149.49399999999989
 21
76.915999999999997
 31
0.0
  0
LINE
  5
3AB
  8
0
 62
     7
 10
149.49399999999989
 20
76.915999999999997
 30
0.0
 11
149.916
 21
77.131699999999995
 31
0.0
  0
LINE
  5
3AC
  8
0
 62
     7
 10
149.916
 20
77.131699999999995
 30
0.0
 11
150.36600000000001
 21
77.27600000000001
 31
0.0
  0
LINE
  5
3AD
  8
0
 62
     7
 10
150.36600000000001
 20
77.27600000000001
 30
0.0
 11
150.83500000000001
 21
77.345299999999995
 31
0.0
  0
LINE
  5
3AE
  8
0
 62
     7
 10
148.578
 20
75.722599999999986
 30
0.0
 11
148.59200000000001
 21
75.876599999999996
 31
0.0
  0
LINE
  5
3AF
  8
0
 62
     7
 10
148.59200000000001
 20
75.876599999999996
 30
0.0
 11
148.631
 21
76.026499999999999
 31
0.0
  0
LINE
  5
3B0
  8
0
 62
     7
 10
148.631
 20
76.026499999999999
 30
0.0
 11
148.696
 21
76.167100000000005
 31
0.0
  0
LINE
  5
3B1
  8
0
 62
     7
 10
148.696
 20
76.167100000000005
 30
0.0
 11
148.78399999999999
 21
76.294499999999999
 31
0.0
  0
LINE
  5
3B2
  8
0
 62
     7
 10
148.578
 20
73.892600000000002
 30
0.0
 11
148.578
 21
75.722599999999986
 31
0.0
  0
LINE
  5
3B3
  8
0
 62
     7
 10
149.30199999999999
 20
73.010000000000005
 30
0.0
 11
149.1329999999999
 21
73.061300000000003
 31
0.0
  0
LINE
  5
3B4
  8
0
 62
     7
 10
149.1329999999999
 20
73.061300000000003
 30
0.0
 11
148.97799999999989
 21
73.1447
 31
0.0
  0
LINE
  5
3B5
  8
0
 62
     7
 10
148.97799999999989
 20
73.1447
 30
0.0
 11
148.84100000000001
 21
73.256600000000006
 31
0.0
  0
LINE
  5
3B6
  8
0
 62
     7
 10
148.84100000000001
 20
73.256600000000006
 30
0.0
 11
148.7299999999999
 21
73.392700000000005
 31
0.0
  0
LINE
  5
3B7
  8
0
 62
     7
 10
148.7299999999999
 20
73.392700000000005
 30
0.0
 11
148.64699999999999
 21
73.548400000000001
 31
0.0
  0
LINE
  5
3B8
  8
0
 62
     7
 10
148.64699999999999
 20
73.548400000000001
 30
0.0
 11
148.595
 21
73.716899999999995
 31
0.0
  0
LINE
  5
3B9
  8
0
 62
     7
 10
148.595
 20
73.716899999999995
 30
0.0
 11
148.578
 21
73.892600000000002
 31
0.0
  0
LINE
  5
3BA
  8
0
 62
     7
 10
149.87799999999999
 20
73.476799999999997
 30
0.0
 11
149.87799999999999
 21
72.894499999999994
 31
0.0
  0
LINE
  5
3BB
  8
0
 62
     7
 10
149.87799999999999
 20
72.894499999999994
 30
0.0
 11
149.30199999999999
 21
73.010000000000005
 31
0.0
  0
LINE
  5
3BC
  8
0
 62
     7
 10
149.77799999999991
 20
73.650400000000005
 30
0.0
 11
149.80600000000001
 21
73.630399999999995
 31
0.0
  0
LINE
  5
3BD
  8
0
 62
     7
 10
149.80600000000001
 20
73.630399999999995
 30
0.0
 11
149.83099999999999
 21
73.605599999999995
 31
0.0
  0
LINE
  5
3BE
  8
0
 62
     7
 10
149.83099999999999
 20
73.605599999999995
 30
0.0
 11
149.852
 21
73.576999999999998
 31
0.0
  0
LINE
  5
3BF
  8
0
 62
     7
 10
149.852
 20
73.576999999999998
 30
0.0
 11
149.86600000000001
 21
73.545299999999997
 31
0.0
  0
LINE
  5
3C0
  8
0
 62
     7
 10
149.86600000000001
 20
73.545299999999997
 30
0.0
 11
149.876
 21
73.511600000000001
 31
0.0
  0
LINE
  5
3C1
  8
0
 62
     7
 10
149.876
 20
73.511600000000001
 30
0.0
 11
149.87799999999999
 21
73.476799999999997
 31
0.0
  0
LINE
  5
3C2
  8
0
 62
     7
 10
149.43100000000001
 20
73.848799999999983
 30
0.0
 11
149.77799999999991
 21
73.650400000000005
 31
0.0
  0
LINE
  5
3C3
  8
0
 62
     7
 10
149.178
 20
74.282899999999998
 30
0.0
 11
149.18600000000001
 21
74.195800000000006
 31
0.0
  0
LINE
  5
3C4
  8
0
 62
     7
 10
149.18600000000001
 20
74.195800000000006
 30
0.0
 11
149.209
 21
74.111000000000004
 31
0.0
  0
LINE
  5
3C5
  8
0
 62
     7
 10
149.209
 20
74.111000000000004
 30
0.0
 11
149.24600000000001
 21
74.031800000000004
 31
0.0
  0
LINE
  5
3C6
  8
0
 62
     7
 10
149.24600000000001
 20
74.031800000000004
 30
0.0
 11
149.29599999999991
 21
73.960499999999996
 31
0.0
  0
LINE
  5
3C7
  8
0
 62
     7
 10
149.29599999999991
 20
73.960499999999996
 30
0.0
 11
149.358
 21
73.898799999999994
 31
0.0
  0
LINE
  5
3C8
  8
0
 62
     7
 10
149.358
 20
73.898799999999994
 30
0.0
 11
149.43100000000001
 21
73.848799999999983
 31
0.0
  0
LINE
  5
3C9
  8
0
 62
     7
 10
149.178
 20
75.834999999999994
 30
0.0
 11
149.178
 21
74.282899999999998
 31
0.0
  0
LINE
  5
3CA
  8
0
 62
     7
 10
149.2889999999999
 20
76.111900000000006
 30
0.0
 11
149.24199999999999
 21
76.051999999999992
 31
0.0
  0
LINE
  5
3CB
  8
0
 62
     7
 10
149.24199999999999
 20
76.051999999999992
 30
0.0
 11
149.20699999999999
 21
75.984099999999998
 31
0.0
  0
LINE
  5
3CC
  8
0
 62
     7
 10
149.20699999999999
 20
75.984099999999998
 30
0.0
 11
149.18600000000001
 21
75.911100000000005
 31
0.0
  0
LINE
  5
3CD
  8
0
 62
     7
 10
149.18600000000001
 20
75.911100000000005
 30
0.0
 11
149.178
 21
75.834999999999994
 31
0.0
  0
LINE
  5
3CE
  8
0
 62
     7
 10
149.87799999999999
 20
76.561199999999999
 30
0.0
 11
149.56599999999989
 21
76.359300000000005
 31
0.0
  0
LINE
  5
3CF
  8
0
 62
     7
 10
149.56599999999989
 20
76.359300000000005
 30
0.0
 11
149.2889999999999
 21
76.111900000000006
 31
0.0
  0
LINE
  5
3D0
  8
0
 62
     7
 10
150.86699999999999
 20
76.846100000000007
 30
0.0
 11
150.52500000000001
 21
76.799199999999999
 31
0.0
  0
LINE
  5
3D1
  8
0
 62
     7
 10
150.52500000000001
 20
76.799199999999999
 30
0.0
 11
150.1929999999999
 21
76.703500000000005
 31
0.0
  0
LINE
  5
3D2
  8
0
 62
     7
 10
150.1929999999999
 20
76.703500000000005
 30
0.0
 11
149.87799999999999
 21
76.561199999999999
 31
0.0
  0
LINE
  5
3D3
  8
0
 62
     7
 10
164.70099999999991
 20
77.742199999999997
 30
0.0
 11
150.86699999999999
 21
76.846100000000007
 31
0.0
  0
LINE
  5
3D4
  8
0
 62
     7
 10
168.53099999999989
 20
81.628999999999976
 30
0.0
 11
168.4259999999999
 21
80.891000000000005
 31
0.0
  0
LINE
  5
3D5
  8
0
 62
     7
 10
168.4259999999999
 20
80.891000000000005
 30
0.0
 11
168.18999999999991
 21
80.184399999999997
 31
0.0
  0
LINE
  5
3D6
  8
0
 62
     7
 10
168.18999999999991
 20
80.184399999999997
 30
0.0
 11
167.83000000000001
 21
79.532300000000006
 31
0.0
  0
LINE
  5
3D7
  8
0
 62
     7
 10
167.83000000000001
 20
79.532300000000006
 30
0.0
 11
167.35699999999991
 21
78.9559
 31
0.0
  0
LINE
  5
3D8
  8
0
 62
     7
 10
167.35699999999991
 20
78.9559
 30
0.0
 11
166.7879999999999
 21
78.474900000000005
 31
0.0
  0
LINE
  5
3D9
  8
0
 62
     7
 10
166.7879999999999
 20
78.474900000000005
 30
0.0
 11
166.14099999999999
 21
78.104900000000001
 31
0.0
  0
LINE
  5
3DA
  8
0
 62
     7
 10
166.14099999999999
 20
78.104900000000001
 30
0.0
 11
165.43700000000001
 21
77.857900000000001
 31
0.0
  0
LINE
  5
3DB
  8
0
 62
     7
 10
165.43700000000001
 20
77.857900000000001
 30
0.0
 11
164.70099999999991
 21
77.742199999999997
 31
0.0
  0
LINE
  5
3DC
  8
0
 62
     7
 10
169.57299999999989
 20
102.46599999999999
 30
0.0
 11
169.13499999999991
 21
93.698899999999995
 31
0.0
  0
LINE
  5
3DD
  8
0
 62
     7
 10
169.13499999999991
 20
93.698899999999995
 30
0.0
 11
169.0749999999999
 21
92.510999999999996
 31
0.0
  0
LINE
  5
3DE
  8
0
 62
     7
 10
169.0749999999999
 20
92.510999999999996
 30
0.0
 11
168.53099999999989
 21
81.628999999999976
 31
0.0
  0
LINE
  5
3DF
  8
0
 62
     7
 10
170.685
 20
103.60299999999999
 30
0.0
 11
170.47099999999989
 21
103.56699999999999
 31
0.0
  0
LINE
  5
3E0
  8
0
 62
     7
 10
170.47099999999989
 20
103.56699999999999
 30
0.0
 11
170.26699999999991
 21
103.4939999999999
 31
0.0
  0
LINE
  5
3E1
  8
0
 62
     7
 10
170.26699999999991
 20
103.4939999999999
 30
0.0
 11
170.07900000000001
 21
103.386
 31
0.0
  0
LINE
  5
3E2
  8
0
 62
     7
 10
170.07900000000001
 20
103.386
 30
0.0
 11
169.9129999999999
 21
103.245
 31
0.0
  0
LINE
  5
3E3
  8
0
 62
     7
 10
169.9129999999999
 20
103.245
 30
0.0
 11
169.77699999999999
 21
103.077
 31
0.0
  0
LINE
  5
3E4
  8
0
 62
     7
 10
169.77699999999999
 20
103.077
 30
0.0
 11
169.672
 21
102.886
 31
0.0
  0
LINE
  5
3E5
  8
0
 62
     7
 10
169.672
 20
102.886
 30
0.0
 11
169.60299999999989
 21
102.681
 31
0.0
  0
LINE
  5
3E6
  8
0
 62
     7
 10
169.60299999999989
 20
102.681
 30
0.0
 11
169.57299999999989
 21
102.46599999999999
 31
0.0
  0
LINE
  5
3E7
  8
0
 62
     7
 10
148.78399999999999
 20
149.89099999999991
 30
0.0
 11
148.696
 21
150.018
 31
0.0
  0
LINE
  5
3E8
  8
0
 62
     7
 10
148.696
 20
150.018
 30
0.0
 11
148.631
 21
150.15899999999999
 31
0.0
  0
LINE
  5
3E9
  8
0
 62
     7
 10
148.631
 20
150.15899999999999
 30
0.0
 11
148.59200000000001
 21
150.309
 31
0.0
  0
LINE
  5
3EA
  8
0
 62
     7
 10
148.59200000000001
 20
150.309
 30
0.0
 11
148.578
 21
150.46299999999991
 31
0.0
  0
LINE
  5
3EB
  8
0
 62
     7
 10
150.83500000000001
 20
148.84
 30
0.0
 11
150.36600000000001
 21
148.90899999999999
 31
0.0
  0
LINE
  5
3EC
  8
0
 62
     7
 10
150.36600000000001
 20
148.90899999999999
 30
0.0
 11
149.916
 21
149.054
 31
0.0
  0
LINE
  5
3ED
  8
0
 62
     7
 10
149.916
 20
149.054
 30
0.0
 11
149.49399999999989
 21
149.27000000000001
 31
0.0
  0
LINE
  5
3EE
  8
0
 62
     7
 10
149.49399999999989
 20
149.27000000000001
 30
0.0
 11
149.114
 21
149.55099999999999
 31
0.0
  0
LINE
  5
3EF
  8
0
 62
     7
 10
149.114
 20
149.55099999999999
 30
0.0
 11
148.78399999999999
 21
149.89099999999991
 31
0.0
  0
LINE
  5
3F0
  8
0
 62
     7
 10
164.66900000000001
 20
147.9439999999999
 30
0.0
 11
150.83500000000001
 21
148.84
 31
0.0
  0
LINE
  5
3F1
  8
0
 62
     7
 10
168.03099999999989
 20
144.53200000000001
 30
0.0
 11
167.94
 21
145.18000000000001
 31
0.0
  0
LINE
  5
3F2
  8
0
 62
     7
 10
167.94
 20
145.18000000000001
 30
0.0
 11
167.73199999999991
 21
145.80000000000001
 31
0.0
  0
LINE
  5
3F3
  8
0
 62
     7
 10
167.73199999999991
 20
145.80000000000001
 30
0.0
 11
167.41499999999999
 21
146.37299999999991
 31
0.0
  0
LINE
  5
3F4
  8
0
 62
     7
 10
167.41499999999999
 20
146.37299999999991
 30
0.0
 11
167.00099999999989
 21
146.8779999999999
 31
0.0
  0
LINE
  5
3F5
  8
0
 62
     7
 10
167.00099999999989
 20
146.8779999999999
 30
0.0
 11
166.5
 21
147.30099999999999
 31
0.0
  0
LINE
  5
3F6
  8
0
 62
     7
 10
166.5
 20
147.30099999999999
 30
0.0
 11
165.93299999999991
 21
147.626
 31
0.0
  0
LINE
  5
3F7
  8
0
 62
     7
 10
165.93299999999991
 20
147.626
 30
0.0
 11
165.315
 21
147.8429999999999
 31
0.0
  0
LINE
  5
3F8
  8
0
 62
     7
 10
165.315
 20
147.8429999999999
 30
0.0
 11
164.66900000000001
 21
147.9439999999999
 31
0.0
  0
LINE
  5
3F9
  8
0
 62
     7
 10
169.07899999999989
 20
123.584
 30
0.0
 11
168.03099999999989
 21
144.53200000000001
 31
0.0
  0
LINE
  5
3FA
  8
0
 62
     7
 10
170.87899999999999
 20
121.694
 30
0.0
 11
170.53
 21
121.76000000000001
 31
0.0
  0
LINE
  5
3FB
  8
0
 62
     7
 10
170.53
 20
121.76000000000001
 30
0.0
 11
170.19799999999989
 21
121.887
 31
0.0
  0
LINE
  5
3FC
  8
0
 62
     7
 10
170.19799999999989
 20
121.887
 30
0.0
 11
169.89500000000001
 21
122.06999999999989
 31
0.0
  0
LINE
  5
3FD
  8
0
 62
     7
 10
169.89500000000001
 20
122.06999999999989
 30
0.0
 11
169.6279999999999
 21
122.30500000000001
 31
0.0
  0
LINE
  5
3FE
  8
0
 62
     7
 10
169.6279999999999
 20
122.30500000000001
 30
0.0
 11
169.40700000000001
 21
122.58199999999999
 31
0.0
  0
LINE
  5
3FF
  8
0
 62
     7
 10
169.40700000000001
 20
122.58199999999999
 30
0.0
 11
169.239
 21
122.8949999999999
 31
0.0
  0
LINE
  5
400
  8
0
 62
     7
 10
169.239
 20
122.8949999999999
 30
0.0
 11
169.1279999999999
 21
123.232
 31
0.0
  0
LINE
  5
401
  8
0
 62
     7
 10
169.1279999999999
 20
123.232
 30
0.0
 11
169.07899999999989
 21
123.584
 31
0.0
  0
LINE
  5
402
  8
0
 62
     7
 10
170.87899999999999
 20
122.3829999999999
 30
0.0
 11
170.87899999999999
 21
121.694
 31
0.0
  0
LINE
  5
403
  8
0
 62
     7
 10
170.685
 20
122.5829999999999
 30
0.0
 11
170.7229999999999
 21
122.5779999999999
 31
0.0
  0
LINE
  5
404
  8
0
 62
     7
 10
170.7229999999999
 20
122.5779999999999
 30
0.0
 11
170.75899999999999
 21
122.5659999999999
 31
0.0
  0
LINE
  5
405
  8
0
 62
     7
 10
170.75899999999999
 20
122.5659999999999
 30
0.0
 11
170.79300000000001
 21
122.547
 31
0.0
  0
LINE
  5
406
  8
0
 62
     7
 10
170.79300000000001
 20
122.547
 30
0.0
 11
170.822
 21
122.52199999999991
 31
0.0
  0
LINE
  5
407
  8
0
 62
     7
 10
170.822
 20
122.52199999999991
 30
0.0
 11
170.84599999999989
 21
122.49299999999999
 31
0.0
  0
LINE
  5
408
  8
0
 62
     7
 10
170.84599999999989
 20
122.49299999999999
 30
0.0
 11
170.864
 21
122.458
 31
0.0
  0
LINE
  5
409
  8
0
 62
     7
 10
170.864
 20
122.458
 30
0.0
 11
170.875
 21
122.422
 31
0.0
  0
LINE
  5
40A
  8
0
 62
     7
 10
170.875
 20
122.422
 30
0.0
 11
170.87899999999999
 21
122.3829999999999
 31
0.0
  0
LINE
  5
40B
  8
0
 62
     7
 10
169.57299999999989
 20
123.72
 30
0.0
 11
169.60299999999989
 21
123.5049999999999
 31
0.0
  0
LINE
  5
40C
  8
0
 62
     7
 10
169.60299999999989
 20
123.5049999999999
 30
0.0
 11
169.672
 21
123.29900000000001
 31
0.0
  0
LINE
  5
40D
  8
0
 62
     7
 10
169.672
 20
123.29900000000001
 30
0.0
 11
169.77699999999999
 21
123.10899999999999
 31
0.0
  0
LINE
  5
40E
  8
0
 62
     7
 10
169.77699999999999
 20
123.10899999999999
 30
0.0
 11
169.9129999999999
 21
122.941
 31
0.0
  0
LINE
  5
40F
  8
0
 62
     7
 10
169.9129999999999
 20
122.941
 30
0.0
 11
170.07900000000001
 21
122.7999999999999
 31
0.0
  0
LINE
  5
410
  8
0
 62
     7
 10
170.07900000000001
 20
122.7999999999999
 30
0.0
 11
170.26699999999991
 21
122.69199999999999
 31
0.0
  0
LINE
  5
411
  8
0
 62
     7
 10
170.26699999999991
 20
122.69199999999999
 30
0.0
 11
170.47099999999989
 21
122.61799999999999
 31
0.0
  0
LINE
  5
412
  8
0
 62
     7
 10
170.47099999999989
 20
122.61799999999999
 30
0.0
 11
170.685
 21
122.5829999999999
 31
0.0
  0
LINE
  5
413
  8
0
 62
     7
 10
168.53099999999989
 20
144.55699999999999
 30
0.0
 11
169.0749999999999
 21
133.67500000000001
 31
0.0
  0
LINE
  5
414
  8
0
 62
     7
 10
169.0749999999999
 20
133.67500000000001
 30
0.0
 11
169.13499999999991
 21
132.48699999999991
 31
0.0
  0
LINE
  5
415
  8
0
 62
     7
 10
169.13499999999991
 20
132.48699999999991
 30
0.0
 11
169.57299999999989
 21
123.72
 31
0.0
  0
LINE
  5
416
  8
0
 62
     7
 10
164.70099999999991
 20
148.4429999999999
 30
0.0
 11
165.43700000000001
 21
148.328
 31
0.0
  0
LINE
  5
417
  8
0
 62
     7
 10
165.43700000000001
 20
148.328
 30
0.0
 11
166.14099999999999
 21
148.08099999999999
 31
0.0
  0
LINE
  5
418
  8
0
 62
     7
 10
166.14099999999999
 20
148.08099999999999
 30
0.0
 11
166.7879999999999
 21
147.71100000000001
 31
0.0
  0
LINE
  5
419
  8
0
 62
     7
 10
166.7879999999999
 20
147.71100000000001
 30
0.0
 11
167.35699999999991
 21
147.2289999999999
 31
0.0
  0
LINE
  5
41A
  8
0
 62
     7
 10
167.35699999999991
 20
147.2289999999999
 30
0.0
 11
167.83000000000001
 21
146.65299999999991
 31
0.0
  0
LINE
  5
41B
  8
0
 62
     7
 10
167.83000000000001
 20
146.65299999999991
 30
0.0
 11
168.18999999999991
 21
146.001
 31
0.0
  0
LINE
  5
41C
  8
0
 62
     7
 10
168.18999999999991
 20
146.001
 30
0.0
 11
168.4259999999999
 21
145.2949999999999
 31
0.0
  0
LINE
  5
41D
  8
0
 62
     7
 10
168.4259999999999
 20
145.2949999999999
 30
0.0
 11
168.53099999999989
 21
144.55699999999999
 31
0.0
  0
LINE
  5
41E
  8
0
 62
     7
 10
150.86699999999999
 20
149.33899999999991
 30
0.0
 11
164.70099999999991
 21
148.4429999999999
 31
0.0
  0
LINE
  5
41F
  8
0
 62
     7
 10
149.87799999999999
 20
149.625
 30
0.0
 11
150.1929999999999
 21
149.48199999999991
 31
0.0
  0
LINE
  5
420
  8
0
 62
     7
 10
150.1929999999999
 20
149.48199999999991
 30
0.0
 11
150.52500000000001
 21
149.38599999999991
 31
0.0
  0
LINE
  5
421
  8
0
 62
     7
 10
150.52500000000001
 20
149.38599999999991
 30
0.0
 11
150.86699999999999
 21
149.33899999999991
 31
0.0
  0
LINE
  5
422
  8
0
 62
     7
 10
149.2889999999999
 20
150.0739999999999
 30
0.0
 11
149.56599999999989
 21
149.82599999999991
 31
0.0
  0
LINE
  5
423
  8
0
 62
     7
 10
149.56599999999989
 20
149.82599999999991
 30
0.0
 11
149.87799999999999
 21
149.625
 31
0.0
  0
LINE
  5
424
  8
0
 62
     7
 10
149.178
 20
150.34999999999999
 30
0.0
 11
149.18600000000001
 21
150.27499999999989
 31
0.0
  0
LINE
  5
425
  8
0
 62
     7
 10
149.18600000000001
 20
150.27499999999989
 30
0.0
 11
149.20699999999999
 21
150.20099999999999
 31
0.0
  0
LINE
  5
426
  8
0
 62
     7
 10
149.20699999999999
 20
150.20099999999999
 30
0.0
 11
149.24199999999999
 21
150.1339999999999
 31
0.0
  0
LINE
  5
427
  8
0
 62
     7
 10
149.24199999999999
 20
150.1339999999999
 30
0.0
 11
149.2889999999999
 21
150.0739999999999
 31
0.0
  0
LINE
  5
428
  8
0
 62
     7
 10
149.178
 20
151.90299999999991
 30
0.0
 11
149.178
 21
150.34999999999999
 31
0.0
  0
LINE
  5
429
  8
0
 62
     7
 10
149.43100000000001
 20
152.33699999999999
 30
0.0
 11
149.358
 21
152.28700000000001
 31
0.0
  0
LINE
  5
42A
  8
0
 62
     7
 10
149.358
 20
152.28700000000001
 30
0.0
 11
149.29599999999991
 21
152.22499999999991
 31
0.0
  0
LINE
  5
42B
  8
0
 62
     7
 10
149.29599999999991
 20
152.22499999999991
 30
0.0
 11
149.24600000000001
 21
152.15399999999991
 31
0.0
  0
LINE
  5
42C
  8
0
 62
     7
 10
149.24600000000001
 20
152.15399999999991
 30
0.0
 11
149.209
 21
152.0739999999999
 31
0.0
  0
LINE
  5
42D
  8
0
 62
     7
 10
149.209
 20
152.0739999999999
 30
0.0
 11
149.18600000000001
 21
151.9899999999999
 31
0.0
  0
LINE
  5
42E
  8
0
 62
     7
 10
149.18600000000001
 20
151.9899999999999
 30
0.0
 11
149.178
 21
151.90299999999991
 31
0.0
  0
LINE
  5
42F
  8
0
 62
     7
 10
149.77799999999991
 20
152.53499999999991
 30
0.0
 11
149.43100000000001
 21
152.33699999999999
 31
0.0
  0
LINE
  5
430
  8
0
 62
     7
 10
149.87799999999999
 20
152.709
 30
0.0
 11
149.876
 21
152.67400000000001
 31
0.0
  0
LINE
  5
431
  8
0
 62
     7
 10
149.876
 20
152.67400000000001
 30
0.0
 11
149.86600000000001
 21
152.6399999999999
 31
0.0
  0
LINE
  5
432
  8
0
 62
     7
 10
149.86600000000001
 20
152.6399999999999
 30
0.0
 11
149.852
 21
152.608
 31
0.0
  0
LINE
  5
433
  8
0
 62
     7
 10
149.852
 20
152.608
 30
0.0
 11
149.83099999999999
 21
152.58000000000001
 31
0.0
  0
LINE
  5
434
  8
0
 62
     7
 10
149.83099999999999
 20
152.58000000000001
 30
0.0
 11
149.80600000000001
 21
152.55500000000001
 31
0.0
  0
LINE
  5
435
  8
0
 62
     7
 10
149.80600000000001
 20
152.55500000000001
 30
0.0
 11
149.77799999999991
 21
152.53499999999991
 31
0.0
  0
LINE
  5
436
  8
0
 62
     7
 10
149.30199999999999
 20
153.17500000000001
 30
0.0
 11
149.87799999999999
 21
153.291
 31
0.0
  0
LINE
  5
437
  8
0
 62
     7
 10
149.87799999999999
 20
153.291
 30
0.0
 11
149.87799999999999
 21
152.709
 31
0.0
  0
LINE
  5
438
  8
0
 62
     7
 10
148.578
 20
152.29300000000001
 30
0.0
 11
148.595
 21
152.46799999999999
 31
0.0
  0
LINE
  5
439
  8
0
 62
     7
 10
148.595
 20
152.46799999999999
 30
0.0
 11
148.64699999999999
 21
152.637
 31
0.0
  0
LINE
  5
43A
  8
0
 62
     7
 10
148.64699999999999
 20
152.637
 30
0.0
 11
148.7299999999999
 21
152.79300000000001
 31
0.0
  0
LINE
  5
43B
  8
0
 62
     7
 10
148.7299999999999
 20
152.79300000000001
 30
0.0
 11
148.84100000000001
 21
152.929
 31
0.0
  0
LINE
  5
43C
  8
0
 62
     7
 10
148.84100000000001
 20
152.929
 30
0.0
 11
148.97799999999989
 21
153.041
 31
0.0
  0
LINE
  5
43D
  8
0
 62
     7
 10
148.97799999999989
 20
153.041
 30
0.0
 11
149.1329999999999
 21
153.12399999999991
 31
0.0
  0
LINE
  5
43E
  8
0
 62
     7
 10
149.1329999999999
 20
153.12399999999991
 30
0.0
 11
149.30199999999999
 21
153.17500000000001
 31
0.0
  0
LINE
  5
43F
  8
0
 62
     7
 10
148.578
 20
150.46299999999991
 30
0.0
 11
148.578
 21
152.29300000000001
 31
0.0
  0
ARC
  5
440
  8
0
 62
     7
 10
164.47880299999991
 20
81.739746999999994
 30
0.0
 40
4.0037690000000001
 50
273.18726900000001
 51
315.95064600000001
  0
ARC
  5
441
  8
0
 62
     7
 10
164.39726999999991
 20
81.850853000000001
 30
0.0
 40
4.139683999999999
 50
315.629975
 51
356.92729300000002
  0
ARC
  5
442
  8
0
 62
     7
 10
164.47384899999989
 20
81.752057999999977
 30
0.0
 40
3.516109999999999
 50
273.18210199999987
 51
315.940651
  0
ARC
  5
443
  8
0
 62
     7
 10
164.40457399999991
 20
81.847065000000001
 30
0.0
 40
3.6320160000000001
 50
315.62357200000002
 51
356.95454699999999
  0
ARC
  5
444
  8
0
 62
     7
 10
164.46997999999991
 20
81.761296000000016
 30
0.0
 40
3.4257569999999991
 50
273.21549800000003
 51
317.20777099999992
  0
ARC
  5
445
  8
0
 62
     7
 10
164.4122219999999
 20
81.843687000000003
 30
0.0
 40
3.5241760000000002
 50
316.86272500000001
 51
356.994778
  0
ARC
  5
446
  8
0
 62
     7
 10
164.511605
 20
144.38800800000001
 30
0.0
 40
4.022939
 50
2.4043369999999991
 51
48.260807999999997
  0
ARC
  5
447
  8
0
 62
     7
 10
164.43015700000001
 20
144.3364179999999
 30
0.0
 40
4.1157430000000002
 50
47.892878999999994
 51
86.221106000000006
  0
ARC
  5
448
  8
0
 62
     7
 10
164.52141499999991
 20
144.38986800000001
 30
0.0
 40
3.5129209999999991
 50
2.3183329999999991
 51
45.11128999999999
  0
ARC
  5
449
  8
0
 62
     7
 10
164.42150399999991
 20
144.31934299999989
 30
0.0
 40
3.633456999999999
 50
44.77993699999999
 51
86.093809999999991
  0
ARC
  5
44A
  8
0
 62
     7
 10
164.50945400000001
 20
144.385501
 30
0.0
 40
3.425014
 50
2.3644630000000002
 51
46.360610999999999
  0
ARC
  5
44B
  8
0
 62
     7
 10
164.42602400000001
 20
144.32837599999991
 30
0.0
 40
3.5239940000000001
 50
46.019898000000012
 51
86.158228000000008
  0
LINE
  5
44C
  8
0
 62
     7
 10
148.47799999999989
 20
73.892600000000002
 30
0.0
 11
148.47799999999989
 21
77.292599999999993
 31
0.0
  0
LINE
  5
44D
  8
0
  6
AIGENLINE001
 62
     7
 10
172.47799999999989
 20
113.0929999999999
 30
0.0
 11
146.47799999999989
 21
113.0929999999999
 31
0.0
  0
ARC
  5
44E
  8
0
 62
     7
 10
149.71642900000001
 20
73.484848
 30
0.0
 40
0.162221
 50
357.14626600000003
 51
26.006270000000001
  0
ARC
  5
44F
  8
0
 62
     7
 10
149.67425900000001
 20
73.472937000000002
 30
0.0
 40
0.205491
 50
23.835253000000002
 51
59.727124000000003
  0
LINE
  5
450
  8
0
 62
     7
 10
149.43100000000001
 20
73.848799999999983
 30
0.0
 11
149.77799999999991
 21
73.650400000000005
 31
0.0
  0
ARC
  5
451
  8
0
 62
     7
 10
149.5610409999999
 20
74.264134999999996
 30
0.0
 40
0.383102
 50
177.18804299999991
 51
195.79643200000001
  0
ARC
  5
452
  8
0
 62
     7
 10
149.69249500000001
 20
74.296127999999996
 30
0.0
 40
0.5183250000000002
 50
195.243764
 51
239.6484339999999
  0
LINE
  5
453
  8
0
 62
     7
 10
149.178
 20
75.834999999999994
 30
0.0
 11
149.178
 21
74.282899999999998
 31
0.0
  0
LINE
  5
454
  8
0
 62
     7
 10
149.87799999999999
 20
73.066800000000001
 30
0.0
 11
149.87799999999999
 21
76.244200000000006
 31
0.0
  0
LINE
  5
455
  8
0
 62
     7
 10
149.87799999999999
 20
76.561199999999999
 30
0.0
 11
149.87799999999999
 21
72.792599999999993
 31
0.0
  0
ARC
  5
456
  8
0
 62
     7
 10
149.619066
 20
151.968209
 30
0.0
 40
0.4140620000000001
 50
117.07810000000001
 51
145.966251
  0
ARC
  5
457
  8
0
 62
     7
 10
149.69007099999999
 20
151.8994439999999
 30
0.0
 40
0.5116810000000001
 50
144.03473700000001
 51
179.62423699999999
  0
ARC
  5
458
  8
0
 62
     7
 10
149.70010600000001
 20
152.684934
 30
0.0
 40
0.168606
 50
297.45869599999997
 51
326.88618600000001
  0
ARC
  5
459
  8
0
 62
     7
 10
149.67590100000001
 20
152.709701
 30
0.0
 40
0.202549
 50
324.75815499999999
 51
359.78951299999989
  0
LINE
  5
45A
  8
0
 62
     7
 10
149.43100000000001
 20
152.33699999999999
 30
0.0
 11
149.77799999999991
 21
152.53499999999991
 31
0.0
  0
ARC
  5
45B
  8
0
 62
     7
 10
169.444064
 20
93.692446000000004
 30
0.0
 40
0.309545
 50
178.80126000000001
 51
262.691058
  0
ARC
  5
45C
  8
0
 62
     7
 10
169.3789449999999
 20
92.492315999999988
 30
0.0
 40
0.304191
 50
96.456530000000015
 51
176.47006499999989
  0
LINE
  5
45D
  8
0
 62
     7
 10
169.738
 20
93.352000000000004
 30
0.0
 11
169.405
 21
93.385400000000004
 31
0.0
  0
ARC
  5
45E
  8
0
 62
     7
 10
169.726102
 20
93.250359000000003
 30
0.0
 40
0.102353
 50
1.1614990000000001
 51
83.227784999999997
  0
LINE
  5
45F
  8
0
 62
     7
 10
169.828
 20
93.252399999999994
 30
0.0
 11
169.828
 21
92.933400000000006
 31
0.0
  0
ARC
  5
460
  8
0
 62
     7
 10
169.7256219999999
 20
92.935925999999995
 30
0.0
 40
0.102842
 50
277.00903399999987
 51
358.60168099999993
  0
LINE
  5
461
  8
0
 62
     7
 10
169.738
 20
92.8339
 30
0.0
 11
169.345
 21
92.794600000000003
 31
0.0
  0
ARC
  5
462
  8
0
 62
     7
 10
169.443837
 20
132.4938239999999
 30
0.0
 40
0.309322
 50
97.271799999999999
 51
181.235882
  0
ARC
  5
463
  8
0
 62
     7
 10
169.37906100000001
 20
133.6938679999999
 30
0.0
 40
0.304314
 50
183.54929000000001
 51
263.52411599999999
  0
LINE
  5
464
  8
0
 62
     7
 10
169.738
 20
132.834
 30
0.0
 11
169.405
 21
132.80099999999999
 31
0.0
  0
ARC
  5
465
  8
0
 62
     7
 10
169.7256219999999
 20
132.93614899999989
 30
0.0
 40
0.102842
 50
277.00903399999987
 51
358.60168099999993
  0
LINE
  5
466
  8
0
 62
     7
 10
169.828
 20
132.93399999999991
 30
0.0
 11
169.828
 21
133.2529999999999
 31
0.0
  0
ARC
  5
467
  8
0
 62
     7
 10
169.726102
 20
133.25058200000001
 30
0.0
 40
0.102353
 50
1.1614990000000001
 51
83.227784999999997
  0
LINE
  5
468
  8
0
 62
     7
 10
169.738
 20
133.352
 30
0.0
 11
169.345
 21
133.39099999999991
 31
0.0
  0
LINE
  5
469
  8
0
 62
     7
 10
148.47799999999989
 20
113.0929999999999
 30
0.0
 11
148.47799999999989
 21
73.892600000000002
 31
0.0
  0
ARC
  5
46A
  8
0
 62
     7
 10
149.48613399999999
 20
73.898774000000003
 30
0.0
 40
1.0078
 50
180.35115699999989
 51
258.33938199999989
  0
LINE
  5
46B
  8
0
 62
     7
 10
149.87799999999999
 20
76.561199999999999
 30
0.0
 11
149.87799999999999
 21
72.792599999999993
 31
0.0
  0
ARC
  5
46C
  8
0
 62
     7
 10
150.87560999999999
 20
75.412571
 30
0.0
 40
1.4335500000000001
 50
90.336226999999994
 51
100.1154529999999
  0
ARC
  5
46D
  8
0
 62
     7
 10
151.00489699999989
 20
74.600316000000007
 30
0.0
 40
2.2559390000000001
 50
99.724802000000011
 51
113.14747300000001
  0
ARC
  5
46E
  8
0
 62
     7
 10
151.12159
 20
74.245656999999994
 30
0.0
 40
2.6281140000000001
 50
112.447267
 51
128.54427100000001
  0
ARC
  5
46F
  8
0
 62
     7
 10
150.50433200000001
 20
75.057017000000002
 30
0.0
 40
1.609065
 50
129.35615499999989
 51
139.03375800000001
  0
ARC
  5
470
  8
0
 62
     7
 10
149.45877300000001
 20
75.93154100000001
 30
0.0
 40
0.247496
 50
133.20528499999989
 51
142.93710200000001
  0
ARC
  5
471
  8
0
 62
     7
 10
149.5907939999999
 20
75.832729
 30
0.0
 40
0.412399
 50
143.03691099999989
 51
179.690765
  0
LINE
  5
472
  8
0
 62
     7
 10
150.86699999999999
 20
76.846100000000007
 30
0.0
 11
164.70099999999991
 21
77.742199999999997
 31
0.0
  0
ARC
  5
473
  8
0
 62
     7
 10
149.16977399999999
 20
75.928743999999995
 30
0.0
 40
0.631813
 50
137.16983500000001
 51
152.0083459999999
  0
ARC
  5
474
  8
0
 62
     7
 10
149.530632
 20
75.712170999999998
 30
0.0
 40
1.052332
 50
150.817419
 51
179.42973000000001
  0
LINE
  5
475
  8
0
 62
     7
 10
148.47799999999989
 20
75.722599999999986
 30
0.0
 11
148.47799999999989
 21
73.892600000000002
 31
0.0
  0
LINE
  5
476
  8
0
 62
     7
 10
150.83500000000001
 20
77.345299999999995
 30
0.0
 11
164.66900000000001
 21
78.241399999999985
 31
0.0
  0
ARC
  5
477
  8
0
 62
     7
 10
150.84832299999991
 20
75.445042999999984
 30
0.0
 40
1.9003000000000001
 50
90.407343999999995
 51
104.17850300000001
  0
ARC
  5
478
  8
0
 62
     7
 10
151.095338
 20
74.313063999999997
 30
0.0
 40
3.0585330000000002
 50
103.47072199999999
 51
132.89323200000001
  0
ARC
  5
479
  8
0
 62
     7
 10
150.39433099999991
 20
75.097335000000001
 30
0.0
 40
2.0069300000000001
 50
133.47071699999989
 51
143.37804700000001
  0
ARC
  5
47A
  8
0
 62
     7
 10
149.20624100000001
 20
75.902934999999999
 30
0.0
 40
0.57618
 50
137.18390400000001
 51
152.794567
  0
ARC
  5
47B
  8
0
 62
     7
 10
149.52812399999991
 20
75.712201000000007
 30
0.0
 40
0.9499200000000001
 50
151.438863
 51
179.3700649999999
  0
LINE
  5
47C
  8
0
 62
     7
 10
148.578
 20
75.722599999999986
 30
0.0
 11
148.578
 21
73.892600000000002
 31
0.0
  0
LINE
  5
47D
  8
0
 62
     7
 10
150.82900000000001
 20
77.444900000000004
 30
0.0
 11
164.66200000000001
 21
78.340900000000005
 31
0.0
  0
ARC
  5
47E
  8
0
 62
     7
 10
150.8424959999999
 20
75.477958999999998
 30
0.0
 40
1.9669479999999999
 50
90.404437000000001
 51
104.16698599999999
  0
ARC
  5
47F
  8
0
 62
     7
 10
151.09513200000001
 20
74.323307999999983
 30
0.0
 40
3.1485389999999991
 50
103.4818819999999
 51
135.72236399999991
  0
ARC
  5
480
  8
0
 62
     7
 10
150.21816299999989
 20
75.249269999999996
 30
0.0
 40
1.8748990000000001
 50
137.2723169999999
 51
143.73662899999991
  0
LINE
  5
481
  8
0
 62
     7
 10
149.30199999999999
 20
73.010000000000005
 30
0.0
 11
149.87799999999999
 21
72.894499999999994
 31
0.0
  0
ARC
  5
482
  8
0
 62
     7
 10
149.485612
 20
73.898502000000008
 30
0.0
 40
0.90737
 50
180.37287699999999
 51
258.30819100000002
  0
LINE
  5
483
  8
0
 62
     7
 10
149.28200000000001
 20
72.911799999999999
 30
0.0
 11
149.87799999999999
 21
72.792599999999993
 31
0.0
  0
LINE
  5
484
  8
0
 62
     7
 10
149.87799999999999
 20
73.066800000000001
 30
0.0
 11
149.87799999999999
 21
76.244200000000006
 31
0.0
  0
LINE
  5
485
  8
0
 62
     7
 10
149.87799999999999
 20
73.066800000000001
 30
0.0
 11
149.87799999999999
 21
72.792599999999993
 31
0.0
  0
LINE
  5
486
  8
0
 62
     7
 10
148.47799999999989
 20
113.0929999999999
 30
0.0
 11
148.47799999999989
 21
152.29300000000001
 31
0.0
  0
ARC
  5
487
  8
0
 62
     7
 10
149.41881599999999
 20
150.335891
 30
0.0
 40
0.240854
 50
176.539422
 51
186.56718499999999
  0
ARC
  5
488
  8
0
 62
     7
 10
149.5862379999999
 20
150.35573600000001
 30
0.0
 40
0.4094470000000001
 50
186.64643799999999
 51
223.520049
  0
ARC
  5
489
  8
0
 62
     7
 10
150.38781399999991
 20
151.01043100000001
 30
0.0
 40
1.4435929999999999
 50
220.453337
 51
230.17096000000001
  0
ARC
  5
48A
  8
0
 62
     7
 10
150.92176000000001
 20
151.6289679999999
 30
0.0
 40
2.260638999999999
 50
229.81927999999999
 51
243.2183729999999
  0
ARC
  5
48B
  8
0
 62
     7
 10
151.11426499999999
 20
151.94033899999991
 30
0.0
 40
2.6255399999999991
 50
242.5297589999999
 51
258.64134300000001
  0
ARC
  5
48C
  8
0
 62
     7
 10
150.890985
 20
150.94472999999991
 30
0.0
 40
1.6056189999999999
 50
259.45575200000002
 51
269.15112900000003
  0
ARC
  5
48D
  8
0
 62
     7
 10
150.320606
 20
151.015353
 30
0.0
 40
1.9044479999999999
 50
216.18974299999991
 51
229.930622
  0
ARC
  5
48E
  8
0
 62
     7
 10
151.09231699999989
 20
151.87450399999989
 30
0.0
 40
3.0589179999999998
 50
229.227913
 51
258.64541299999991
  0
ARC
  5
48F
  8
0
 62
     7
 10
150.8638629999999
 20
150.84061299999999
 30
0.0
 40
2.0003889999999989
 50
259.23057699999993
 51
269.16793799999999
  0
ARC
  5
490
  8
0
 62
     7
 10
149.15462599999989
 20
150.430137
 30
0.0
 40
0.577306
 50
176.72821200000001
 51
192.32764800000001
  0
ARC
  5
491
  8
0
 62
     7
 10
149.52416099999999
 20
150.48709799999989
 30
0.0
 40
0.9507659999999999
 50
190.9264949999999
 51
218.838199
  0
ARC
  5
492
  8
0
 62
     7
 10
149.10750300000001
 20
150.42613600000001
 30
0.0
 40
0.630234
 50
176.63899199999989
 51
191.5171599999999
  0
ARC
  5
493
  8
0
 62
     7
 10
149.52379999999999
 20
150.48761399999989
 30
0.0
 40
1.0506729999999991
 50
190.26946000000001
 51
218.92594500000001
  0
ARC
  5
494
  8
0
 62
     7
 10
150.28707600000001
 20
150.98079699999991
 30
0.0
 40
1.9566959999999991
 50
216.11662799999991
 51
229.95139399999999
  0
ARC
  5
495
  8
0
 62
     7
 10
151.08265499999999
 20
151.86692099999991
 30
0.0
 40
3.1471669999999992
 50
229.24409499999999
 51
261.50190600000002
  0
ARC
  5
496
  8
0
 62
     7
 10
150.84513799999991
 20
150.61640099999991
 30
0.0
 40
1.8759479999999991
 50
263.03260699999993
 51
269.49525499999999
  0
LINE
  5
497
  8
0
 62
     7
 10
148.47799999999989
 20
150.46299999999991
 30
0.0
 11
148.47799999999989
 21
152.29300000000001
 31
0.0
  0
LINE
  5
498
  8
0
 62
     7
 10
149.178
 20
150.34999999999999
 30
0.0
 11
149.178
 21
151.90299999999991
 31
0.0
  0
LINE
  5
499
  8
0
 62
     7
 10
150.86699999999999
 20
149.33899999999991
 30
0.0
 11
164.70099999999991
 21
148.4429999999999
 31
0.0
  0
LINE
  5
49A
  8
0
 62
     7
 10
150.83500000000001
 20
148.84
 30
0.0
 11
164.66900000000001
 21
147.9439999999999
 31
0.0
  0
LINE
  5
49B
  8
0
 62
     7
 10
150.82900000000001
 20
148.74100000000001
 30
0.0
 11
164.66200000000001
 21
147.84399999999991
 31
0.0
  0
LINE
  5
49C
  8
0
 62
     7
 10
148.578
 20
150.46299999999991
 30
0.0
 11
148.578
 21
152.29300000000001
 31
0.0
  0
ARC
  5
49D
  8
0
 62
     7
 10
149.45882199999991
 20
152.319819
 30
0.0
 40
0.869908
 50
100.403426
 51
150.1191189999999
  0
ARC
  5
49E
  8
0
 62
     7
 10
149.4614
 20
152.29807099999991
 30
0.0
 40
0.8831520000000001
 50
148.97900100000001
 51
180.32048499999999
  0
ARC
  5
49F
  8
0
 62
     7
 10
149.48580799999999
 20
152.28687600000001
 30
0.0
 40
1.007474999999999
 50
101.645509
 51
179.64421400000001
  0
LINE
  5
4A0
  8
0
 62
     7
 10
149.87799999999999
 20
153.119
 30
0.0
 11
149.87799999999999
 21
149.941
 31
0.0
  0
LINE
  5
4A1
  8
0
 62
     7
 10
149.30199999999999
 20
153.17500000000001
 30
0.0
 11
149.87799999999999
 21
153.291
 31
0.0
  0
LINE
  5
4A2
  8
0
 62
     7
 10
149.28200000000001
 20
153.27399999999989
 30
0.0
 11
149.87799999999999
 21
153.39299999999989
 31
0.0
  0
LINE
  5
4A3
  8
0
 62
     7
 10
149.87799999999999
 20
153.119
 30
0.0
 11
149.87799999999999
 21
153.39299999999989
 31
0.0
  0
LINE
  5
4A4
  8
0
 62
     7
 10
169.57299999999989
 20
102.46599999999999
 30
0.0
 11
168.53099999999989
 21
81.628999999999976
 31
0.0
  0
ARC
  5
4A5
  8
0
 62
     7
 10
170.795558
 20
102.381844
 30
0.0
 40
1.2256249999999991
 50
94.534044999999992
 51
176.07628399999999
  0
ARC
  5
4A6
  8
0
 62
     7
 10
170.67392100000001
 20
103.8067539999999
 30
0.0
 40
0.204623
 50
276.94687799999991
 51
358.88185199999998
  0
LINE
  5
4A7
  8
0
 62
     7
 10
170.87899999999999
 20
113.0929999999999
 30
0.0
 11
170.87899999999999
 21
103.803
 31
0.0
  0
LINE
  5
4A8
  8
0
 62
     7
 10
170.87899999999999
 20
113.0929999999999
 30
0.0
 11
170.87899999999999
 21
103.803
 31
0.0
  0
ARC
  5
4A9
  8
0
 62
     7
 10
170.67179299999989
 20
103.80899100000001
 30
0.0
 40
0.206806
 50
273.630853
 51
358.27382699999998
  0
ARC
  5
4AA
  8
0
 62
     7
 10
171.04564999999999
 20
102.5641
 30
0.0
 40
1.9356040000000001
 50
94.953806999999998
 51
138.410335
  0
ARC
  5
4AB
  8
0
 62
     7
 10
171.08653100000001
 20
102.498668
 30
0.0
 40
2.009730999999999
 50
137.78878
 51
177.048833
  0
ARC
  5
4AC
  8
0
 62
     7
 10
171.04378500000001
 20
102.57261200000001
 30
0.0
 40
2.0272079999999999
 50
94.676552999999984
 51
135.75576499999991
  0
ARC
  5
4AD
  8
0
 62
     7
 10
171.097984
 20
102.493274
 30
0.0
 40
2.121475999999999
 50
135.242065
 51
176.9280929999999
  0
LINE
  5
4AE
  8
0
 62
     7
 10
169.07899999999989
 20
113.0929999999999
 30
0.0
 11
169.07899999999989
 21
104.5929999999999
 31
0.0
  0
LINE
  5
4AF
  8
0
 62
     7
 10
168.9799999999999
 20
102.607
 30
0.0
 11
167.93199999999999
 21
81.658900000000003
 31
0.0
  0
LINE
  5
4B0
  8
0
 62
     7
 10
169.07899999999989
 20
102.602
 30
0.0
 11
168.03099999999989
 21
81.654099999999985
 31
0.0
  0
ARC
  5
4B1
  8
0
 62
     7
 10
170.79438200000001
 20
123.80258600000001
 30
0.0
 40
1.224362999999999
 50
183.866873
 51
264.86933099999999
  0
LINE
  5
4B2
  8
0
 62
     7
 10
169.57299999999989
 20
123.72
 30
0.0
 11
168.53099999999989
 21
144.55699999999999
 31
0.0
  0
ARC
  5
4B3
  8
0
 62
     7
 10
171.01444100000001
 20
123.65567900000001
 30
0.0
 40
1.9363060000000001
 50
182.123423
 51
225.56824499999999
  0
ARC
  5
4B4
  8
0
 62
     7
 10
171.08113299999999
 20
123.69340800000001
 30
0.0
 40
2.0100470000000001
 50
224.96360799999999
 51
264.21433699999989
  0
ARC
  5
4B5
  8
0
 62
     7
 10
171.00395299999991
 20
123.652834
 30
0.0
 40
2.0257509999999992
 50
182.09535099999999
 51
223.19912600000001
  0
ARC
  5
4B6
  8
0
 62
     7
 10
171.087391
 20
123.705215
 30
0.0
 40
2.1225169999999989
 50
222.68807699999991
 51
264.35215199999988
  0
ARC
  5
4B7
  8
0
 62
     7
 10
170.67232799999999
 20
122.377245
 30
0.0
 40
0.206267
 50
1.6855109999999991
 51
86.508456999999993
  0
LINE
  5
4B8
  8
0
 62
     7
 10
170.87899999999999
 20
113.0929999999999
 30
0.0
 11
170.87899999999999
 21
122.3829999999999
 31
0.0
  0
LINE
  5
4B9
  8
0
 62
     7
 10
169.07899999999989
 20
123.584
 30
0.0
 11
168.03099999999989
 21
144.53200000000001
 31
0.0
  0
LINE
  5
4BA
  8
0
 62
     7
 10
168.9799999999999
 20
123.57899999999989
 30
0.0
 11
167.93199999999999
 21
144.52699999999999
 31
0.0
  0
LINE
  5
4BB
  8
0
 62
     7
 10
170.87899999999999
 20
113.0929999999999
 30
0.0
 11
170.87899999999999
 21
122.3829999999999
 31
0.0
  0
LINE
  5
4BC
  8
0
 62
     7
 10
169.07899999999989
 20
113.0929999999999
 30
0.0
 11
169.07899999999989
 21
121.5929999999999
 31
0.0
  0
ARC
  5
4BD
  8
0
 62
     7
 10
170.67232799999999
 20
122.377245
 30
0.0
 40
0.206267
 50
1.6855109999999991
 51
86.508456999999993
  0
LINE
  5
4BE
  8
0
 62
     7
 10
149.87799999999999
 20
149.625
 30
0.0
 11
149.87799999999999
 21
153.39299999999989
 31
0.0
  0
TEXT
  5
4BF
  8
_________2
 62
     7
 10
29.5259
 20
22.227900000000002
 30
0.0
 40
3.9357000000000002
  1
重量：37.0kg
 41
0.5
  0
TEXT
  5
4C0
  8
_________2
 62
     7
 10
138.97772499999991
 20
30.627400000000002
 30
0.0
 40
3.9357000000000002
  1
CEL518S-WH
 41
0.5
 72
     1
 11
148.489
 21
30.627400000000002
 31
0.0
  0
TEXT
  5
4C1
  8
_________2
 62
     7
 10
142.257475
 20
20.6266
 30
0.0
 40
3.9357000000000002
  1
CEL518S
 41
0.5
 72
     1
 11
148.489
 21
20.6266
 31
0.0
  0
LINE
  5
4C2
  8
_________2
 62
     7
 10
210.24000000000001
 20
148.93100000000001
 30
0.0
 11
188.49000000000001
 21
148.93100000000001
 31
0.0
  0
LINE
  5
4C3
  8
_________2
 62
     7
 10
105.2389999999999
 20
17.4282
 30
0.0
 11
105.2389999999999
 21
0.4482100000000001
 31
0.0
  0
LINE
  5
4C4
  8
_________2
 62
     7
 10
105.2389999999999
 20
297.44999999999987
 30
0.0
 11
105.2389999999999
 21
280.42999999999989
 31
0.0
  0
LINE
  5
4C5
  8
_________2
 62
     7
 10
21.988499999999991
 20
148.93100000000001
 30
0.0
 11
0.238058
 21
148.93100000000001
 31
0.0
  0
LINE
  5
4C6
  8
_________2
 62
     7
 10
81.679900000000004
 20
51.323999999999998
 30
0.0
 11
79.493700000000004
 21
51.323999999999998
 31
0.0
  0
LINE
  5
4C7
  8
_________2
 62
     7
 10
82.172600000000017
 20
51.323999999999998
 30
0.0
 11
81.920400000000001
 21
51.323999999999998
 31
0.0
  0
LINE
  5
4C8
  8
_________2
 62
     7
 10
82.665199999999984
 20
51.323999999999998
 30
0.0
 11
85.590100000000007
 21
51.323999999999998
 31
0.0
  0
LINE
  5
4C9
  8
_________2
 62
     7
 10
82.172600000000017
 20
51.323999999999998
 30
0.0
 11
82.424800000000005
 21
51.323999999999998
 31
0.0
  0
LINE
  5
4CA
  8
_________2
 62
     7
 10
75.776399999999995
 20
51.323999999999998
 30
0.0
 11
73.589399999999998
 21
51.323999999999998
 31
0.0
  0
LINE
  5
4CB
  8
_________2
 62
     7
 10
76.2684
 20
51.323999999999998
 30
0.0
 11
76.016900000000007
 21
51.323999999999998
 31
0.0
  0
LINE
  5
4CC
  8
_________2
 62
     7
 10
76.2684
 20
51.816600000000001
 30
0.0
 11
76.2684
 21
54.003599999999999
 31
0.0
  0
LINE
  5
4CD
  8
_________2
 62
     7
 10
76.2684
 20
51.323999999999998
 30
0.0
 11
76.2684
 21
51.576500000000003
 31
0.0
  0
LINE
  5
4CE
  8
_________2
 62
     7
 10
76.76100000000001
 20
51.323999999999998
 30
0.0
 11
78.947999999999993
 21
51.323999999999998
 31
0.0
  0
LINE
  5
4CF
  8
_________2
 62
     7
 10
76.2684
 20
51.323999999999998
 30
0.0
 11
76.520499999999998
 21
51.323999999999998
 31
0.0
  0
LINE
  5
4D0
  8
_________2
 62
     7
 10
76.2684
 20
50.832000000000001
 30
0.0
 11
76.2684
 21
48.645400000000002
 31
0.0
  0
LINE
  5
4D1
  8
_________2
 62
     7
 10
76.2684
 20
51.323999999999998
 30
0.0
 11
76.2684
 21
51.072499999999998
 31
0.0
  0
LINE
  5
4D2
  8
_________2
 62
     7
 10
79.979399999999984
 20
50.104399999999998
 30
0.0
 11
85.157399999999996
 21
49.239699999999999
 31
0.0
  0
LINE
  5
4D3
  8
_________2
 62
     7
 10
79.979399999999984
 20
52.543900000000001
 30
0.0
 11
85.157399999999996
 21
53.409300000000002
 31
0.0
  0
LINE
  5
4D4
  8
_________2
 62
     7
 10
85.157399999999996
 20
49.239699999999999
 30
0.0
 11
85.157399999999996
 21
53.409300000000002
 31
0.0
  0
LINE
  5
4D5
  8
_________2
 62
     7
 10
79.979399999999984
 20
50.104399999999998
 30
0.0
 11
79.979399999999984
 21
52.543900000000001
 31
0.0
  0
ARC
  5
4D6
  8
_________2
 62
     7
 10
76.221766000000002
 20
51.277037
 30
0.0
 40
1.267714
 50
2.1220840000000001
 51
87.894083999999992
  0
ARC
  5
4D7
  8
_________2
 62
     7
 10
76.315297000000001
 20
51.277389999999997
 30
0.0
 40
1.267374999999999
 50
92.122849999999985
 51
177.893304
  0
ARC
  5
4D8
  8
_________2
 62
     7
 10
76.315273000000005
 20
51.370902000000001
 30
0.0
 40
1.267363
 50
182.12181499999991
 51
267.87821400000001
  0
ARC
  5
4D9
  8
_________2
 62
     7
 10
76.221461000000005
 20
51.371583999999999
 30
0.0
 40
1.2680439999999991
 50
272.11916400000001
 51
357.84848499999993
  0
ARC
  5
4DA
  8
_________2
 62
     7
 10
76.187981999999991
 20
51.243968000000002
 30
0.0
 40
2.1668310000000002
 50
2.1161439999999989
 51
87.874379000000005
  0
ARC
  5
4DB
  8
_________2
 62
     7
 10
76.348411999999996
 20
51.244990000000001
 30
0.0
 40
2.1657980000000001
 50
92.118487999999999
 51
177.90988599999989
  0
ARC
  5
4DC
  8
_________2
 62
     7
 10
76.348354
 20
51.403983000000011
 30
0.0
 40
2.1657779999999991
 50
182.11700400000001
 51
267.88302499999992
  0
ARC
  5
4DD
  8
_________2
 62
     7
 10
76.188378999999983
 20
51.404665999999992
 30
0.0
 40
2.1664590000000001
 50
272.11546800000002
 51
357.86560400000002
  0
TEXT
  5
4DE
  8
_________2
 62
     7
 10
109.5439999999999
 20
23.198699999999992
 30
0.0
 40
3.0923400000000001
  1
図番
 41
0.5
  0
LINE
  5
4DF
  8
_________2
 62
     7
 10
108.4889999999999
 20
27.428000000000001
 30
0.0
 11
188.49000000000001
 21
27.428000000000001
 31
0.0
  0
TEXT
  5
4E0
  8
_________2
 62
     7
 10
109.5439999999999
 20
33.198500000000003
 30
0.0
 40
3.0923400000000001
  1
品番
 41
0.5
  0
TEXT
  5
4E1
  8
_________2
 62
     7
 10
109.5439999999999
 20
53.337699999999998
 30
0.0
 40
3.0923400000000001
  1
名称
 41
0.5
  0
TEXT
  5
4E2
  8
_________2
 62
     7
 10
96.784158333333338
 20
48.341500000000011
 30
0.0
 40
3.6545800000000002
  1
mm
 41
0.5
 72
     1
 11
98.306899999999999
 21
48.341500000000011
 31
0.0
  0
TEXT
  5
4E3
  8
_________2
 62
     7
 10
90.582099999999997
 20
53.337699999999998
 30
0.0
 40
3.0923400000000001
  1
単位
 41
0.5
  0
TEXT
  5
4E4
  8
_________2
 62
     7
 10
90.582099999999997
 20
40.930100000000003
 30
0.0
 40
3.0923400000000001
  1
尺度
 41
0.5
  0
TEXT
  5
4E5
  8
_________2
 62
     7
 10
95.031036166666667
 20
34.73749999999999
 30
0.0
 40
3.6545800000000002
  1
1 ： 10
 41
0.5
 72
     1
 11
98.898799999999994
 21
34.73749999999999
 31
0.0
  0
TEXT
  5
4E6
  8
_________2
 62
     7
 10
114.11799999999999
 20
45.7453
 30
0.0
 40
3.9357000000000002
  1
シングルシンク（いものホーローシンク）
 41
0.5
  0
TEXT
  5
4E7
  8
_________2
 62
     7
 10
44.303290666666669
 20
35.122599999999991
 30
0.0
 40
3.6545800000000002
  1
石原
 41
0.5
 72
     1
 11
46.252400000000002
 21
35.122599999999991
 31
0.0
  0
TEXT
  5
4E8
  8
_________2
 62
     7
 10
25.729290666666671
 20
35.122599999999991
 30
0.0
 40
3.6545800000000002
  1
菅原
 41
0.5
 72
     1
 11
27.6784
 21
35.122599999999991
 31
0.0
  0
TEXT
  5
4E9
  8
_________2
 62
     7
 10
72.724699999999999
 20
34.73749999999999
 30
0.0
 40
3.6545800000000002
  1
14.02.06
 41
0.5
  0
TEXT
  5
4EA
  8
_________2
 62
     7
 10
71.531999999999996
 20
40.930100000000003
 30
0.0
 40
3.0923400000000001
  1
日付
 41
0.5
  0
TEXT
  5
4EB
  8
_________2
 62
     7
 10
34.578299999999992
 20
40.930100000000003
 30
0.0
 40
3.0923400000000001
  1
検図
 41
0.5
  0
TEXT
  5
4EC
  8
_________2
 62
     7
 10
22.960000000000001
 20
26.730699999999999
 30
0.0
 40
3.0923400000000001
  1
備考
 41
0.5
  0
TEXT
  5
4ED
  8
_________2
 62
     7
 10
22.960000000000001
 20
40.930100000000003
 30
0.0
 40
3.0923400000000001
  1
製図
 41
0.5
  0
TEXT
  5
4EE
  8
_________2
 62
     7
 10
28.727365333333339
 20
49.456000000000003
 30
0.0
 40
4.4979399999999989
  1
セラトレーディング株式会社
 41
0.5
 72
     1
 11
46.119399999999992
 21
49.456000000000003
 31
0.0
  0
LINE
  5
4EF
  8
_________2
 62
     7
 10
188.49000000000001
 20
17.4282
 30
0.0
 11
21.988499999999991
 21
17.4282
 31
0.0
  0
LINE
  5
4F0
  8
_________2
 62
     7
 10
21.988499999999991
 20
17.4282
 30
0.0
 11
21.988499999999991
 21
280.42999999999989
 31
0.0
  0
LINE
  5
4F1
  8
_________2
 62
     7
 10
21.988499999999991
 20
280.42999999999989
 30
0.0
 11
188.49000000000001
 21
280.42999999999989
 31
0.0
  0
LINE
  5
4F2
  8
_________2
 62
     7
 10
188.49000000000001
 20
280.42999999999989
 30
0.0
 11
188.49000000000001
 21
17.4282
 31
0.0
  0
LINE
  5
4F3
  8
_________2
 62
     7
 10
70.488799999999998
 20
30.9285
 30
0.0
 11
70.488799999999998
 21
57.428400000000011
 31
0.0
  0
LINE
  5
4F4
  8
_________2
 62
     7
 10
89.488600000000005
 20
30.9285
 30
0.0
 11
89.488600000000005
 21
57.428400000000011
 31
0.0
  0
LINE
  5
4F5
  8
_________2
 62
     7
 10
108.4889999999999
 20
17.4282
 30
0.0
 11
108.4889999999999
 21
57.428400000000011
 31
0.0
  0
LINE
  5
4F6
  8
_________2
 62
     7
 10
33.488300000000002
 20
30.9285
 30
0.0
 11
33.488300000000002
 21
44.928499999999993
 31
0.0
  0
LINE
  5
4F7
  8
_________2
 62
     7
 10
21.988499999999991
 20
30.9285
 30
0.0
 11
108.4889999999999
 21
30.9285
 31
0.0
  0
LINE
  5
4F8
  8
_________2
 62
     7
 10
21.988499999999991
 20
44.928499999999993
 30
0.0
 11
108.4889999999999
 21
44.928499999999993
 31
0.0
  0
LINE
  5
4F9
  8
_________2
 62
     7
 10
108.4889999999999
 20
37.427799999999991
 30
0.0
 11
188.49000000000001
 21
37.427799999999991
 31
0.0
  0
LINE
  5
4FA
  8
_________2
 62
     7
 10
21.988499999999991
 20
57.428400000000011
 30
0.0
 11
188.49000000000001
 21
57.428400000000011
 31
0.0
  0
ENDSEC
  0
EOF
