  0
SECTION
  2
HEADER
  9
$ACADVER
  1
AC1009
  9
$INSBASE
 10
0.0
 20
0.0
 30
0.0
  9
$EXTMIN
 10
-4.7006899999999989
 20
-21.070999999999991
 30
0.0
  9
$EXTMAX
 10
205.30099999999999
 20
275.93099999999993
 30
0.0
  9
$LIMMIN
 10
0.0
 20
0.0
  9
$LIMMAX
 10
12.0
 20
9.0
  9
$ORTHOMODE
 70
     0
  9
$REGENMODE
 70
     1
  9
$FILLMODE
 70
     1
  9
$QTEXTMODE
 70
     0
  9
$MIRRTEXT
 70
     1
  9
$DRAGMODE
 70
     2
  9
$LTSCALE
 40
1.0
  9
$OSMODE
 70
    37
  9
$ATTMODE
 70
     1
  9
$TEXTSIZE
 40
0.0
  9
$TRACEWID
 40
0.05
  9
$TEXTSTYLE
  7
STANDARD
  9
$CLAYER
  8
0
  9
$CELTYPE
  6
CONTINUOUS
  9
$CECOLOR
 62
   256
  9
$DIMSCALE
 40
1.0
  9
$DIMASZ
 40
0.18
  9
$DIMEXO
 40
0.0625
  9
$DIMDLI
 40
0.38
  9
$DIMRND
 40
0.0
  9
$DIMDLE
 40
0.0
  9
$DIMEXE
 40
0.18
  9
$DIMTP
 40
0.0
  9
$DIMTM
 40
0.0
  9
$DIMTXT
 40
0.18
  9
$DIMCEN
 40
0.09
  9
$DIMTSZ
 40
0.0
  9
$DIMTOL
 70
     0
  9
$DIMLIM
 70
     0
  9
$DIMTIH
 70
     1
  9
$DIMTOH
 70
     1
  9
$DIMSE1
 70
     0
  9
$DIMSE2
 70
     0
  9
$DIMTAD
 70
     0
  9
$DIMZIN
 70
     0
  9
$DIMBLK
  1

  9
$DIMASO
 70
     1
  9
$DIMSHO
 70
     1
  9
$DIMPOST
  1

  9
$DIMAPOST
  1

  9
$DIMALT
 70
     0
  9
$DIMALTD
 70
     2
  9
$DIMALTF
 40
25.399999999999999
  9
$DIMLFAC
 40
1.0
  9
$DIMTOFL
 70
     0
  9
$DIMTVP
 40
0.0
  9
$DIMTIX
 70
     0
  9
$DIMSOXD
 70
     0
  9
$DIMSAH
 70
     0
  9
$DIMBLK1
  1

  9
$DIMBLK2
  1

  9
$DIMSTYLE
  2
STANDARD
  9
$DIMCLRD
 70
     0
  9
$DIMCLRE
 70
     0
  9
$DIMCLRT
 70
     0
  9
$DIMTFAC
 40
1.0
  9
$DIMGAP
 40
0.09
  9
$LUNITS
 70
     2
  9
$LUPREC
 70
     4
  9
$SKETCHINC
 40
0.1
  9
$FILLETRAD
 40
0.0
  9
$AUNITS
 70
     0
  9
$AUPREC
 70
     0
  9
$MENU
  1
.
  9
$ELEVATION
 40
0.0
  9
$PELEVATION
 40
0.0
  9
$THICKNESS
 40
0.0
  9
$LIMCHECK
 70
     0
  9
$BLIPMODE
 70
     0
  9
$CHAMFERA
 40
0.0
  9
$CHAMFERB
 40
0.0
  9
$SKPOLY
 70
     0
  9
$TDCREATE
 40
2444972.375
  9
$TDUPDATE
 40
2453589.2527638422
  9
$TDINDWG
 40
0.0003030093
  9
$TDUSRTIMER
 40
0.0003030093
  9
$USRTIMER
 70
     1
  9
$ANGBASE
 50
0.0
  9
$ANGDIR
 70
     0
  9
$PDMODE
 70
     0
  9
$PDSIZE
 40
0.0
  9
$PLINEWID
 40
0.0
  9
$COORDS
 70
     1
  9
$SPLFRAME
 70
     0
  9
$SPLINETYPE
 70
     6
  9
$SPLINESEGS
 70
     8
  9
$ATTDIA
 70
     0
  9
$ATTREQ
 70
     1
  9
$HANDLING
 70
 22529
  9
$HANDSEED
  5
2CE
  9
$SURFTAB1
 70
     6
  9
$SURFTAB2
 70
     6
  9
$SURFTYPE
 70
     6
  9
$SURFU
 70
     6
  9
$SURFV
 70
     6
  9
$UCSNAME
  2

  9
$UCSORG
 10
0.0
 20
0.0
 30
0.0
  9
$UCSXDIR
 10
1.0
 20
0.0
 30
0.0
  9
$UCSYDIR
 10
0.0
 20
1.0
 30
0.0
  9
$PUCSNAME
  2

  9
$PUCSORG
 10
0.0
 20
0.0
 30
0.0
  9
$PUCSXDIR
 10
1.0
 20
0.0
 30
0.0
  9
$PUCSYDIR
 10
0.0
 20
1.0
 30
0.0
  9
$USERI1
 70
     0
  9
$USERI2
 70
     0
  9
$USERI3
 70
     0
  9
$USERI4
 70
     0
  9
$USERI5
 70
     0
  9
$USERR1
 40
0.0
  9
$USERR2
 40
0.0
  9
$USERR3
 40
0.0
  9
$USERR4
 40
0.0
  9
$USERR5
 40
0.0
  9
$WORLDVIEW
 70
     1
  9
$SHADEDGE
 70
     3
  9
$SHADEDIF
 70
    70
  9
$TILEMODE
 70
     1
  9
$MAXACTVP
 70
    48
  9
$PLIMCHECK
 70
     0
  9
$PEXTMIN
 10
1.0000000000000000E+020
 20
1.0000000000000000E+020
 30
1.0000000000000000E+020
  9
$PEXTMAX
 10
-1.0000000000000000E+020
 20
-1.0000000000000000E+020
 30
-1.0000000000000000E+020
  9
$PLIMMIN
 10
0.0
 20
0.0
  9
$PLIMMAX
 10
12.0
 20
9.0
  9
$UNITMODE
 70
     0
  9
$VISRETAIN
 70
     1
  9
$PLINEGEN
 70
     0
  9
$PSLTSCALE
 70
     1
  0
ENDSEC
  0
SECTION
  2
TABLES
  0
TABLE
  2
VPORT
 70
     2
  0
VPORT
  2
*ACTIVE
 70
     0
 10
0.0
 20
0.0
 11
1.0
 21
1.0
 12
189.5606512987321
 22
127.42999999999989
 13
0.0
 23
0.0
 14
1.0
 24
1.0
 15
0.0
 25
0.0
 16
0.0
 26
0.0
 36
1.0
 17
0.0
 27
0.0
 37
0.0
 40
299.24634760705283
 41
2.1842105263157889
 42
50.0
 43
0.0
 44
0.0
 50
0.0
 51
0.0
 71
     0
 72
   100
 73
     1
 74
     1
 75
     0
 76
     0
 77
     0
 78
     0
  0
ENDTAB
  0
TABLE
  2
LTYPE
 70
     2
  0
LTYPE
  2
CONTINUOUS
 70
     0
  3
Solid line
 72
    65
 73
     0
 40
0.0
  0
LTYPE
  2
AIGENLINE001
 70
     0
  3
generate AI->DXF Converter
 72
    65
 73
     4
 40
5.8561449999999988
 49
3.5278
 49
-0.776115
 49
0.776115
 49
-0.776115
  0
ENDTAB
  0
TABLE
  2
LAYER
 70
     2
  0
LAYER
  2
0
 70
     0
 62
     7
  6
CONTINUOUS
  0
LAYER
  2
_________2
 70
     0
 62
     7
  6
CONTINUOUS
  0
ENDTAB
  0
TABLE
  2
STYLE
 70
     1
  0
STYLE
  2
STANDARD
 70
     0
 40
0.0
 41
0.0
 50
0.0
 71
     0
 42
0.0
  3
TXT
  4
EXTFONT.SHX
  0
ENDTAB
  0
TABLE
  2
VIEW
 70
     0
  0
ENDTAB
  0
TABLE
  2
UCS
 70
     0
  0
ENDTAB
  0
TABLE
  2
APPID
 70
     1
  0
APPID
  2
ACAD
 70
     0
  0
ENDTAB
  0
TABLE
  2
DIMSTYLE
 70
     1
  0
DIMSTYLE
  2
STANDARD
 70
     0
  3

  4

  5

  6

  7

 40
1.0
 41
0.18
 42
0.0625
 43
0.38
 44
0.18
 45
0.0
 46
0.0
 47
0.0
 48
0.0
140
0.18
141
0.09
142
0.0
143
25.399999999999999
144
1.0
145
0.0
146
1.0
147
0.09
 71
     0
 72
     0
 73
     1
 74
     1
 75
     0
 76
     0
 77
     0
 78
     0
170
     0
171
     2
172
     0
173
     0
174
     0
175
     0
176
     0
177
     0
178
     0
  0
ENDTAB
  0
ENDSEC
  0
SECTION
  2
BLOCKS
  0
BLOCK
  8
0
  2
$MODEL_SPACE
 70
     0
 10
0.0
 20
0.0
 30
0.0
  3
$MODEL_SPACE
  1

  0
ENDBLK
  5
1A
  8
0
  0
BLOCK
 67
     1
  8
0
  2
$PAPER_SPACE
 70
     0
 10
0.0
 20
0.0
 30
0.0
  3
$PAPER_SPACE
  1

  0
ENDBLK
  5
17
 67
     1
  8
0
  0
ENDSEC
  0
SECTION
  2
ENTITIES
  0
TEXT
  5
22
  8
0
 62
     7
 10
176.5629999999999
 20
117.73344
 30
0.0
 40
3.0923400000000001
  1
%%c62
 50
90.0
 41
0.5
 72
     1
 11
176.5629999999999
 21
119.795
 31
0.0
  0
TEXT
  5
23
  8
0
 62
     7
 10
100.238
 20
108.4883725
 30
0.0
 40
3.0923400000000001
  1
80
 50
90.0
 41
0.5
 72
     1
 11
100.238
 21
109.6479999999999
 31
0.0
  0
TEXT
  5
24
  8
0
 62
     7
 10
46.8371
 20
122.5921349999999
 30
0.0
 40
3.0923400000000001
  1
200
 50
90.0
 41
0.5
 72
     1
 11
46.8371
 21
124.3959999999999
 31
0.0
  0
TEXT
  5
25
  8
0
 62
     7
 10
118.7242875
 20
89.125500000000017
 30
0.0
 40
3.0923400000000001
  1
390
 41
0.5
 72
     1
 11
120.657
 21
89.125500000000017
 31
0.0
  0
TEXT
  5
26
  8
0
 62
     7
 10
64.832272500000002
 20
89.125500000000017
 30
0.0
 40
3.0923400000000001
  1
60
 41
0.5
 72
     1
 11
65.991900000000001
 21
89.125500000000017
 31
0.0
  0
TEXT
  5
27
  8
0
 62
     7
 10
143.83600000000001
 20
125.53543999999999
 30
0.0
 40
3.0923400000000001
  1
%%c25
 50
90.0
 41
0.5
 72
     1
 11
143.83600000000001
 21
127.59699999999999
 31
0.0
  0
LINE
  5
28
  8
0
 62
     7
 10
34.802599999999991
 20
119.01899999999991
 30
0.0
 11
33.328800000000001
 21
119.01899999999991
 31
0.0
  0
LINE
  5
29
  8
0
 62
     7
 10
33.328800000000001
 20
117.64
 30
0.0
 11
34.802599999999991
 21
117.64
 31
0.0
  0
ARC
  5
2A
  8
0
 62
     7
 10
31.714259999999989
 20
115.008532
 30
0.0
 40
4.3857970000000002
 50
78.026475000000005
 51
90.016536000000002
  0
ARC
  5
2B
  8
0
 62
     7
 10
32.147938000000003
 20
117.0698699999999
 30
0.0
 40
2.2793380000000001
 50
58.798326000000003
 51
77.940967999999998
  0
ARC
  5
2C
  8
0
 62
     7
 10
35.573754000000001
 20
118.2384879999999
 30
0.0
 40
1.0975870000000001
 50
83.059221999999991
 51
134.63705300000001
  0
ARC
  5
2D
  8
0
 62
     7
 10
35.540836999999989
 20
118.444897
 30
0.0
 40
0.898517
 50
39.754573000000001
 51
79.382508999999985
  0
ARC
  5
2E
  8
0
 62
     7
 10
31.714736999999989
 20
121.181946
 30
0.0
 40
4.042101999999999
 50
269.97529600000001
 51
282.38836099999992
  0
ARC
  5
2F
  8
0
 62
     7
 10
32.204597
 20
118.900654
 30
0.0
 40
1.7088709999999989
 50
282.756056
 51
305.84934599999991
  0
ARC
  5
30
  8
0
 62
     7
 10
32.706561999999991
 20
118.13283799999989
 30
0.0
 40
0.7936860000000001
 50
308.94083399999988
 51
321.62150400000002
  0
ARC
  5
31
  8
0
 62
     7
 10
35.469862999999997
 20
118.154179
 30
0.0
 40
0.8423639999999998
 50
217.61202
 51
279.10304400000001
  0
ARC
  5
32
  8
0
 62
     7
 10
35.492049999999999
 20
118.32275300000001
 30
0.0
 40
1.0064779999999991
 50
276.33657699999992
 51
317.29027200000002
  0
LINE
  5
33
  8
0
 62
     7
 10
36.2316
 20
117.64
 30
0.0
 11
35.837499999999999
 21
117.1399999999999
 31
0.0
  0
LINE
  5
34
  8
0
 62
     7
 10
35.837499999999999
 20
119.64
 30
0.0
 11
36.2316
 21
119.01899999999991
 31
0.0
  0
LINE
  5
35
  8
0
 62
     7
 10
33.328800000000001
 20
117.64
 30
0.0
 11
33.328800000000001
 21
119.01899999999991
 31
0.0
  0
LINE
  5
36
  8
0
 62
     7
 10
34.802599999999991
 20
117.64
 30
0.0
 11
34.802599999999991
 21
119.01899999999991
 31
0.0
  0
LINE
  5
37
  8
0
 62
     7
 10
36.2316
 20
117.64
 30
0.0
 11
36.2316
 21
119.01899999999991
 31
0.0
  0
LINE
  5
38
  8
0
 62
     7
 10
35.837499999999999
 20
117.1399999999999
 30
0.0
 11
31.713000000000001
 21
117.1399999999999
 31
0.0
  0
LINE
  5
39
  8
0
 62
     7
 10
35.837499999999999
 20
119.64
 30
0.0
 11
31.713000000000001
 21
119.64
 31
0.0
  0
LINE
  5
3A
  8
0
 62
     7
 10
28.623100000000001
 20
119.01899999999991
 30
0.0
 11
30.097200000000001
 21
119.01899999999991
 31
0.0
  0
LINE
  5
3B
  8
0
 62
     7
 10
30.097200000000001
 20
117.64
 30
0.0
 11
28.623100000000001
 21
117.64
 31
0.0
  0
ARC
  5
3C
  8
0
 62
     7
 10
31.711716999999989
 20
115.004926
 30
0.0
 40
4.3894019999999987
 50
89.983333000000002
 51
101.9685689999999
  0
ARC
  5
3D
  8
0
 62
     7
 10
31.276937
 20
117.07333300000001
 30
0.0
 40
2.2757999999999989
 50
102.0593939999999
 51
121.222881
  0
ARC
  5
3E
  8
0
 62
     7
 10
27.852270999999998
 20
118.2395639999999
 30
0.0
 40
1.0965519999999991
 50
45.337663999999997
 51
96.961847000000006
  0
ARC
  5
3F
  8
0
 62
     7
 10
27.884936
 20
118.44461699999989
 30
0.0
 40
0.8987969999999999
 50
100.6156209999999
 51
140.23700099999999
  0
ARC
  5
40
  8
0
 62
     7
 10
31.711238999999999
 20
121.1843769999999
 30
0.0
 40
4.0445339999999987
 50
257.61539699999997
 51
270.02485999999999
  0
ARC
  5
41
  8
0
 62
     7
 10
31.220878999999989
 20
118.89925100000001
 30
0.0
 40
1.707449999999999
 50
234.13626400000001
 51
257.24129799999992
  0
ARC
  5
42
  8
0
 62
     7
 10
30.720185999999991
 20
118.133483
 30
0.0
 40
0.7946830000000001
 50
218.38093799999999
 51
231.04426000000001
  0
ARC
  5
43
  8
0
 62
     7
 10
27.955946000000001
 20
118.153758
 30
0.0
 40
0.841975
 50
260.88124199999999
 51
322.40373299999987
  0
ARC
  5
44
  8
0
 62
     7
 10
27.933606999999999
 20
118.322782
 30
0.0
 40
1.0065079999999991
 50
222.71039099999999
 51
263.66279999999989
  0
LINE
  5
45
  8
0
 62
     7
 10
27.193999999999999
 20
117.64
 30
0.0
 11
27.587800000000001
 21
117.1399999999999
 31
0.0
  0
LINE
  5
46
  8
0
 62
     7
 10
27.587800000000001
 20
119.64
 30
0.0
 11
27.193999999999999
 21
119.01899999999991
 31
0.0
  0
LINE
  5
47
  8
0
 62
     7
 10
30.097200000000001
 20
117.64
 30
0.0
 11
30.097200000000001
 21
119.01899999999991
 31
0.0
  0
LINE
  5
48
  8
0
 62
     7
 10
28.623100000000001
 20
117.64
 30
0.0
 11
28.623100000000001
 21
119.01899999999991
 31
0.0
  0
LINE
  5
49
  8
0
 62
     7
 10
27.193999999999999
 20
117.64
 30
0.0
 11
27.193999999999999
 21
119.01899999999991
 31
0.0
  0
LINE
  5
4A
  8
0
 62
     7
 10
27.587800000000001
 20
117.1399999999999
 30
0.0
 11
31.713000000000001
 21
117.1399999999999
 31
0.0
  0
LINE
  5
4B
  8
0
 62
     7
 10
27.587800000000001
 20
119.64
 30
0.0
 11
31.713000000000001
 21
119.64
 31
0.0
  0
ARC
  5
4C
  8
0
 62
     7
 10
35.517453000000003
 20
110.854833
 30
0.0
 40
0.97512
 50
42.913896000000001
 51
117.82215600000001
  0
ARC
  5
4D
  8
0
 62
     7
 10
35.487349000000002
 20
110.72335699999999
 30
0.0
 40
0.9125099999999999
 50
242.25266400000001
 51
285.52484599999991
  0
ARC
  5
4E
  8
0
 62
     7
 10
35.516996999999989
 20
110.77864699999991
 30
0.0
 40
0.9588280000000001
 50
282.9326759999999
 51
318.18467700000002
  0
LINE
  5
4F
  8
0
 62
     7
 10
36.2316
 20
110.139
 30
0.0
 11
35.837499999999999
 21
109.6389999999999
 31
0.0
  0
LINE
  5
50
  8
0
 62
     7
 10
35.837499999999999
 20
112.1399999999999
 30
0.0
 11
36.2316
 21
111.51899999999991
 31
0.0
  0
LINE
  5
51
  8
0
 62
     7
 10
36.2316
 20
110.139
 30
0.0
 11
36.2316
 21
111.51899999999991
 31
0.0
  0
LINE
  5
52
  8
0
 62
     7
 10
35.837499999999999
 20
109.6389999999999
 30
0.0
 11
35.063000000000002
 21
109.6389999999999
 31
0.0
  0
LINE
  5
53
  8
0
 62
     7
 10
35.837499999999999
 20
112.1399999999999
 30
0.0
 11
35.063000000000002
 21
112.1399999999999
 31
0.0
  0
ARC
  5
54
  8
0
 62
     7
 10
27.908370999999999
 20
110.85463799999989
 30
0.0
 40
0.975385
 50
62.346688999999998
 51
137.08497199999999
  0
ARC
  5
55
  8
0
 62
     7
 10
27.938383000000002
 20
110.722737
 30
0.0
 40
0.9119189999999999
 50
254.46320700000001
 51
297.76049399999988
  0
ARC
  5
56
  8
0
 62
     7
 10
27.908722999999998
 20
110.778825
 30
0.0
 40
0.9590049999999997
 50
221.8202
 51
257.06896699999987
  0
LINE
  5
57
  8
0
 62
     7
 10
27.193999999999999
 20
110.139
 30
0.0
 11
27.587800000000001
 21
109.6389999999999
 31
0.0
  0
LINE
  5
58
  8
0
 62
     7
 10
27.587800000000001
 20
112.1399999999999
 30
0.0
 11
27.193999999999999
 21
111.51899999999991
 31
0.0
  0
LINE
  5
59
  8
0
 62
     7
 10
27.193999999999999
 20
110.139
 30
0.0
 11
27.193999999999999
 21
111.51899999999991
 31
0.0
  0
LINE
  5
5A
  8
0
 62
     7
 10
27.587800000000001
 20
109.6389999999999
 30
0.0
 11
28.363
 21
109.6389999999999
 31
0.0
  0
LINE
  5
5B
  8
0
 62
     7
 10
27.587800000000001
 20
112.1399999999999
 30
0.0
 11
28.363
 21
112.1399999999999
 31
0.0
  0
LINE
  5
5C
  8
0
 62
     7
 10
76.5762
 20
111.51899999999991
 30
0.0
 11
75.102400000000003
 21
111.51899999999991
 31
0.0
  0
LINE
  5
5D
  8
0
 62
     7
 10
75.102400000000003
 20
110.139
 30
0.0
 11
76.5762
 21
110.139
 31
0.0
  0
ARC
  5
5E
  8
0
 62
     7
 10
73.487856999999991
 20
107.5078219999999
 30
0.0
 40
4.3857970000000002
 50
78.026475000000005
 51
90.016536000000002
  0
ARC
  5
5F
  8
0
 62
     7
 10
73.921534999999992
 20
109.56916
 30
0.0
 40
2.2793380000000001
 50
58.798326000000003
 51
77.940967999999998
  0
ARC
  5
60
  8
0
 62
     7
 10
77.347352000000001
 20
110.73777799999991
 30
0.0
 40
1.0975870000000001
 50
83.059221999999991
 51
134.63705300000001
  0
ARC
  5
61
  8
0
 62
     7
 10
77.314413000000002
 20
110.94415100000001
 30
0.0
 40
0.8985579999999998
 50
39.755503999999988
 51
79.381578000000005
  0
ARC
  5
62
  8
0
 62
     7
 10
73.488333999999995
 20
113.681236
 30
0.0
 40
4.042101999999999
 50
269.97529600000001
 51
282.38836099999992
  0
ARC
  5
63
  8
0
 62
     7
 10
73.978194999999999
 20
111.399945
 30
0.0
 40
1.7088709999999989
 50
282.756056
 51
305.84934599999991
  0
ARC
  5
64
  8
0
 62
     7
 10
74.479616000000007
 20
110.6326659999999
 30
0.0
 40
0.794446
 50
308.94692099999992
 51
321.61541799999998
  0
ARC
  5
65
  8
0
 62
     7
 10
77.243292999999994
 20
110.6530489999999
 30
0.0
 40
0.841975
 50
217.59628599999991
 51
279.11877799999991
  0
ARC
  5
66
  8
0
 62
     7
 10
77.265632999999994
 20
110.82207200000001
 30
0.0
 40
1.0065079999999991
 50
276.33722
 51
317.28962899999999
  0
LINE
  5
67
  8
0
 62
     7
 10
78.005200000000002
 20
110.139
 30
0.0
 11
77.611099999999993
 21
109.6389999999999
 31
0.0
  0
LINE
  5
68
  8
0
 62
     7
 10
77.611099999999993
 20
112.1399999999999
 30
0.0
 11
78.005200000000002
 21
111.51899999999991
 31
0.0
  0
LINE
  5
69
  8
0
 62
     7
 10
75.102400000000003
 20
110.139
 30
0.0
 11
75.102400000000003
 21
111.51899999999991
 31
0.0
  0
LINE
  5
6A
  8
0
 62
     7
 10
76.5762
 20
110.139
 30
0.0
 11
76.5762
 21
111.51899999999991
 31
0.0
  0
LINE
  5
6B
  8
0
 62
     7
 10
78.005200000000002
 20
110.139
 30
0.0
 11
78.005200000000002
 21
111.51899999999991
 31
0.0
  0
LINE
  5
6C
  8
0
 62
     7
 10
77.611099999999993
 20
109.6389999999999
 30
0.0
 11
73.486599999999996
 21
109.6389999999999
 31
0.0
  0
LINE
  5
6D
  8
0
 62
     7
 10
77.611099999999993
 20
112.1399999999999
 30
0.0
 11
73.486599999999996
 21
112.1399999999999
 31
0.0
  0
LINE
  5
6E
  8
0
 62
     7
 10
70.396699999999996
 20
111.51899999999991
 30
0.0
 11
71.870800000000003
 21
111.51899999999991
 31
0.0
  0
LINE
  5
6F
  8
0
 62
     7
 10
71.870800000000003
 20
110.139
 30
0.0
 11
70.396699999999996
 21
110.139
 31
0.0
  0
ARC
  5
70
  8
0
 62
     7
 10
73.485314000000002
 20
107.5042169999999
 30
0.0
 40
4.3894019999999987
 50
89.983333000000002
 51
101.9685689999999
  0
ARC
  5
71
  8
0
 62
     7
 10
73.050483
 20
109.57275300000001
 30
0.0
 40
2.2756630000000002
 50
102.0588119999999
 51
121.2234629999999
  0
ARC
  5
72
  8
0
 62
     7
 10
69.625868000000011
 20
110.738855
 30
0.0
 40
1.0965519999999991
 50
45.337663999999997
 51
96.961847000000006
  0
ARC
  5
73
  8
0
 62
     7
 10
69.658511000000004
 20
110.9439449999999
 30
0.0
 40
0.898756
 50
100.61469
 51
140.237932
  0
ARC
  5
74
  8
0
 62
     7
 10
73.484836000000001
 20
113.683718
 30
0.0
 40
4.0445839999999986
 50
257.615475
 51
270.02485899999999
  0
ARC
  5
75
  8
0
 62
     7
 10
72.994499000000005
 20
111.398585
 30
0.0
 40
1.707498
 50
234.13649000000001
 51
257.240701
  0
ARC
  5
76
  8
0
 62
     7
 10
72.493782999999993
 20
110.632774
 30
0.0
 40
0.7946830000000001
 50
218.38093799999999
 51
231.04426000000001
  0
ARC
  5
77
  8
0
 62
     7
 10
69.729543000000007
 20
110.6530489999999
 30
0.0
 40
0.841975
 50
260.88124199999999
 51
322.40373299999987
  0
ARC
  5
78
  8
0
 62
     7
 10
69.707204000000004
 20
110.82207200000001
 30
0.0
 40
1.0065079999999991
 50
222.71039099999999
 51
263.66279999999989
  0
LINE
  5
79
  8
0
 62
     7
 10
68.967600000000004
 20
110.139
 30
0.0
 11
69.361400000000003
 21
109.6389999999999
 31
0.0
  0
LINE
  5
7A
  8
0
 62
     7
 10
69.361400000000003
 20
112.1399999999999
 30
0.0
 11
68.967600000000004
 21
111.51899999999991
 31
0.0
  0
LINE
  5
7B
  8
0
 62
     7
 10
71.870800000000003
 20
110.139
 30
0.0
 11
71.870800000000003
 21
111.51899999999991
 31
0.0
  0
LINE
  5
7C
  8
0
 62
     7
 10
70.396699999999996
 20
110.139
 30
0.0
 11
70.396699999999996
 21
111.51899999999991
 31
0.0
  0
LINE
  5
7D
  8
0
 62
     7
 10
68.967600000000004
 20
110.139
 30
0.0
 11
68.967600000000004
 21
111.51899999999991
 31
0.0
  0
LINE
  5
7E
  8
0
 62
     7
 10
69.361400000000003
 20
109.6389999999999
 30
0.0
 11
73.486599999999996
 21
109.6389999999999
 31
0.0
  0
LINE
  5
7F
  8
0
 62
     7
 10
69.361400000000003
 20
112.1399999999999
 30
0.0
 11
73.486599999999996
 21
112.1399999999999
 31
0.0
  0
LINE
  5
80
  8
0
 62
     7
 10
61.576000000000001
 20
119.01899999999991
 30
0.0
 11
60.1021
 21
119.01899999999991
 31
0.0
  0
LINE
  5
81
  8
0
 62
     7
 10
60.1021
 20
117.64
 30
0.0
 11
61.576000000000001
 21
117.64
 31
0.0
  0
ARC
  5
82
  8
0
 62
     7
 10
58.487644000000003
 20
115.008532
 30
0.0
 40
4.3857970000000002
 50
78.026475000000005
 51
90.016536000000002
  0
ARC
  5
83
  8
0
 62
     7
 10
58.921321999999989
 20
117.0698699999999
 30
0.0
 40
2.2793380000000001
 50
58.798326000000003
 51
77.940967999999998
  0
ARC
  5
84
  8
0
 62
     7
 10
62.347138999999999
 20
118.2384879999999
 30
0.0
 40
1.0975870000000001
 50
83.059221999999991
 51
134.63705300000001
  0
ARC
  5
85
  8
0
 62
     7
 10
62.314199999999992
 20
118.44486000000001
 30
0.0
 40
0.8985579999999998
 50
39.755503999999988
 51
79.381578000000005
  0
ARC
  5
86
  8
0
 62
     7
 10
58.488120999999992
 20
121.181946
 30
0.0
 40
4.042101999999999
 50
269.97529600000001
 51
282.38836099999992
  0
ARC
  5
87
  8
0
 62
     7
 10
58.977981999999997
 20
118.900654
 30
0.0
 40
1.7088709999999989
 50
282.756056
 51
305.84934599999991
  0
ARC
  5
88
  8
0
 62
     7
 10
59.479402999999998
 20
118.133375
 30
0.0
 40
0.794446
 50
308.94692099999992
 51
321.61541799999998
  0
ARC
  5
89
  8
0
 62
     7
 10
62.243080999999997
 20
118.153758
 30
0.0
 40
0.841975
 50
217.59628599999991
 51
279.11877799999991
  0
ARC
  5
8A
  8
0
 62
     7
 10
62.265419999999999
 20
118.322782
 30
0.0
 40
1.0065079999999991
 50
276.33722
 51
317.28962899999999
  0
LINE
  5
8B
  8
0
 62
     7
 10
63.005000000000003
 20
117.64
 30
0.0
 11
62.610900000000001
 21
117.1399999999999
 31
0.0
  0
LINE
  5
8C
  8
0
 62
     7
 10
62.610900000000001
 20
119.64
 30
0.0
 11
63.005000000000003
 21
119.01899999999991
 31
0.0
  0
LINE
  5
8D
  8
0
 62
     7
 10
60.1021
 20
117.64
 30
0.0
 11
60.1021
 21
119.01899999999991
 31
0.0
  0
LINE
  5
8E
  8
0
 62
     7
 10
61.576000000000001
 20
117.64
 30
0.0
 11
61.576000000000001
 21
119.01899999999991
 31
0.0
  0
LINE
  5
8F
  8
0
 62
     7
 10
63.005000000000003
 20
117.64
 30
0.0
 11
63.005000000000003
 21
119.01899999999991
 31
0.0
  0
LINE
  5
90
  8
0
 62
     7
 10
62.610900000000001
 20
117.1399999999999
 30
0.0
 11
58.486400000000003
 21
117.1399999999999
 31
0.0
  0
LINE
  5
91
  8
0
 62
     7
 10
62.610900000000001
 20
119.64
 30
0.0
 11
58.486400000000003
 21
119.64
 31
0.0
  0
LINE
  5
92
  8
0
 62
     7
 10
55.396500000000003
 20
119.01899999999991
 30
0.0
 11
56.870600000000003
 21
119.01899999999991
 31
0.0
  0
LINE
  5
93
  8
0
 62
     7
 10
56.870600000000003
 20
117.64
 30
0.0
 11
55.396500000000003
 21
117.64
 31
0.0
  0
ARC
  5
94
  8
0
 62
     7
 10
58.485101999999998
 20
115.004926
 30
0.0
 40
4.3894019999999987
 50
89.983333000000002
 51
101.9685689999999
  0
ARC
  5
95
  8
0
 62
     7
 10
58.05026999999999
 20
117.07346200000001
 30
0.0
 40
2.2756630000000002
 50
102.0588119999999
 51
121.2234629999999
  0
ARC
  5
96
  8
0
 62
     7
 10
54.625656000000014
 20
118.2395639999999
 30
0.0
 40
1.0965519999999991
 50
45.337663999999997
 51
96.961847000000006
  0
ARC
  5
97
  8
0
 62
     7
 10
54.658297999999988
 20
118.4446539999999
 30
0.0
 40
0.898756
 50
100.61469
 51
140.237932
  0
ARC
  5
98
  8
0
 62
     7
 10
58.48462399999999
 20
121.1844279999999
 30
0.0
 40
4.0445839999999986
 50
257.615475
 51
270.02485899999999
  0
ARC
  5
99
  8
0
 62
     7
 10
57.994285999999988
 20
118.899294
 30
0.0
 40
1.707498
 50
234.13649000000001
 51
257.240701
  0
ARC
  5
9A
  8
0
 62
     7
 10
57.493569999999991
 20
118.133483
 30
0.0
 40
0.7946830000000001
 50
218.38093799999999
 51
231.04426000000001
  0
ARC
  5
9B
  8
0
 62
     7
 10
54.729330000000012
 20
118.153758
 30
0.0
 40
0.841975
 50
260.88124199999999
 51
322.40373299999987
  0
ARC
  5
9C
  8
0
 62
     7
 10
54.706991000000002
 20
118.322782
 30
0.0
 40
1.0065079999999991
 50
222.71039099999999
 51
263.66279999999989
  0
LINE
  5
9D
  8
0
 62
     7
 10
53.967399999999998
 20
117.64
 30
0.0
 11
54.36119999999999
 21
117.1399999999999
 31
0.0
  0
LINE
  5
9E
  8
0
 62
     7
 10
54.36119999999999
 20
119.64
 30
0.0
 11
53.967399999999998
 21
119.01899999999991
 31
0.0
  0
LINE
  5
9F
  8
0
 62
     7
 10
56.870600000000003
 20
117.64
 30
0.0
 11
56.870600000000003
 21
119.01899999999991
 31
0.0
  0
LINE
  5
A0
  8
0
 62
     7
 10
55.396500000000003
 20
117.64
 30
0.0
 11
55.396500000000003
 21
119.01899999999991
 31
0.0
  0
LINE
  5
A1
  8
0
 62
     7
 10
53.967399999999998
 20
117.64
 30
0.0
 11
53.967399999999998
 21
119.01899999999991
 31
0.0
  0
LINE
  5
A2
  8
0
 62
     7
 10
54.36119999999999
 20
117.1399999999999
 30
0.0
 11
58.486400000000003
 21
117.1399999999999
 31
0.0
  0
LINE
  5
A3
  8
0
 62
     7
 10
54.36119999999999
 20
119.64
 30
0.0
 11
58.486400000000003
 21
119.64
 31
0.0
  0
ARC
  5
A4
  8
0
 62
     7
 10
31.520949999999999
 20
120.01669099999989
 30
0.0
 40
7.9431289999999981
 50
0.885937
 51
65.316368000000011
  0
ARC
  5
A5
  8
0
 62
     7
 10
31.533501000000001
 20
120.2506969999999
 30
0.0
 40
7.930407999999999
 50
296.427324
 51
359.19664499999999
  0
ARC
  5
A6
  8
0
 62
     7
 10
31.897003000000002
 20
120.2535389999999
 30
0.0
 40
7.9349649999999992
 50
180.82343299999991
 51
243.5581819999999
  0
ARC
  5
A7
  8
0
 62
     7
 10
31.901900999999999
 20
120.018452
 30
0.0
 40
7.9399660000000001
 50
114.6733009999999
 51
179.12639300000001
  0
ARC
  5
A8
  8
0
 62
     7
 10
162.986602
 20
192.42202900000001
 30
0.0
 40
3.2499509999999989
 50
180.00304700000001
 51
270.0030569999999
  0
ARC
  5
A9
  8
0
 62
     7
 10
163.00330600000001
 20
201.3824009999999
 30
0.0
 40
3.2903339999999992
 50
90.287846999999999
 51
134.70892199999989
  0
ARC
  5
AA
  8
0
 62
     7
 10
163.030922
 20
201.404392
 30
0.0
 40
3.294319999999999
 50
135.31935300000001
 51
179.683819
  0
LINE
  5
AB
  8
0
 62
     7
 10
162.98699999999991
 20
189.172
 30
0.0
 11
163.48699999999999
 21
189.172
 31
0.0
  0
LINE
  5
AC
  8
0
 62
     7
 10
162.98699999999991
 20
204.673
 30
0.0
 11
163.48699999999999
 21
204.673
 31
0.0
  0
LINE
  5
AD
  8
0
 62
     7
 10
159.73699999999991
 20
201.42199999999991
 30
0.0
 11
159.73699999999991
 21
192.422
 31
0.0
  0
LINE
  5
AE
  8
0
 62
     7
 10
163.48699999999999
 20
204.673
 30
0.0
 11
163.48699999999999
 21
189.172
 31
0.0
  0
LINE
  5
AF
  8
0
 62
     7
 10
163.7359999999999
 20
193.79699999999991
 30
0.0
 11
170.98699999999999
 21
193.79699999999991
 31
0.0
  0
LINE
  5
B0
  8
0
 62
     7
 10
163.7359999999999
 20
200.04699999999991
 30
0.0
 11
170.98699999999999
 21
200.04699999999991
 31
0.0
  0
LINE
  5
B1
  8
0
 62
     7
 10
170.98699999999999
 20
200.04699999999991
 30
0.0
 11
170.98699999999999
 21
193.79699999999991
 31
0.0
  0
LINE
  5
B2
  8
0
 62
     7
 10
164.77799999999999
 20
112.389
 30
0.0
 11
179.07900000000001
 21
112.389
 31
0.0
  0
LINE
  5
B3
  8
0
 62
     7
 10
164.77799999999999
 20
127.8899999999999
 30
0.0
 11
179.07900000000001
 21
127.8899999999999
 31
0.0
  0
LINE
  5
B4
  8
0
 62
     7
 10
178.07900000000001
 20
112.389
 30
0.0
 11
178.07900000000001
 21
127.8899999999999
 31
0.0
  0
ARC
  5
B5
  8
0
 62
     7
 10
162.986602
 20
115.63932199999989
 30
0.0
 40
3.2499509999999989
 50
180.00304700000001
 51
270.0030569999999
  0
ARC
  5
B6
  8
0
 62
     7
 10
163.00330600000001
 20
124.599695
 30
0.0
 40
3.2903339999999992
 50
90.287846999999999
 51
134.70892199999989
  0
ARC
  5
B7
  8
0
 62
     7
 10
163.027997
 20
124.6228969999999
 30
0.0
 40
3.2913890000000001
 50
135.29854299999991
 51
179.70462800000001
  0
LINE
  5
B8
  8
0
 62
     7
 10
162.98699999999991
 20
112.389
 30
0.0
 11
163.48699999999999
 21
112.389
 31
0.0
  0
LINE
  5
B9
  8
0
 62
     7
 10
162.98699999999991
 20
127.8899999999999
 30
0.0
 11
163.48699999999999
 21
127.8899999999999
 31
0.0
  0
LINE
  5
BA
  8
0
 62
     7
 10
159.73699999999991
 20
124.6389999999999
 30
0.0
 11
159.73699999999991
 21
115.639
 31
0.0
  0
LINE
  5
BB
  8
0
 62
     7
 10
163.48699999999999
 20
127.8899999999999
 30
0.0
 11
163.48699999999999
 21
112.389
 31
0.0
  0
LINE
  5
BC
  8
0
 62
     7
 10
163.7359999999999
 20
117.0139999999999
 30
0.0
 11
170.98699999999999
 21
117.0139999999999
 31
0.0
  0
LINE
  5
BD
  8
0
 62
     7
 10
163.7359999999999
 20
123.265
 30
0.0
 11
170.98699999999999
 21
123.265
 31
0.0
  0
LINE
  5
BE
  8
0
 62
     7
 10
170.98699999999999
 20
123.265
 30
0.0
 11
170.98699999999999
 21
117.0139999999999
 31
0.0
  0
LINE
  5
BF
  8
0
 62
     7
 10
178.65700000000001
 20
125.68000000000001
 30
0.0
 11
178.06399999999999
 21
127.8899999999999
 31
0.0
  0
LINE
  5
C0
  8
0
 62
     7
 10
178.06399999999999
 20
127.8899999999999
 30
0.0
 11
177.47200000000001
 21
125.68000000000001
 31
0.0
  0
LINE
  5
C1
  8
0
 62
     7
 10
177.47200000000001
 20
125.68000000000001
 30
0.0
 11
178.65700000000001
 21
125.68000000000001
 31
0.0
  0
LINE
  5
C2
  8
0
 62
     7
 10
177.48699999999991
 20
114.59999999999989
 30
0.0
 11
178.07900000000001
 21
112.389
 31
0.0
  0
LINE
  5
C3
  8
0
 62
     7
 10
178.07900000000001
 20
112.389
 30
0.0
 11
178.67099999999999
 21
114.59999999999989
 31
0.0
  0
LINE
  5
C4
  8
0
 62
     7
 10
178.67099999999999
 20
114.59999999999989
 30
0.0
 11
177.48699999999991
 21
114.59999999999989
 31
0.0
  0
LINE
  5
C5
  8
0
 62
     7
 10
68.939700000000002
 20
100.14
 30
0.0
 11
102.184
 21
100.14
 31
0.0
  0
LINE
  5
C6
  8
0
 62
     7
 10
101.729
 20
117.9289999999999
 30
0.0
 11
101.137
 21
120.14
 31
0.0
  0
LINE
  5
C7
  8
0
 62
     7
 10
101.137
 20
120.14
 30
0.0
 11
100.5449999999999
 21
117.9289999999999
 31
0.0
  0
LINE
  5
C8
  8
0
 62
     7
 10
100.5449999999999
 20
117.9289999999999
 30
0.0
 11
101.729
 21
117.9289999999999
 31
0.0
  0
LINE
  5
C9
  8
0
 62
     7
 10
100.56
 20
102.34999999999989
 30
0.0
 11
101.1519999999999
 21
100.14
 31
0.0
  0
LINE
  5
CA
  8
0
 62
     7
 10
101.1519999999999
 20
100.14
 30
0.0
 11
101.744
 21
102.34999999999989
 31
0.0
  0
LINE
  5
CB
  8
0
 62
     7
 10
101.744
 20
102.34999999999989
 30
0.0
 11
100.56
 21
102.34999999999989
 31
0.0
  0
LINE
  5
CC
  8
0
 62
     7
 10
101.1449999999999
 20
120.14
 30
0.0
 11
101.1449999999999
 21
100.14
 31
0.0
  0
LINE
  5
CD
  8
0
 62
     7
 10
58.486400000000003
 20
105.22199999999999
 30
0.0
 11
58.486400000000003
 21
87.264499999999984
 31
0.0
  0
LINE
  5
CE
  8
0
 62
     7
 10
71.27600000000001
 20
87.429500000000004
 30
0.0
 11
73.486599999999996
 21
88.021699999999996
 31
0.0
  0
LINE
  5
CF
  8
0
 62
     7
 10
73.486599999999996
 20
88.021699999999996
 30
0.0
 11
71.27600000000001
 21
88.6143
 31
0.0
  0
LINE
  5
D0
  8
0
 62
     7
 10
71.27600000000001
 20
88.6143
 30
0.0
 11
71.27600000000001
 21
87.429500000000004
 31
0.0
  0
LINE
  5
D1
  8
0
 62
     7
 10
168.7759999999999
 20
87.429500000000004
 30
0.0
 11
170.98699999999999
 21
88.021699999999996
 31
0.0
  0
LINE
  5
D2
  8
0
 62
     7
 10
170.98699999999999
 20
88.021699999999996
 30
0.0
 11
168.7759999999999
 21
88.6143
 31
0.0
  0
LINE
  5
D3
  8
0
 62
     7
 10
168.7759999999999
 20
88.6143
 30
0.0
 11
168.7759999999999
 21
87.429500000000004
 31
0.0
  0
LINE
  5
D4
  8
0
 62
     7
 10
75.697000000000003
 20
88.599500000000006
 30
0.0
 11
73.486599999999996
 21
88.007199999999997
 31
0.0
  0
LINE
  5
D5
  8
0
 62
     7
 10
73.486599999999996
 20
88.007199999999997
 30
0.0
 11
75.697000000000003
 21
87.415000000000006
 31
0.0
  0
LINE
  5
D6
  8
0
 62
     7
 10
75.697000000000003
 20
87.415000000000006
 30
0.0
 11
75.697000000000003
 21
88.599500000000006
 31
0.0
  0
LINE
  5
D7
  8
0
 62
     7
 10
60.696800000000003
 20
88.599500000000006
 30
0.0
 11
58.486400000000003
 21
88.007199999999997
 31
0.0
  0
LINE
  5
D8
  8
0
 62
     7
 10
58.486400000000003
 20
88.007199999999997
 30
0.0
 11
60.696800000000003
 21
87.415000000000006
 31
0.0
  0
LINE
  5
D9
  8
0
 62
     7
 10
60.696800000000003
 20
87.415000000000006
 30
0.0
 11
60.696800000000003
 21
88.599500000000006
 31
0.0
  0
LINE
  5
DA
  8
0
 62
     7
 10
170.98699999999999
 20
88.014499999999998
 30
0.0
 11
58.486400000000003
 21
88.014499999999998
 31
0.0
  0
LINE
  5
DB
  8
0
 62
     7
 10
73.486599999999996
 20
104.6729999999999
 30
0.0
 11
73.486599999999996
 21
87.264499999999984
 31
0.0
  0
LINE
  5
DC
  8
0
 62
     7
 10
170.98699999999999
 20
116.04900000000001
 30
0.0
 11
170.98699999999999
 21
87.264499999999984
 31
0.0
  0
LINE
  5
DD
  8
0
 62
     7
 10
145.83199999999999
 20
121.0539999999999
 30
0.0
 11
145.24000000000001
 21
123.265
 31
0.0
  0
LINE
  5
DE
  8
0
 62
     7
 10
145.24000000000001
 20
123.265
 30
0.0
 11
144.64699999999999
 21
121.0539999999999
 31
0.0
  0
LINE
  5
DF
  8
0
 62
     7
 10
144.64699999999999
 20
121.0539999999999
 30
0.0
 11
145.83199999999999
 21
121.0539999999999
 31
0.0
  0
LINE
  5
E0
  8
0
 62
     7
 10
144.66200000000001
 20
119.22499999999999
 30
0.0
 11
145.25399999999991
 21
117.0139999999999
 31
0.0
  0
LINE
  5
E1
  8
0
 62
     7
 10
145.25399999999991
 20
117.0139999999999
 30
0.0
 11
145.84700000000001
 21
119.22499999999999
 31
0.0
  0
LINE
  5
E2
  8
0
 62
     7
 10
145.84700000000001
 20
119.22499999999999
 30
0.0
 11
144.66200000000001
 21
119.22499999999999
 31
0.0
  0
LINE
  5
E3
  8
0
 62
     7
 10
145.24700000000001
 20
130.60199999999989
 30
0.0
 11
145.24700000000001
 21
117.0139999999999
 31
0.0
  0
LINE
  5
E4
  8
0
 62
     7
 10
63.201900000000002
 20
100.14
 30
0.0
 11
47.042700000000004
 21
100.14
 31
0.0
  0
LINE
  5
E5
  8
0
 62
     7
 10
51.040300000000002
 20
150.1399999999999
 30
0.0
 11
47.042700000000004
 21
150.1399999999999
 31
0.0
  0
LINE
  5
E6
  8
0
 62
     7
 10
47.207799999999999
 20
102.34999999999989
 30
0.0
 11
47.799999999999997
 21
100.14
 31
0.0
  0
LINE
  5
E7
  8
0
 62
     7
 10
47.799999999999997
 20
100.14
 30
0.0
 11
48.392400000000002
 21
102.34999999999989
 31
0.0
  0
LINE
  5
E8
  8
0
 62
     7
 10
48.392400000000002
 20
102.34999999999989
 30
0.0
 11
47.207799999999999
 21
102.34999999999989
 31
0.0
  0
LINE
  5
E9
  8
0
 62
     7
 10
48.37769999999999
 20
147.92899999999989
 30
0.0
 11
47.785499999999999
 21
150.1399999999999
 31
0.0
  0
LINE
  5
EA
  8
0
 62
     7
 10
47.785499999999999
 20
150.1399999999999
 30
0.0
 11
47.193100000000001
 21
147.92899999999989
 31
0.0
  0
LINE
  5
EB
  8
0
 62
     7
 10
47.193100000000001
 20
147.92899999999989
 30
0.0
 11
48.37769999999999
 21
147.92899999999989
 31
0.0
  0
LINE
  5
EC
  8
0
 62
     7
 10
47.792700000000004
 20
100.14
 30
0.0
 11
47.792700000000004
 21
150.1399999999999
 31
0.0
  0
LINE
  5
ED
  8
0
 62
     7
 10
35.636800000000001
 20
139.84
 30
0.0
 11
35.603700000000003
 21
140.08199999999991
 31
0.0
  0
LINE
  5
EE
  8
0
 62
     7
 10
35.603700000000003
 20
140.08199999999991
 30
0.0
 11
35.505200000000002
 21
140.31399999999999
 31
0.0
  0
LINE
  5
EF
  8
0
 62
     7
 10
35.505200000000002
 20
140.31399999999999
 30
0.0
 11
35.344700000000003
 21
140.52899999999991
 31
0.0
  0
LINE
  5
F0
  8
0
 62
     7
 10
35.344700000000003
 20
140.52899999999991
 30
0.0
 11
35.128300000000003
 21
140.7179999999999
 31
0.0
  0
LINE
  5
F1
  8
0
 62
     7
 10
35.128300000000003
 20
140.7179999999999
 30
0.0
 11
34.864600000000003
 21
140.87200000000001
 31
0.0
  0
LINE
  5
F2
  8
0
 62
     7
 10
34.864600000000003
 20
140.87200000000001
 30
0.0
 11
34.564500000000002
 21
140.98699999999991
 31
0.0
  0
LINE
  5
F3
  8
0
 62
     7
 10
34.564500000000002
 20
140.98699999999991
 30
0.0
 11
34.239600000000003
 21
141.05799999999991
 31
0.0
  0
LINE
  5
F4
  8
0
 62
     7
 10
34.239600000000003
 20
141.05799999999991
 30
0.0
 11
33.900500000000001
 21
141.08099999999999
 31
0.0
  0
LINE
  5
F5
  8
0
 62
     7
 10
33.900500000000001
 20
141.08099999999999
 30
0.0
 11
33.561300000000003
 21
141.05799999999991
 31
0.0
  0
LINE
  5
F6
  8
0
 62
     7
 10
33.561300000000003
 20
141.05799999999991
 30
0.0
 11
33.236600000000003
 21
140.98699999999991
 31
0.0
  0
LINE
  5
F7
  8
0
 62
     7
 10
33.236600000000003
 20
140.98699999999991
 30
0.0
 11
32.936500000000002
 21
140.87200000000001
 31
0.0
  0
LINE
  5
F8
  8
0
 62
     7
 10
32.936500000000002
 20
140.87200000000001
 30
0.0
 11
32.672800000000002
 21
140.7179999999999
 31
0.0
  0
LINE
  5
F9
  8
0
 62
     7
 10
32.672800000000002
 20
140.7179999999999
 30
0.0
 11
32.456299999999999
 21
140.52899999999991
 31
0.0
  0
LINE
  5
FA
  8
0
 62
     7
 10
32.456299999999999
 20
140.52899999999991
 30
0.0
 11
32.295699999999989
 21
140.31399999999999
 31
0.0
  0
LINE
  5
FB
  8
0
 62
     7
 10
32.295699999999989
 20
140.31399999999999
 30
0.0
 11
32.197400000000002
 21
140.08199999999991
 31
0.0
  0
LINE
  5
FC
  8
0
 62
     7
 10
32.197400000000002
 20
140.08199999999991
 30
0.0
 11
32.164099999999991
 21
139.84
 31
0.0
  0
LINE
  5
FD
  8
0
 62
     7
 10
32.164099999999991
 20
139.84
 30
0.0
 11
32.197400000000002
 21
139.59700000000001
 31
0.0
  0
LINE
  5
FE
  8
0
 62
     7
 10
32.197400000000002
 20
139.59700000000001
 30
0.0
 11
32.295699999999989
 21
139.36500000000001
 31
0.0
  0
LINE
  5
FF
  8
0
 62
     7
 10
32.295699999999989
 20
139.36500000000001
 30
0.0
 11
32.456299999999999
 21
139.15000000000001
 31
0.0
  0
LINE
  5
100
  8
0
 62
     7
 10
32.456299999999999
 20
139.15000000000001
 30
0.0
 11
32.672800000000002
 21
138.96199999999999
 31
0.0
  0
LINE
  5
101
  8
0
 62
     7
 10
32.672800000000002
 20
138.96199999999999
 30
0.0
 11
32.936500000000002
 21
138.80699999999999
 31
0.0
  0
LINE
  5
102
  8
0
 62
     7
 10
32.936500000000002
 20
138.80699999999999
 30
0.0
 11
33.236600000000003
 21
138.69200000000001
 31
0.0
  0
LINE
  5
103
  8
0
 62
     7
 10
33.236600000000003
 20
138.69200000000001
 30
0.0
 11
33.561300000000003
 21
138.62200000000001
 31
0.0
  0
LINE
  5
104
  8
0
 62
     7
 10
33.561300000000003
 20
138.62200000000001
 30
0.0
 11
33.900500000000001
 21
138.5979999999999
 31
0.0
  0
LINE
  5
105
  8
0
 62
     7
 10
33.900500000000001
 20
138.5979999999999
 30
0.0
 11
34.239600000000003
 21
138.62200000000001
 31
0.0
  0
LINE
  5
106
  8
0
 62
     7
 10
34.239600000000003
 20
138.62200000000001
 30
0.0
 11
34.564500000000002
 21
138.69200000000001
 31
0.0
  0
LINE
  5
107
  8
0
 62
     7
 10
34.564500000000002
 20
138.69200000000001
 30
0.0
 11
34.864600000000003
 21
138.80699999999999
 31
0.0
  0
LINE
  5
108
  8
0
 62
     7
 10
34.864600000000003
 20
138.80699999999999
 30
0.0
 11
35.128300000000003
 21
138.96199999999999
 31
0.0
  0
LINE
  5
109
  8
0
 62
     7
 10
35.128300000000003
 20
138.96199999999999
 30
0.0
 11
35.344700000000003
 21
139.15000000000001
 31
0.0
  0
LINE
  5
10A
  8
0
 62
     7
 10
35.344700000000003
 20
139.15000000000001
 30
0.0
 11
35.505200000000002
 21
139.36500000000001
 31
0.0
  0
LINE
  5
10B
  8
0
 62
     7
 10
35.505200000000002
 20
139.36500000000001
 30
0.0
 11
35.603700000000003
 21
139.59700000000001
 31
0.0
  0
LINE
  5
10C
  8
0
 62
     7
 10
35.603700000000003
 20
139.59700000000001
 30
0.0
 11
35.636800000000001
 21
139.84
 31
0.0
  0
LINE
  5
10D
  8
0
 62
     7
 10
31.261900000000001
 20
139.84
 30
0.0
 11
31.2288
 21
140.08199999999991
 31
0.0
  0
LINE
  5
10E
  8
0
 62
     7
 10
31.2288
 20
140.08199999999991
 30
0.0
 11
31.130299999999998
 21
140.31399999999999
 31
0.0
  0
LINE
  5
10F
  8
0
 62
     7
 10
31.130299999999998
 20
140.31399999999999
 30
0.0
 11
30.9697
 21
140.52899999999991
 31
0.0
  0
LINE
  5
110
  8
0
 62
     7
 10
30.9697
 20
140.52899999999991
 30
0.0
 11
30.753399999999999
 21
140.7179999999999
 31
0.0
  0
LINE
  5
111
  8
0
 62
     7
 10
30.753399999999999
 20
140.7179999999999
 30
0.0
 11
30.4895
 21
140.87200000000001
 31
0.0
  0
LINE
  5
112
  8
0
 62
     7
 10
30.4895
 20
140.87200000000001
 30
0.0
 11
30.189399999999999
 21
140.98699999999991
 31
0.0
  0
LINE
  5
113
  8
0
 62
     7
 10
30.189399999999999
 20
140.98699999999991
 30
0.0
 11
29.864699999999999
 21
141.05799999999991
 31
0.0
  0
LINE
  5
114
  8
0
 62
     7
 10
29.864699999999999
 20
141.05799999999991
 30
0.0
 11
29.525500000000001
 21
141.08099999999999
 31
0.0
  0
LINE
  5
115
  8
0
 62
     7
 10
29.525500000000001
 20
141.08099999999999
 30
0.0
 11
29.186299999999999
 21
141.05799999999991
 31
0.0
  0
LINE
  5
116
  8
0
 62
     7
 10
29.186299999999999
 20
141.05799999999991
 30
0.0
 11
28.861499999999999
 21
140.98699999999991
 31
0.0
  0
LINE
  5
117
  8
0
 62
     7
 10
28.861499999999999
 20
140.98699999999991
 30
0.0
 11
28.561399999999988
 21
140.87200000000001
 31
0.0
  0
LINE
  5
118
  8
0
 62
     7
 10
28.561399999999988
 20
140.87200000000001
 30
0.0
 11
28.297699999999988
 21
140.7179999999999
 31
0.0
  0
LINE
  5
119
  8
0
 62
     7
 10
28.297699999999988
 20
140.7179999999999
 30
0.0
 11
28.081299999999999
 21
140.52899999999991
 31
0.0
  0
LINE
  5
11A
  8
0
 62
     7
 10
28.081299999999999
 20
140.52899999999991
 30
0.0
 11
27.9208
 21
140.31399999999999
 31
0.0
  0
LINE
  5
11B
  8
0
 62
     7
 10
27.9208
 20
140.31399999999999
 30
0.0
 11
27.822299999999998
 21
140.08199999999991
 31
0.0
  0
LINE
  5
11C
  8
0
 62
     7
 10
27.822299999999998
 20
140.08199999999991
 30
0.0
 11
27.789200000000001
 21
139.84
 31
0.0
  0
LINE
  5
11D
  8
0
 62
     7
 10
27.789200000000001
 20
139.84
 30
0.0
 11
27.822299999999998
 21
139.59700000000001
 31
0.0
  0
LINE
  5
11E
  8
0
 62
     7
 10
27.822299999999998
 20
139.59700000000001
 30
0.0
 11
27.9208
 21
139.36500000000001
 31
0.0
  0
LINE
  5
11F
  8
0
 62
     7
 10
27.9208
 20
139.36500000000001
 30
0.0
 11
28.081299999999999
 21
139.15000000000001
 31
0.0
  0
LINE
  5
120
  8
0
 62
     7
 10
28.081299999999999
 20
139.15000000000001
 30
0.0
 11
28.297699999999988
 21
138.96199999999999
 31
0.0
  0
LINE
  5
121
  8
0
 62
     7
 10
28.297699999999988
 20
138.96199999999999
 30
0.0
 11
28.561399999999988
 21
138.80699999999999
 31
0.0
  0
LINE
  5
122
  8
0
 62
     7
 10
28.561399999999988
 20
138.80699999999999
 30
0.0
 11
28.861499999999999
 21
138.69200000000001
 31
0.0
  0
LINE
  5
123
  8
0
 62
     7
 10
28.861499999999999
 20
138.69200000000001
 30
0.0
 11
29.186299999999999
 21
138.62200000000001
 31
0.0
  0
LINE
  5
124
  8
0
 62
     7
 10
29.186299999999999
 20
138.62200000000001
 30
0.0
 11
29.525500000000001
 21
138.5979999999999
 31
0.0
  0
LINE
  5
125
  8
0
 62
     7
 10
29.525500000000001
 20
138.5979999999999
 30
0.0
 11
29.864699999999999
 21
138.62200000000001
 31
0.0
  0
LINE
  5
126
  8
0
 62
     7
 10
29.864699999999999
 20
138.62200000000001
 30
0.0
 11
30.189399999999999
 21
138.69200000000001
 31
0.0
  0
LINE
  5
127
  8
0
 62
     7
 10
30.189399999999999
 20
138.69200000000001
 30
0.0
 11
30.4895
 21
138.80699999999999
 31
0.0
  0
LINE
  5
128
  8
0
 62
     7
 10
30.4895
 20
138.80699999999999
 30
0.0
 11
30.753399999999999
 21
138.96199999999999
 31
0.0
  0
LINE
  5
129
  8
0
 62
     7
 10
30.753399999999999
 20
138.96199999999999
 30
0.0
 11
30.9697
 21
139.15000000000001
 31
0.0
  0
LINE
  5
12A
  8
0
 62
     7
 10
30.9697
 20
139.15000000000001
 30
0.0
 11
31.130299999999998
 21
139.36500000000001
 31
0.0
  0
LINE
  5
12B
  8
0
 62
     7
 10
31.130299999999998
 20
139.36500000000001
 30
0.0
 11
31.2288
 21
139.59700000000001
 31
0.0
  0
LINE
  5
12C
  8
0
 62
     7
 10
31.2288
 20
139.59700000000001
 30
0.0
 11
31.261900000000001
 21
139.84
 31
0.0
  0
LINE
  5
12D
  8
0
 62
     7
 10
54.697600000000001
 20
141.08099999999999
 30
0.0
 11
54.501800000000003
 21
141.05799999999991
 31
0.0
  0
LINE
  5
12E
  8
0
 62
     7
 10
54.501800000000003
 20
141.05799999999991
 30
0.0
 11
54.314300000000003
 21
140.98699999999991
 31
0.0
  0
LINE
  5
12F
  8
0
 62
     7
 10
54.314300000000003
 20
140.98699999999991
 30
0.0
 11
54.141100000000002
 21
140.87299999999999
 31
0.0
  0
LINE
  5
130
  8
0
 62
     7
 10
54.141100000000002
 20
140.87299999999999
 30
0.0
 11
53.988799999999998
 21
140.7179999999999
 31
0.0
  0
LINE
  5
131
  8
0
 62
     7
 10
53.988799999999998
 20
140.7179999999999
 30
0.0
 11
53.863700000000001
 21
140.52899999999991
 31
0.0
  0
LINE
  5
132
  8
0
 62
     7
 10
53.863700000000001
 20
140.52899999999991
 30
0.0
 11
53.771000000000001
 21
140.31399999999999
 31
0.0
  0
LINE
  5
133
  8
0
 62
     7
 10
53.771000000000001
 20
140.31399999999999
 30
0.0
 11
53.714199999999998
 21
140.08199999999991
 31
0.0
  0
LINE
  5
134
  8
0
 62
     7
 10
53.714199999999998
 20
140.08199999999991
 30
0.0
 11
53.69530000000001
 21
139.84
 31
0.0
  0
LINE
  5
135
  8
0
 62
     7
 10
53.69530000000001
 20
139.84
 30
0.0
 11
53.714199999999998
 21
139.59700000000001
 31
0.0
  0
LINE
  5
136
  8
0
 62
     7
 10
53.714199999999998
 20
139.59700000000001
 30
0.0
 11
53.771000000000001
 21
139.36500000000001
 31
0.0
  0
LINE
  5
137
  8
0
 62
     7
 10
53.771000000000001
 20
139.36500000000001
 30
0.0
 11
53.863700000000001
 21
139.15000000000001
 31
0.0
  0
LINE
  5
138
  8
0
 62
     7
 10
53.863700000000001
 20
139.15000000000001
 30
0.0
 11
53.988799999999998
 21
138.96199999999999
 31
0.0
  0
LINE
  5
139
  8
0
 62
     7
 10
53.988799999999998
 20
138.96199999999999
 30
0.0
 11
54.141100000000002
 21
138.80699999999999
 31
0.0
  0
LINE
  5
13A
  8
0
 62
     7
 10
54.141100000000002
 20
138.80699999999999
 30
0.0
 11
54.314300000000003
 21
138.69200000000001
 31
0.0
  0
LINE
  5
13B
  8
0
 62
     7
 10
54.314300000000003
 20
138.69200000000001
 30
0.0
 11
54.501800000000003
 21
138.62200000000001
 31
0.0
  0
LINE
  5
13C
  8
0
 62
     7
 10
54.501800000000003
 20
138.62200000000001
 30
0.0
 11
54.697600000000001
 21
138.5979999999999
 31
0.0
  0
LINE
  5
13D
  8
0
 62
     7
 10
54.697600000000001
 20
138.5979999999999
 30
0.0
 11
54.893500000000003
 21
138.62200000000001
 31
0.0
  0
LINE
  5
13E
  8
0
 62
     7
 10
54.893500000000003
 20
138.62200000000001
 30
0.0
 11
55.0809
 21
138.69200000000001
 31
0.0
  0
LINE
  5
13F
  8
0
 62
     7
 10
55.0809
 20
138.69200000000001
 30
0.0
 11
55.254199999999997
 21
138.80699999999999
 31
0.0
  0
LINE
  5
140
  8
0
 62
     7
 10
55.254199999999997
 20
138.80699999999999
 30
0.0
 11
55.406399999999991
 21
138.96199999999999
 31
0.0
  0
LINE
  5
141
  8
0
 62
     7
 10
55.406399999999991
 20
138.96199999999999
 30
0.0
 11
55.531500000000001
 21
139.15000000000001
 31
0.0
  0
LINE
  5
142
  8
0
 62
     7
 10
55.531500000000001
 20
139.15000000000001
 30
0.0
 11
55.624200000000002
 21
139.36500000000001
 31
0.0
  0
LINE
  5
143
  8
0
 62
     7
 10
55.624200000000002
 20
139.36500000000001
 30
0.0
 11
55.681000000000012
 21
139.59700000000001
 31
0.0
  0
LINE
  5
144
  8
0
 62
     7
 10
55.681000000000012
 20
139.59700000000001
 30
0.0
 11
55.700000000000003
 21
139.84
 31
0.0
  0
LINE
  5
145
  8
0
 62
     7
 10
55.700000000000003
 20
139.84
 30
0.0
 11
55.681000000000012
 21
140.08199999999991
 31
0.0
  0
LINE
  5
146
  8
0
 62
     7
 10
55.681000000000012
 20
140.08199999999991
 30
0.0
 11
55.624200000000002
 21
140.31399999999999
 31
0.0
  0
LINE
  5
147
  8
0
 62
     7
 10
55.624200000000002
 20
140.31399999999999
 30
0.0
 11
55.531500000000001
 21
140.52899999999991
 31
0.0
  0
LINE
  5
148
  8
0
 62
     7
 10
55.531500000000001
 20
140.52899999999991
 30
0.0
 11
55.406399999999991
 21
140.7179999999999
 31
0.0
  0
LINE
  5
149
  8
0
 62
     7
 10
55.406399999999991
 20
140.7179999999999
 30
0.0
 11
55.254199999999997
 21
140.87299999999999
 31
0.0
  0
LINE
  5
14A
  8
0
 62
     7
 10
55.254199999999997
 20
140.87299999999999
 30
0.0
 11
55.0809
 21
140.98699999999991
 31
0.0
  0
LINE
  5
14B
  8
0
 62
     7
 10
55.0809
 20
140.98699999999991
 30
0.0
 11
54.893500000000003
 21
141.05799999999991
 31
0.0
  0
LINE
  5
14C
  8
0
 62
     7
 10
54.893500000000003
 20
141.05799999999991
 30
0.0
 11
54.697600000000001
 21
141.08099999999999
 31
0.0
  0
LINE
  5
14D
  8
0
 62
     7
 10
62.275300000000001
 20
141.08099999999999
 30
0.0
 11
62.079599999999992
 21
141.05799999999991
 31
0.0
  0
LINE
  5
14E
  8
0
 62
     7
 10
62.079599999999992
 20
141.05799999999991
 30
0.0
 11
61.891999999999989
 21
140.98699999999991
 31
0.0
  0
LINE
  5
14F
  8
0
 62
     7
 10
61.891999999999989
 20
140.98699999999991
 30
0.0
 11
61.718800000000002
 21
140.87299999999999
 31
0.0
  0
LINE
  5
150
  8
0
 62
     7
 10
61.718800000000002
 20
140.87299999999999
 30
0.0
 11
61.566699999999997
 21
140.7179999999999
 31
0.0
  0
LINE
  5
151
  8
0
 62
     7
 10
61.566699999999997
 20
140.7179999999999
 30
0.0
 11
61.441600000000001
 21
140.52899999999991
 31
0.0
  0
LINE
  5
152
  8
0
 62
     7
 10
61.441600000000001
 20
140.52899999999991
 30
0.0
 11
61.3489
 21
140.31399999999999
 31
0.0
  0
LINE
  5
153
  8
0
 62
     7
 10
61.3489
 20
140.31399999999999
 30
0.0
 11
61.292099999999998
 21
140.08199999999991
 31
0.0
  0
LINE
  5
154
  8
0
 62
     7
 10
61.292099999999998
 20
140.08199999999991
 30
0.0
 11
61.273000000000003
 21
139.84
 31
0.0
  0
LINE
  5
155
  8
0
 62
     7
 10
61.273000000000003
 20
139.84
 30
0.0
 11
61.292099999999998
 21
139.59700000000001
 31
0.0
  0
LINE
  5
156
  8
0
 62
     7
 10
61.292099999999998
 20
139.59700000000001
 30
0.0
 11
61.3489
 21
139.36500000000001
 31
0.0
  0
LINE
  5
157
  8
0
 62
     7
 10
61.3489
 20
139.36500000000001
 30
0.0
 11
61.441600000000001
 21
139.15000000000001
 31
0.0
  0
LINE
  5
158
  8
0
 62
     7
 10
61.441600000000001
 20
139.15000000000001
 30
0.0
 11
61.566699999999997
 21
138.96199999999999
 31
0.0
  0
LINE
  5
159
  8
0
 62
     7
 10
61.566699999999997
 20
138.96199999999999
 30
0.0
 11
61.718800000000002
 21
138.80699999999999
 31
0.0
  0
LINE
  5
15A
  8
0
 62
     7
 10
61.718800000000002
 20
138.80699999999999
 30
0.0
 11
61.891999999999989
 21
138.69200000000001
 31
0.0
  0
LINE
  5
15B
  8
0
 62
     7
 10
61.891999999999989
 20
138.69200000000001
 30
0.0
 11
62.079599999999992
 21
138.62200000000001
 31
0.0
  0
LINE
  5
15C
  8
0
 62
     7
 10
62.079599999999992
 20
138.62200000000001
 30
0.0
 11
62.275300000000001
 21
138.5979999999999
 31
0.0
  0
LINE
  5
15D
  8
0
 62
     7
 10
62.275300000000001
 20
138.5979999999999
 30
0.0
 11
62.471200000000003
 21
138.62200000000001
 31
0.0
  0
LINE
  5
15E
  8
0
 62
     7
 10
62.471200000000003
 20
138.62200000000001
 30
0.0
 11
62.658799999999999
 21
138.69200000000001
 31
0.0
  0
LINE
  5
15F
  8
0
 62
     7
 10
62.658799999999999
 20
138.69200000000001
 30
0.0
 11
62.832000000000001
 21
138.80699999999999
 31
0.0
  0
LINE
  5
160
  8
0
 62
     7
 10
62.832000000000001
 20
138.80699999999999
 30
0.0
 11
62.98429999999999
 21
138.96199999999999
 31
0.0
  0
LINE
  5
161
  8
0
 62
     7
 10
62.98429999999999
 20
138.96199999999999
 30
0.0
 11
63.109200000000001
 21
139.15000000000001
 31
0.0
  0
LINE
  5
162
  8
0
 62
     7
 10
63.109200000000001
 20
139.15000000000001
 30
0.0
 11
63.201900000000002
 21
139.36500000000001
 31
0.0
  0
LINE
  5
163
  8
0
 62
     7
 10
63.201900000000002
 20
139.36500000000001
 30
0.0
 11
63.258699999999997
 21
139.59700000000001
 31
0.0
  0
LINE
  5
164
  8
0
 62
     7
 10
63.258699999999997
 20
139.59700000000001
 30
0.0
 11
63.277799999999999
 21
139.84
 31
0.0
  0
LINE
  5
165
  8
0
 62
     7
 10
63.277799999999999
 20
139.84
 30
0.0
 11
63.258699999999997
 21
140.08199999999991
 31
0.0
  0
LINE
  5
166
  8
0
 62
     7
 10
63.258699999999997
 20
140.08199999999991
 30
0.0
 11
63.201900000000002
 21
140.31399999999999
 31
0.0
  0
LINE
  5
167
  8
0
 62
     7
 10
63.201900000000002
 20
140.31399999999999
 30
0.0
 11
63.109200000000001
 21
140.52899999999991
 31
0.0
  0
LINE
  5
168
  8
0
 62
     7
 10
63.109200000000001
 20
140.52899999999991
 30
0.0
 11
62.98429999999999
 21
140.7179999999999
 31
0.0
  0
LINE
  5
169
  8
0
 62
     7
 10
62.98429999999999
 20
140.7179999999999
 30
0.0
 11
62.832000000000001
 21
140.87299999999999
 31
0.0
  0
LINE
  5
16A
  8
0
 62
     7
 10
62.832000000000001
 20
140.87299999999999
 30
0.0
 11
62.658799999999999
 21
140.98699999999991
 31
0.0
  0
LINE
  5
16B
  8
0
 62
     7
 10
62.658799999999999
 20
140.98699999999991
 30
0.0
 11
62.471200000000003
 21
141.05799999999991
 31
0.0
  0
LINE
  5
16C
  8
0
 62
     7
 10
62.471200000000003
 20
141.05799999999991
 30
0.0
 11
62.275300000000001
 21
141.08099999999999
 31
0.0
  0
LINE
  5
16D
  8
0
 62
     7
 10
60.491399999999999
 20
139.84
 30
0.0
 11
60.453200000000002
 21
140.08199999999991
 31
0.0
  0
LINE
  5
16E
  8
0
 62
     7
 10
60.453200000000002
 20
140.08199999999991
 30
0.0
 11
60.339500000000001
 21
140.31399999999999
 31
0.0
  0
LINE
  5
16F
  8
0
 62
     7
 10
60.339500000000001
 20
140.31399999999999
 30
0.0
 11
60.154200000000003
 21
140.52899999999991
 31
0.0
  0
LINE
  5
170
  8
0
 62
     7
 10
60.154200000000003
 20
140.52899999999991
 30
0.0
 11
59.904000000000003
 21
140.7179999999999
 31
0.0
  0
LINE
  5
171
  8
0
 62
     7
 10
59.904000000000003
 20
140.7179999999999
 30
0.0
 11
59.599699999999999
 21
140.87299999999999
 31
0.0
  0
LINE
  5
172
  8
0
 62
     7
 10
59.599699999999999
 20
140.87299999999999
 30
0.0
 11
59.253300000000003
 21
140.98699999999991
 31
0.0
  0
LINE
  5
173
  8
0
 62
     7
 10
59.253300000000003
 20
140.98699999999991
 30
0.0
 11
58.878100000000003
 21
141.05799999999991
 31
0.0
  0
LINE
  5
174
  8
0
 62
     7
 10
58.878100000000003
 20
141.05799999999991
 30
0.0
 11
58.486400000000003
 21
141.08099999999999
 31
0.0
  0
LINE
  5
175
  8
0
 62
     7
 10
58.486400000000003
 20
141.08099999999999
 30
0.0
 11
58.094799999999999
 21
141.05799999999991
 31
0.0
  0
LINE
  5
176
  8
0
 62
     7
 10
58.094799999999999
 20
141.05799999999991
 30
0.0
 11
57.719799999999999
 21
140.98699999999991
 31
0.0
  0
LINE
  5
177
  8
0
 62
     7
 10
57.719799999999999
 20
140.98699999999991
 30
0.0
 11
57.3733
 21
140.87299999999999
 31
0.0
  0
LINE
  5
178
  8
0
 62
     7
 10
57.3733
 20
140.87299999999999
 30
0.0
 11
57.0687
 21
140.7179999999999
 31
0.0
  0
LINE
  5
179
  8
0
 62
     7
 10
57.0687
 20
140.7179999999999
 30
0.0
 11
56.818800000000003
 21
140.52899999999991
 31
0.0
  0
LINE
  5
17A
  8
0
 62
     7
 10
56.818800000000003
 20
140.52899999999991
 30
0.0
 11
56.633400000000002
 21
140.31399999999999
 31
0.0
  0
LINE
  5
17B
  8
0
 62
     7
 10
56.633400000000002
 20
140.31399999999999
 30
0.0
 11
56.5199
 21
140.08199999999991
 31
0.0
  0
LINE
  5
17C
  8
0
 62
     7
 10
56.5199
 20
140.08199999999991
 30
0.0
 11
56.481699999999996
 21
139.84
 31
0.0
  0
LINE
  5
17D
  8
0
 62
     7
 10
56.481699999999996
 20
139.84
 30
0.0
 11
56.5199
 21
139.59700000000001
 31
0.0
  0
LINE
  5
17E
  8
0
 62
     7
 10
56.5199
 20
139.59700000000001
 30
0.0
 11
56.633400000000002
 21
139.36500000000001
 31
0.0
  0
LINE
  5
17F
  8
0
 62
     7
 10
56.633400000000002
 20
139.36500000000001
 30
0.0
 11
56.818800000000003
 21
139.15000000000001
 31
0.0
  0
LINE
  5
180
  8
0
 62
     7
 10
56.818800000000003
 20
139.15000000000001
 30
0.0
 11
57.0687
 21
138.96199999999999
 31
0.0
  0
LINE
  5
181
  8
0
 62
     7
 10
57.0687
 20
138.96199999999999
 30
0.0
 11
57.3733
 21
138.80699999999999
 31
0.0
  0
LINE
  5
182
  8
0
 62
     7
 10
57.3733
 20
138.80699999999999
 30
0.0
 11
57.719799999999999
 21
138.69200000000001
 31
0.0
  0
LINE
  5
183
  8
0
 62
     7
 10
57.719799999999999
 20
138.69200000000001
 30
0.0
 11
58.094799999999999
 21
138.62200000000001
 31
0.0
  0
LINE
  5
184
  8
0
 62
     7
 10
58.094799999999999
 20
138.62200000000001
 30
0.0
 11
58.486400000000003
 21
138.5979999999999
 31
0.0
  0
LINE
  5
185
  8
0
 62
     7
 10
58.486400000000003
 20
138.5979999999999
 30
0.0
 11
58.878100000000003
 21
138.62200000000001
 31
0.0
  0
LINE
  5
186
  8
0
 62
     7
 10
58.878100000000003
 20
138.62200000000001
 30
0.0
 11
59.253300000000003
 21
138.69200000000001
 31
0.0
  0
LINE
  5
187
  8
0
 62
     7
 10
59.253300000000003
 20
138.69200000000001
 30
0.0
 11
59.599699999999999
 21
138.80699999999999
 31
0.0
  0
LINE
  5
188
  8
0
 62
     7
 10
59.599699999999999
 20
138.80699999999999
 30
0.0
 11
59.904000000000003
 21
138.96199999999999
 31
0.0
  0
LINE
  5
189
  8
0
 62
     7
 10
59.904000000000003
 20
138.96199999999999
 30
0.0
 11
60.154200000000003
 21
139.15000000000001
 31
0.0
  0
LINE
  5
18A
  8
0
 62
     7
 10
60.154200000000003
 20
139.15000000000001
 30
0.0
 11
60.339500000000001
 21
139.36500000000001
 31
0.0
  0
LINE
  5
18B
  8
0
 62
     7
 10
60.339500000000001
 20
139.36500000000001
 30
0.0
 11
60.453200000000002
 21
139.59700000000001
 31
0.0
  0
LINE
  5
18C
  8
0
 62
     7
 10
60.453200000000002
 20
139.59700000000001
 30
0.0
 11
60.491399999999999
 21
139.84
 31
0.0
  0
LINE
  5
18D
  8
0
 62
     7
 10
29.259699999999992
 20
109.1399999999999
 30
0.0
 11
34.188800000000001
 21
109.1399999999999
 31
0.0
  0
LINE
  5
18E
  8
0
 62
     7
 10
56.03329999999999
 20
108.5949999999999
 30
0.0
 11
60.962200000000003
 21
108.5949999999999
 31
0.0
  0
ARC
  5
18F
  8
0
 62
     7
 10
62.756368999999992
 20
146.5632709999999
 30
0.0
 40
0.505086
 50
163.584093
 51
185.50601399999999
  0
ARC
  5
190
  8
0
 62
     7
 10
63.487846999999988
 20
149.0007389999999
 30
0.0
 40
0.514357
 50
91.172849999999997
 51
162.32946299999989
  0
LINE
  5
191
  8
0
 62
     7
 10
62.997799999999998
 20
149.15700000000001
 30
0.0
 11
62.271900000000002
 21
146.70599999999999
 31
0.0
  0
LINE
  5
192
  8
0
 62
     7
 10
64.767300000000006
 20
149.5149999999999
 30
0.0
 11
65.2316
 21
149.84
 31
0.0
  0
ARC
  5
193
  8
0
 62
     7
 10
54.226261000000001
 20
146.56464199999991
 30
0.0
 40
0.4953930000000001
 50
354.22662200000002
 51
16.580959
  0
ARC
  5
194
  8
0
 62
     7
 10
53.485326000000001
 20
149.00130799999991
 30
0.0
 40
0.513787
 50
17.624178000000001
 51
88.833984999999998
  0
LINE
  5
195
  8
0
 62
     7
 10
54.7012
 20
146.70599999999999
 30
0.0
 11
53.975200000000001
 21
149.15700000000001
 31
0.0
  0
LINE
  5
196
  8
0
 62
     7
 10
51.741500000000002
 20
149.84
 30
0.0
 11
52.20559999999999
 21
149.5149999999999
 31
0.0
  0
LINE
  5
197
  8
0
 62
     7
 10
51.741500000000002
 20
149.84
 30
0.0
 11
65.236400000000003
 21
149.84
 31
0.0
  0
ARC
  5
198
  8
0
 62
     7
 10
64.983692000000005
 20
149.888598
 30
0.0
 40
0.252879
 50
0.276214
 51
44.725390999999988
  0
ARC
  5
199
  8
0
 62
     7
 10
64.985343999999998
 20
149.88732799999991
 30
0.0
 40
0.252608
 50
45.193753999999998
 51
89.709323999999995
  0
ARC
  5
19A
  8
0
 62
     7
 10
51.987724999999998
 20
149.88740300000001
 30
0.0
 40
0.252533
 50
90.283630000000002
 51
134.81325200000001
  0
ARC
  5
19B
  8
0
 62
     7
 10
51.989620000000002
 20
149.88826399999991
 30
0.0
 40
0.253266
 50
135.25458499999999
 51
179.64847399999991
  0
LINE
  5
19C
  8
0
 62
     7
 10
52.20559999999999
 20
149.5149999999999
 30
0.0
 11
64.767300000000006
 21
149.5149999999999
 31
0.0
  0
LINE
  5
19D
  8
0
 62
     7
 10
65.236400000000003
 20
149.84
 30
0.0
 11
65.236400000000003
 21
149.8899999999999
 31
0.0
  0
LINE
  5
19E
  8
0
 62
     7
 10
51.736400000000003
 20
149.8899999999999
 30
0.0
 11
51.736400000000003
 21
149.84
 31
0.0
  0
LINE
  5
19F
  8
0
 62
     7
 10
51.986499999999999
 20
150.1399999999999
 30
0.0
 11
64.986599999999996
 21
150.1399999999999
 31
0.0
  0
ARC
  5
1A0
  8
0
 62
     7
 10
61.216253000000002
 20
196.045952
 30
0.0
 40
0.5079860000000001
 50
342.739487
 51
35.654641999999988
  0
ARC
  5
1A1
  8
0
 62
     7
 10
61.220793999999998
 20
196.03897299999991
 30
0.0
 40
0.5084310000000001
 50
36.592047999999991
 51
89.498313999999993
  0
ARC
  5
1A2
  8
0
 62
     7
 10
59.36990999999999
 20
194.18785700000001
 30
0.0
 40
0.5083760000000001
 50
180.469594
 51
233.36235300000001
  0
ARC
  5
1A3
  8
0
 62
     7
 10
59.362881000000009
 20
194.19230400000001
 30
0.0
 40
0.507818
 50
234.29823399999989
 51
287.27857199999988
  0
ARC
  5
1A4
  8
0
 62
     7
 10
59.380876999999998
 20
196.02806499999991
 30
0.0
 40
0.5196830000000001
 50
92.143753999999987
 51
177.875957
  0
LINE
  5
1A5
  8
0
 62
     7
 10
61.225200000000001
 20
196.547
 30
0.0
 11
59.361400000000003
 21
196.547
 31
0.0
  0
LINE
  5
1A6
  8
0
 62
     7
 10
58.861600000000003
 20
196.04699999999991
 30
0.0
 11
58.861600000000003
 21
194.184
 31
0.0
  0
ARC
  5
1A7
  8
0
 62
     7
 10
58.439886999999999
 20
196.96879199999989
 30
0.0
 40
3.4336220000000002
 50
288.22433100000001
 51
341.780191
  0
ARC
  5
1A8
  8
0
 62
     7
 10
57.610046999999987
 20
194.19265899999999
 30
0.0
 40
0.508107
 50
252.75187699999989
 51
305.67833399999989
  0
ARC
  5
1A9
  8
0
 62
     7
 10
57.603634
 20
194.18775999999991
 30
0.0
 40
0.5079310000000001
 50
306.58833299999998
 51
359.54089699999997
  0
ARC
  5
1AA
  8
0
 62
     7
 10
55.751857999999991
 20
196.03959900000001
 30
0.0
 40
0.5078020000000001
 50
90.451820999999995
 51
143.41892899999991
  0
ARC
  5
1AB
  8
0
 62
     7
 10
55.758432999999989
 20
196.04562200000001
 30
0.0
 40
0.5095670000000001
 50
144.40334799999991
 51
197.16646
  0
ARC
  5
1AC
  8
0
 62
     7
 10
57.605083999999991
 20
196.0447659999999
 30
0.0
 40
0.5064720000000001
 50
0.2895889999999999
 51
44.692279999999997
  0
ARC
  5
1AD
  8
0
 62
     7
 10
57.608556000000007
 20
196.0400139999999
 30
0.0
 40
0.5073790000000001
 50
45.349525
 51
89.668586000000005
  0
LINE
  5
1AE
  8
0
 62
     7
 10
58.111499999999999
 20
194.184
 30
0.0
 11
58.111499999999999
 21
196.04699999999991
 31
0.0
  0
LINE
  5
1AF
  8
0
 62
     7
 10
57.611499999999999
 20
196.547
 30
0.0
 11
55.747900000000001
 21
196.547
 31
0.0
  0
ARC
  5
1B0
  8
0
 62
     7
 10
58.531294000000003
 20
196.96713
 30
0.0
 40
3.4314439999999999
 50
198.202585
 51
251.7974439999999
  0
ARC
  5
1B1
  8
0
 62
     7
 10
55.757278999999997
 20
197.7988489999999
 30
0.0
 40
0.508554
 50
162.76273599999999
 51
215.66047699999999
  0
ARC
  5
1B2
  8
0
 62
     7
 10
55.751789000000002
 20
197.8052909999999
 30
0.0
 40
0.5079190000000001
 50
216.61200600000001
 51
269.556107
  0
ARC
  5
1B3
  8
0
 62
     7
 10
57.603436999999992
 20
199.6567399999999
 30
0.0
 40
0.5081290000000001
 50
0.470196
 51
53.400573000000001
  0
ARC
  5
1B4
  8
0
 62
     7
 10
57.609981999999988
 20
199.6515389999999
 30
0.0
 40
0.5084710000000001
 50
54.342102000000011
 51
107.227687
  0
ARC
  5
1B5
  8
0
 62
     7
 10
57.592807999999991
 20
197.816135
 30
0.0
 40
0.519084
 50
272.06260800000001
 51
357.91766200000001
  0
LINE
  5
1B6
  8
0
 62
     7
 10
55.747900000000001
 20
197.297
 30
0.0
 11
57.611499999999999
 21
197.297
 31
0.0
  0
LINE
  5
1B7
  8
0
 62
     7
 10
58.111499999999999
 20
197.797
 30
0.0
 11
58.111499999999999
 21
199.66099999999989
 31
0.0
  0
ARC
  5
1B8
  8
0
 62
     7
 10
58.533023999999997
 20
196.87565499999991
 30
0.0
 40
3.4337080000000002
 50
108.2205179999999
 51
161.7749409999999
  0
ARC
  5
1B9
  8
0
 62
     7
 10
59.363073999999997
 20
199.65110300000001
 30
0.0
 40
0.5089000000000001
 50
72.782145999999997
 51
125.6410479999999
  0
ARC
  5
1BA
  8
0
 62
     7
 10
59.370493000000003
 20
199.65644800000001
 30
0.0
 40
0.508962
 50
126.67041
 51
179.49764300000001
  0
ARC
  5
1BB
  8
0
 62
     7
 10
61.220970000000001
 20
197.805961
 30
0.0
 40
0.5085920000000002
 50
270.48168099999998
 51
323.35024599999991
  0
ARC
  5
1BC
  8
0
 62
     7
 10
61.215860999999997
 20
197.79865499999991
 30
0.0
 40
0.5084080000000001
 50
324.35462100000001
 51
17.265179
  0
ARC
  5
1BD
  8
0
 62
     7
 10
59.38047499999999
 20
197.81631100000001
 30
0.0
 40
0.519273
 50
182.10103499999991
 51
267.89899500000001
  0
LINE
  5
1BE
  8
0
 62
     7
 10
58.861600000000003
 20
199.66099999999989
 30
0.0
 11
58.861600000000003
 21
197.797
 31
0.0
  0
LINE
  5
1BF
  8
0
 62
     7
 10
59.361400000000003
 20
197.297
 30
0.0
 11
61.225200000000001
 21
197.297
 31
0.0
  0
ARC
  5
1C0
  8
0
 62
     7
 10
58.440547000000002
 20
196.876383
 30
0.0
 40
3.432869999999999
 50
18.216865999999989
 51
71.783124000000001
  0
ARC
  5
1C1
  8
0
 62
     7
 10
58.486377000000012
 20
196.922213
 30
0.0
 40
4.4376559999999987
 50
0.00001
 51
89.999980000000008
  0
ARC
  5
1C2
  8
0
 62
     7
 10
58.486550999999999
 20
196.92238499999999
 30
0.0
 40
4.4374839999999987
 50
90.002223999999998
 51
180.00223399999999
  0
ARC
  5
1C3
  8
0
 62
     7
 10
58.486463000000001
 20
196.92212699999999
 30
0.0
 40
4.4373959999999988
 50
179.99885800000001
 51
269.99890799999997
  0
ARC
  5
1C4
  8
0
 62
     7
 10
58.486463000000001
 20
196.922301
 30
0.0
 40
4.43757
 50
269.99890799999997
 51
359.99887799999988
  0
ARC
  5
1C5
  8
0
 62
     7
 10
58.486463000000001
 20
196.92212699999999
 30
0.0
 40
6.7501059999999988
 50
0.000741
 51
90.000710999999995
  0
ARC
  5
1C6
  8
0
 62
     7
 10
58.486378999999999
 20
196.922213
 30
0.0
 40
6.7500189999999991
 50
90.0
 51
179.99996999999991
  0
ARC
  5
1C7
  8
0
 62
     7
 10
58.486377000000012
 20
196.922213
 30
0.0
 40
6.7500169999999988
 50
179.99996999999991
 51
270.00002000000001
  0
ARC
  5
1C8
  8
0
 62
     7
 10
58.486463000000001
 20
196.922301
 30
0.0
 40
6.7501059999999988
 50
269.99928899999998
 51
359.99925899999988
  0
ARC
  5
1C9
  8
0
 62
     7
 10
35.980350999999999
 20
146.56395699999999
 30
0.0
 40
0.5025310000000001
 50
163.57977099999999
 51
185.61264700000001
  0
ARC
  5
1CA
  8
0
 62
     7
 10
36.714290999999989
 20
149.00097500000001
 30
0.0
 40
0.5141220000000001
 50
91.173390999999995
 51
162.34865999999991
  0
LINE
  5
1CB
  8
0
 62
     7
 10
36.224400000000003
 20
149.15700000000001
 30
0.0
 11
35.4983
 21
146.70599999999999
 31
0.0
  0
LINE
  5
1CC
  8
0
 62
     7
 10
37.994
 20
149.5149999999999
 30
0.0
 11
38.457999999999998
 21
149.84
 31
0.0
  0
ARC
  5
1CD
  8
0
 62
     7
 10
27.446573000000001
 20
146.56404599999991
 30
0.0
 40
0.501607
 50
354.36682200000001
 51
16.440758999999989
  0
ARC
  5
1CE
  8
0
 62
     7
 10
26.711615999999989
 20
149.00086699999989
 30
0.0
 40
0.5142310000000001
 50
17.660031
 51
88.817879000000005
  0
LINE
  5
1CF
  8
0
 62
     7
 10
27.927700000000002
 20
146.70599999999999
 30
0.0
 11
27.201799999999999
 21
149.15700000000001
 31
0.0
  0
LINE
  5
1D0
  8
0
 62
     7
 10
24.968
 20
149.84
 30
0.0
 11
25.432200000000002
 21
149.5149999999999
 31
0.0
  0
LINE
  5
1D1
  8
0
 62
     7
 10
24.968
 20
149.84
 30
0.0
 11
38.463000000000001
 21
149.84
 31
0.0
  0
ARC
  5
1D2
  8
0
 62
     7
 10
38.210135000000001
 20
149.888598
 30
0.0
 40
0.252879
 50
0.276214
 51
44.725390999999988
  0
ARC
  5
1D3
  8
0
 62
     7
 10
38.211843000000002
 20
149.887462
 30
0.0
 40
0.2524739999999999
 50
45.181252000000001
 51
89.721826000000007
  0
ARC
  5
1D4
  8
0
 62
     7
 10
25.214209
 20
149.887306
 30
0.0
 40
0.252631
 50
90.292713000000006
 51
134.804169
  0
ARC
  5
1D5
  8
0
 62
     7
 10
25.215757
 20
149.88863699999999
 30
0.0
 40
0.252785
 50
135.2658449999999
 51
179.73250999999999
  0
LINE
  5
1D6
  8
0
 62
     7
 10
25.432200000000002
 20
149.5149999999999
 30
0.0
 11
37.994
 21
149.5149999999999
 31
0.0
  0
LINE
  5
1D7
  8
0
 62
     7
 10
38.463000000000001
 20
149.84
 30
0.0
 11
38.463000000000001
 21
149.8899999999999
 31
0.0
  0
LINE
  5
1D8
  8
0
 62
     7
 10
24.963000000000001
 20
149.8899999999999
 30
0.0
 11
24.963000000000001
 21
149.84
 31
0.0
  0
LINE
  5
1D9
  8
0
 62
     7
 10
25.212900000000001
 20
150.1399999999999
 30
0.0
 11
38.213099999999997
 21
150.1399999999999
 31
0.0
  0
LINE
  5
1DA
  8
0
 62
     7
 10
70.239099999999993
 20
193.79699999999991
 30
0.0
 11
64.469499999999996
 21
193.79699999999991
 31
0.0
  0
LINE
  5
1DB
  8
0
 62
     7
 10
159.73699999999991
 20
193.79699999999991
 30
0.0
 11
72.741900000000001
 21
193.79699999999991
 31
0.0
  0
LINE
  5
1DC
  8
0
 62
     7
 10
159.73699999999991
 20
200.04699999999991
 30
0.0
 11
72.741900000000001
 21
200.04699999999991
 31
0.0
  0
LINE
  5
1DD
  8
0
 62
     7
 10
70.239099999999993
 20
200.04699999999991
 30
0.0
 11
64.469499999999996
 21
200.04699999999991
 31
0.0
  0
LINE
  5
1DE
  8
0
 62
     7
 10
27.713000000000001
 20
142.6399999999999
 30
0.0
 11
27.713000000000001
 21
141.34
 31
0.0
  0
LINE
  5
1DF
  8
0
 62
     7
 10
27.966899999999988
 20
142.6399999999999
 30
0.0
 11
27.966899999999988
 21
141.34
 31
0.0
  0
LINE
  5
1E0
  8
0
 62
     7
 10
36.088099999999997
 20
141.08099999999999
 30
0.0
 11
36.088099999999997
 21
138.5979999999999
 31
0.0
  0
ARC
  5
1E1
  8
0
 62
     7
 10
34.520386000000002
 20
139.81402199999991
 30
0.0
 40
2.0159090000000002
 50
38.951244000000003
 51
49.185633000000003
  0
ARC
  5
1E2
  8
0
 62
     7
 10
34.525844999999997
 20
139.85845599999999
 30
0.0
 40
2.0070700000000001
 50
310.82637199999999
 51
321.11305199999993
  0
LINE
  5
1E3
  8
0
 62
     7
 10
27.588000000000001
 20
138.33999999999989
 30
0.0
 11
35.838000000000001
 21
138.33999999999989
 31
0.0
  0
LINE
  5
1E4
  8
0
 62
     7
 10
27.588000000000001
 20
141.34
 30
0.0
 11
35.838000000000001
 21
141.34
 31
0.0
  0
ARC
  5
1E5
  8
0
 62
     7
 10
28.887156000000001
 20
139.84590199999991
 30
0.0
 40
1.9890810000000001
 50
218.840326
 51
229.22028999999989
  0
LINE
  5
1E6
  8
0
 62
     7
 10
27.337900000000001
 20
141.08099999999999
 30
0.0
 11
27.337900000000001
 21
138.5979999999999
 31
0.0
  0
ARC
  5
1E7
  8
0
 62
     7
 10
28.892208
 20
139.826987
 30
0.0
 40
1.9973430000000001
 50
130.76665299999999
 51
141.09643
  0
LINE
  5
1E8
  8
0
 62
     7
 10
62.486499999999999
 20
142.6399999999999
 30
0.0
 11
62.486499999999999
 21
141.34
 31
0.0
  0
LINE
  5
1E9
  8
0
 62
     7
 10
54.740499999999997
 20
142.6399999999999
 30
0.0
 11
54.740499999999997
 21
141.34
 31
0.0
  0
ARC
  5
1EA
  8
0
 62
     7
 10
61.290047999999999
 20
139.85292699999999
 30
0.0
 40
2.0090300000000001
 50
311.13130099999989
 51
359.62338699999998
  0
ARC
  5
1EB
  8
0
 62
     7
 10
61.289885999999989
 20
139.8264419999999
 30
0.0
 40
2.0091919999999992
 50
0.3786999999999999
 51
48.866611999999989
  0
ARC
  5
1EC
  8
0
 62
     7
 10
55.683372999999989
 20
139.8261379999999
 30
0.0
 40
2.009525
 50
131.13108799999989
 51
179.612686
  0
ARC
  5
1ED
  8
0
 62
     7
 10
55.682721999999998
 20
139.85300599999991
 30
0.0
 40
2.008872999999999
 50
180.378929
 51
228.877297
  0
LINE
  5
1EE
  8
0
 62
     7
 10
54.361499999999999
 20
138.33999999999989
 30
0.0
 11
62.611600000000003
 21
138.33999999999989
 31
0.0
  0
LINE
  5
1EF
  8
0
 62
     7
 10
54.361499999999999
 20
141.34
 30
0.0
 11
62.611600000000003
 21
141.34
 31
0.0
  0
ARC
  5
1F0
  8
0
 62
     7
 10
73.470202
 20
196.8077889999999
 30
0.0
 40
4.2228599999999989
 50
50.097031000000001
 51
113.77682399999991
  0
ARC
  5
1F1
  8
0
 62
     7
 10
73.582814999999997
 20
196.86068999999989
 30
0.0
 40
4.2216839999999989
 50
115.4651659999999
 51
179.1649679999999
  0
ARC
  5
1F2
  8
0
 62
     7
 10
73.583398000000003
 20
196.98446200000001
 30
0.0
 40
4.2222780000000002
 50
180.84474599999999
 51
244.52990500000001
  0
ARC
  5
1F3
  8
0
 62
     7
 10
73.470588000000006
 20
197.03604699999991
 30
0.0
 40
4.2221580000000003
 50
246.21326199999999
 51
309.90410999999989
  0
LINE
  5
1F4
  8
0
  6
AIGENLINE001
 62
     7
 10
73.486599999999996
 20
205.04699999999991
 30
0.0
 11
73.486599999999996
 21
188.79699999999991
 31
0.0
  0
ARC
  5
1F5
  8
0
 62
     7
 10
73.492530000000002
 20
196.92230000000001
 30
0.0
 40
4.8184100000000001
 50
174.6265939999999
 51
185.37340599999999
  0
ARC
  5
1F6
  8
0
 62
     7
 10
73.583430000000007
 20
196.84591099999989
 30
0.0
 40
3.3101180000000001
 50
104.7274119999999
 51
178.679124
  0
ARC
  5
1F7
  8
0
 62
     7
 10
73.584416000000004
 20
196.999472
 30
0.0
 40
3.311126999999999
 50
181.33701099999999
 51
255.25952499999991
  0
ARC
  5
1F8
  8
0
 62
     7
 10
73.489551000000006
 20
196.92653599999991
 30
0.0
 40
4.8176249999999987
 50
234.62026499999999
 51
245.36911900000001
  0
ARC
  5
1F9
  8
0
 62
     7
 10
73.475076999999999
 20
196.90067799999991
 30
0.0
 40
4.8369939999999989
 50
54.656393000000008
 51
65.362828000000007
  0
LINE
  5
1FA
  8
0
 62
     7
 10
76.2727
 20
200.84599999999989
 30
0.0
 11
76.733800000000002
 21
200.04699999999991
 31
0.0
  0
LINE
  5
1FB
  8
0
 62
     7
 10
76.734099999999998
 20
193.79699999999991
 30
0.0
 11
76.272999999999996
 21
192.999
 31
0.0
  0
LINE
  5
1FC
  8
0
 62
     7
 10
68.695099999999996
 20
196.47099999999989
 30
0.0
 11
70.700000000000003
 21
192.99799999999999
 31
0.0
  0
LINE
  5
1FD
  8
0
 62
     7
 10
70.700000000000003
 20
200.84599999999989
 30
0.0
 11
68.695300000000003
 21
197.374
 31
0.0
  0
ARC
  5
1FE
  8
0
 62
     7
 10
73.483914999999996
 20
196.927108
 30
0.0
 40
4.8180269999999989
 50
294.62499199999991
 51
305.37472700000001
  0
ARC
  5
1FF
  8
0
 62
     7
 10
73.479146999999998
 20
196.934586
 30
0.0
 40
4.7982709999999988
 50
114.600184
 51
125.39148899999989
  0
LINE
  5
200
  8
0
 62
     7
 10
71.481700000000004
 20
192.54699999999991
 30
0.0
 11
75.491500000000002
 21
192.54699999999991
 31
0.0
  0
LINE
  5
201
  8
0
 62
     7
 10
71.481700000000004
 20
201.297
 30
0.0
 11
75.491500000000002
 21
201.297
 31
0.0
  0
LINE
  5
202
  8
0
 62
     7
 10
32.258200000000002
 20
142.85599999999999
 30
0.0
 11
31.168099999999999
 21
142.85599999999999
 31
0.0
  0
ARC
  5
203
  8
0
 62
     7
 10
30.908396
 20
144.130459
 30
0.0
 40
0.25958
 50
2.087933
 51
87.872555999999989
  0
ARC
  5
204
  8
0
 62
     7
 10
27.203512
 20
144.130447
 30
0.0
 40
0.259586
 50
2.090574999999999
 51
87.909414999999996
  0
ARC
  5
205
  8
0
 62
     7
 10
28.267506000000001
 20
144.13046800000001
 30
0.0
 40
0.2595639999999999
 50
92.086170999999993
 51
177.91379900000001
  0
LINE
  5
206
  8
0
 62
     7
 10
28.008299999999991
 20
142.85599999999999
 30
0.0
 11
27.463100000000001
 21
142.85599999999999
 31
0.0
  0
ARC
  5
207
  8
0
 62
     7
 10
29.587959000000001
 20
148.54488699999999
 30
0.0
 40
5.9039239999999991
 50
254.4789649999999
 51
285.52105399999988
  0
LINE
  5
208
  8
0
 62
     7
 10
31.168099999999999
 20
142.85599999999999
 30
0.0
 11
31.168099999999999
 21
144.1399999999999
 31
0.0
  0
LINE
  5
209
  8
0
 62
     7
 10
28.008299999999991
 20
142.85599999999999
 30
0.0
 11
28.008299999999991
 21
144.1399999999999
 31
0.0
  0
LINE
  5
20A
  8
0
 62
     7
 10
27.463100000000001
 20
142.6399999999999
 30
0.0
 11
27.463100000000001
 21
144.1399999999999
 31
0.0
  0
LINE
  5
20B
  8
0
 62
     7
 10
35.96309999999999
 20
142.6399999999999
 30
0.0
 11
27.463100000000001
 21
142.6399999999999
 31
0.0
  0
LINE
  5
20C
  8
0
 62
     7
 10
37.58809999999999
 20
144.38999999999999
 30
0.0
 11
25.838200000000001
 21
144.38999999999999
 31
0.0
  0
ARC
  5
20D
  8
0
 62
     7
 10
32.517595999999998
 20
144.130447
 30
0.0
 40
0.259585
 50
92.090547999999998
 51
177.909423
  0
ARC
  5
20E
  8
0
 62
     7
 10
36.222475000000003
 20
144.130447
 30
0.0
 40
0.259585
 50
92.090547999999998
 51
177.909423
  0
ARC
  5
20F
  8
0
 62
     7
 10
35.158625999999998
 20
144.13043500000001
 30
0.0
 40
0.259592
 50
2.0932169999999992
 51
87.946246000000002
  0
LINE
  5
210
  8
0
 62
     7
 10
35.96309999999999
 20
142.85599999999999
 30
0.0
 11
35.417999999999999
 21
142.85599999999999
 31
0.0
  0
ARC
  5
211
  8
0
 62
     7
 10
33.838028000000001
 20
148.54488699999999
 30
0.0
 40
5.9039239999999991
 50
254.4789649999999
 51
285.52105399999988
  0
LINE
  5
212
  8
0
 62
     7
 10
32.258200000000002
 20
144.1399999999999
 30
0.0
 11
32.258200000000002
 21
142.85599999999999
 31
0.0
  0
LINE
  5
213
  8
0
 62
     7
 10
35.417999999999999
 20
144.1399999999999
 30
0.0
 11
35.417999999999999
 21
142.85599999999999
 31
0.0
  0
LINE
  5
214
  8
0
 62
     7
 10
35.96309999999999
 20
144.1399999999999
 30
0.0
 11
35.96309999999999
 21
142.6399999999999
 31
0.0
  0
ARC
  5
215
  8
0
 62
     7
 10
37.583294000000002
 20
144.519575
 30
0.0
 40
0.129805
 50
272.13235299999991
 51
357.86765700000001
  0
ARC
  5
216
  8
0
 62
     7
 10
25.839040000000001
 20
144.51545999999999
 30
0.0
 40
0.126064
 50
180.32477800000001
 51
224.85140399999989
  0
ARC
  5
217
  8
0
 62
     7
 10
25.838754000000002
 20
144.51634799999991
 30
0.0
 40
0.126491
 50
225.22772499999999
 51
269.59615200000002
  0
LINE
  5
218
  8
0
 62
     7
 10
37.713200000000001
 20
144.7649999999999
 30
0.0
 11
25.713100000000001
 21
144.7649999999999
 31
0.0
  0
LINE
  5
219
  8
0
 62
     7
 10
25.713100000000001
 20
144.5149999999999
 30
0.0
 11
25.713100000000001
 21
144.7649999999999
 31
0.0
  0
LINE
  5
21A
  8
0
 62
     7
 10
37.713200000000001
 20
144.5149999999999
 30
0.0
 11
37.713200000000001
 21
144.7649999999999
 31
0.0
  0
LINE
  5
21B
  8
0
 62
     7
 10
38.213099999999997
 20
145.0149999999999
 30
0.0
 11
38.213099999999997
 21
144.7649999999999
 31
0.0
  0
LINE
  5
21C
  8
0
 62
     7
 10
25.212900000000001
 20
145.0149999999999
 30
0.0
 11
25.212900000000001
 21
144.7649999999999
 31
0.0
  0
LINE
  5
21D
  8
0
 62
     7
 10
25.212900000000001
 20
144.7649999999999
 30
0.0
 11
38.213099999999997
 21
144.7649999999999
 31
0.0
  0
LINE
  5
21E
  8
0
 62
     7
 10
61.611400000000003
 20
138.33999999999989
 30
0.0
 11
61.611400000000003
 21
119.64
 31
0.0
  0
LINE
  5
21F
  8
0
 62
     7
 10
55.361499999999999
 20
138.33999999999989
 30
0.0
 11
55.361499999999999
 21
119.64
 31
0.0
  0
ARC
  5
220
  8
0
 62
     7
 10
60.051493000000008
 20
144.13043500000001
 30
0.0
 40
0.259592
 50
2.0932169999999992
 51
87.946246000000002
  0
ARC
  5
221
  8
0
 62
     7
 10
61.506248999999997
 20
144.136886
 30
0.0
 40
0.252977
 50
90.285263999999998
 51
134.71632099999991
  0
ARC
  5
222
  8
0
 62
     7
 10
61.50840500000001
 20
144.13825099999991
 30
0.0
 40
0.253537
 50
135.279596
 51
179.62346199999999
  0
ARC
  5
223
  8
0
 62
     7
 10
62.183160999999998
 20
144.774585
 30
0.0
 40
2.131117999999999
 50
244.1773759999999
 51
295.82264399999991
  0
LINE
  5
224
  8
0
 62
     7
 10
60.31089999999999
 20
142.85599999999999
 30
0.0
 11
61.254899999999999
 21
142.85599999999999
 31
0.0
  0
LINE
  5
225
  8
0
 62
     7
 10
60.31089999999999
 20
144.1399999999999
 30
0.0
 11
60.31089999999999
 21
142.85599999999999
 31
0.0
  0
LINE
  5
226
  8
0
 62
     7
 10
61.254899999999999
 20
144.1399999999999
 30
0.0
 11
61.254899999999999
 21
142.85599999999999
 31
0.0
  0
ARC
  5
227
  8
0
 62
     7
 10
63.371012
 20
144.13028899999989
 30
0.0
 40
0.259743
 50
92.084684999999993
 51
177.875812
  0
LINE
  5
228
  8
0
 62
     7
 10
63.111400000000003
 20
144.1399999999999
 30
0.0
 11
63.111400000000003
 21
142.85599999999999
 31
0.0
  0
LINE
  5
229
  8
0
 62
     7
 10
62.736600000000003
 20
142.6399999999999
 30
0.0
 11
63.111600000000003
 21
142.85599999999999
 31
0.0
  0
ARC
  5
22A
  8
0
 62
     7
 10
56.921752000000012
 20
144.13028899999989
 30
0.0
 40
0.259743
 50
92.084684999999993
 51
177.875812
  0
ARC
  5
22B
  8
0
 62
     7
 10
55.458641
 20
144.130447
 30
0.0
 40
0.259586
 50
2.090574999999999
 51
87.909414999999996
  0
LINE
  5
22C
  8
0
 62
     7
 10
54.236499999999999
 20
142.6399999999999
 30
0.0
 11
62.736600000000003
 21
142.6399999999999
 31
0.0
  0
ARC
  5
22D
  8
0
 62
     7
 10
54.789766999999998
 20
144.77386599999991
 30
0.0
 40
2.130471
 50
244.16895599999989
 51
295.83106400000003
  0
ARC
  5
22E
  8
0
 62
     7
 10
58.486550000000001
 20
150.46425600000001
 30
0.0
 40
7.823669999999999
 50
256.51535699999999
 51
283.48466300000001
  0
LINE
  5
22F
  8
0
 62
     7
 10
55.7181
 20
142.85599999999999
 30
0.0
 11
56.662199999999999
 21
142.85599999999999
 31
0.0
  0
LINE
  5
230
  8
0
 62
     7
 10
56.662199999999999
 20
142.85599999999999
 30
0.0
 11
56.662199999999999
 21
144.1399999999999
 31
0.0
  0
LINE
  5
231
  8
0
 62
     7
 10
55.7181
 20
142.85599999999999
 30
0.0
 11
55.7181
 21
144.1399999999999
 31
0.0
  0
ARC
  5
232
  8
0
 62
     7
 10
53.602066999999998
 20
144.130447
 30
0.0
 40
0.259586
 50
2.090574999999999
 51
87.909414999999996
  0
LINE
  5
233
  8
0
 62
     7
 10
53.861499999999999
 20
142.85599999999999
 30
0.0
 11
53.861499999999999
 21
144.1399999999999
 31
0.0
  0
LINE
  5
234
  8
0
 62
     7
 10
53.861499999999999
 20
142.85599999999999
 30
0.0
 11
54.236499999999999
 21
142.6399999999999
 31
0.0
  0
ARC
  5
235
  8
0
 62
     7
 10
52.615991000000001
 20
144.519496
 30
0.0
 40
0.129717
 50
182.09882300000001
 51
267.98018100000002
  0
ARC
  5
236
  8
0
 62
     7
 10
64.356782999999993
 20
144.51965000000001
 30
0.0
 40
0.129876
 50
272.08514100000002
 51
357.835894
  0
LINE
  5
237
  8
0
 62
     7
 10
52.61140000000001
 20
144.38999999999999
 30
0.0
 11
64.361500000000007
 21
144.38999999999999
 31
0.0
  0
LINE
  5
238
  8
0
 62
     7
 10
64.486599999999996
 20
144.5149999999999
 30
0.0
 11
64.486599999999996
 21
144.7649999999999
 31
0.0
  0
LINE
  5
239
  8
0
 62
     7
 10
52.486400000000003
 20
144.5149999999999
 30
0.0
 11
52.486400000000003
 21
144.7649999999999
 31
0.0
  0
LINE
  5
23A
  8
0
  6
AIGENLINE001
 62
     7
 10
174.73699999999999
 20
196.92199999999991
 30
0.0
 11
47.9863
 21
196.92199999999991
 31
0.0
  0
LINE
  5
23B
  8
0
  6
AIGENLINE001
 62
     7
 10
58.486600000000003
 20
207.42199999999991
 30
0.0
 11
58.486600000000003
 21
186.42199999999991
 31
0.0
  0
LINE
  5
23C
  8
0
 62
     7
 10
62.361400000000003
 20
146.5149999999999
 30
0.0
 11
64.986599999999996
 21
145.0149999999999
 31
0.0
  0
LINE
  5
23D
  8
0
 62
     7
 10
64.986599999999996
 20
144.7649999999999
 30
0.0
 11
64.986599999999996
 21
145.0149999999999
 31
0.0
  0
LINE
  5
23E
  8
0
 62
     7
 10
51.986499999999999
 20
145.0149999999999
 30
0.0
 11
54.611699999999999
 21
146.5149999999999
 31
0.0
  0
LINE
  5
23F
  8
0
 62
     7
 10
54.611499999999992
 20
146.5149999999999
 30
0.0
 11
62.361400000000003
 21
146.5149999999999
 31
0.0
  0
LINE
  5
240
  8
0
 62
     7
 10
51.986499999999999
 20
145.0149999999999
 30
0.0
 11
64.986500000000007
 21
145.0149999999999
 31
0.0
  0
LINE
  5
241
  8
0
 62
     7
 10
51.986499999999999
 20
144.7649999999999
 30
0.0
 11
64.986599999999996
 21
144.7649999999999
 31
0.0
  0
LINE
  5
242
  8
0
 62
     7
 10
51.986499999999999
 20
145.0149999999999
 30
0.0
 11
51.986499999999999
 21
144.7649999999999
 31
0.0
  0
LINE
  5
243
  8
0
 62
     7
 10
35.58809999999999
 20
146.5149999999999
 30
0.0
 11
38.213099999999997
 21
145.0149999999999
 31
0.0
  0
LINE
  5
244
  8
0
 62
     7
 10
25.213100000000001
 20
145.0149999999999
 30
0.0
 11
27.838100000000001
 21
146.5149999999999
 31
0.0
  0
LINE
  5
245
  8
0
 62
     7
 10
27.838100000000001
 20
146.5149999999999
 30
0.0
 11
35.587899999999998
 21
146.5149999999999
 31
0.0
  0
LINE
  5
246
  8
0
 62
     7
 10
25.212900000000001
 20
145.0149999999999
 30
0.0
 11
38.213099999999997
 21
145.0149999999999
 31
0.0
  0
LINE
  5
247
  8
0
 62
     7
 10
35.712899999999991
 20
141.34
 30
0.0
 11
35.712899999999991
 21
142.6399999999999
 31
0.0
  0
LINE
  5
248
  8
0
 62
     7
 10
35.459000000000003
 20
141.34
 30
0.0
 11
35.459000000000003
 21
142.6399999999999
 31
0.0
  0
LINE
  5
249
  8
0
 62
     7
 10
24.963000000000001
 20
149.8899999999999
 30
0.0
 11
24.963000000000001
 21
149.84
 31
0.0
  0
LINE
  5
24A
  8
0
 62
     7
 10
62.232599999999991
 20
141.34
 30
0.0
 11
62.232599999999991
 21
142.6399999999999
 31
0.0
  0
LINE
  5
24B
  8
0
 62
     7
 10
54.48640000000001
 20
141.34
 30
0.0
 11
54.48640000000001
 21
142.6399999999999
 31
0.0
  0
LINE
  5
24C
  8
0
 62
     7
 10
34.838099999999997
 20
138.33999999999989
 30
0.0
 11
34.838099999999997
 21
119.64
 31
0.0
  0
LINE
  5
24D
  8
0
 62
     7
 10
28.588100000000001
 20
138.33999999999989
 30
0.0
 11
28.588100000000001
 21
119.64
 31
0.0
  0
LINE
  5
24E
  8
0
 62
     7
 10
76.611699999999999
 20
112.639
 30
0.0
 11
76.611699999999999
 21
112.1399999999999
 31
0.0
  0
LINE
  5
24F
  8
0
 62
     7
 10
70.361699999999999
 20
112.639
 30
0.0
 11
70.361699999999999
 21
112.1399999999999
 31
0.0
  0
LINE
  5
250
  8
0
 62
     7
 10
80.986599999999996
 20
117.0139999999999
 30
0.0
 11
159.73699999999991
 21
117.0139999999999
 31
0.0
  0
LINE
  5
251
  8
0
 62
     7
 10
80.986599999999996
 20
123.265
 30
0.0
 11
159.73699999999991
 21
123.265
 31
0.0
  0
ARC
  5
252
  8
0
 62
     7
 10
81.008717000000004
 20
112.585778
 30
0.0
 40
4.4287190000000001
 50
90.285983000000002
 51
134.70930100000001
  0
ARC
  5
253
  8
0
 62
     7
 10
81.037645999999995
 20
112.618487
 30
0.0
 40
4.4260400000000004
 50
135.27333999999991
 51
179.728126
  0
ARC
  5
254
  8
0
 62
     7
 10
80.986699000000002
 20
112.6395709999999
 30
0.0
 40
10.625002
 50
90.000464000000022
 51
180.000474
  0
ARC
  5
255
  8
0
  6
AIGENLINE001
 62
     7
 10
80.986611999999994
 20
112.63948599999991
 30
0.0
 40
7.5000220000000004
 50
90.0
 51
179.99996999999991
  0
LINE
  5
256
  8
0
  6
AIGENLINE001
 62
     7
 10
22.278700000000001
 20
120.14
 30
0.0
 11
41.328800000000001
 21
120.14
 31
0.0
  0
LINE
  5
257
  8
0
  6
AIGENLINE001
 62
     7
 10
80.986599999999996
 20
120.14
 30
0.0
 11
172.9199999999999
 21
120.14
 31
0.0
  0
ARC
  5
258
  8
0
 62
     7
 10
27.873640000000002
 20
108.732659
 30
0.0
 40
0.7551140000000001
 50
0.109466
 51
32.608984
  0
ARC
  5
259
  8
0
 62
     7
 10
56.067388999999991
 20
109.6414189999999
 30
0.0
 40
0.9310450000000001
 50
180.119426
 51
213.2719799999999
  0
ARC
  5
25A
  8
0
 62
     7
 10
60.910392000000002
 20
109.6396949999999
 30
0.0
 40
0.926018
 50
329.98346900000001
 51
359.986603
  0
ARC
  5
25B
  8
0
 62
     7
 10
62.365235999999989
 20
108.7999379999999
 30
0.0
 40
0.7537930000000001
 50
150.03326599999991
 51
179.9239969999999
  0
ARC
  5
25C
  8
0
 62
     7
 10
54.655807000000003
 20
108.7161879999999
 30
0.0
 40
0.7567390000000001
 50
354.74961799999988
 51
33.20761199999999
  0
LINE
  5
25D
  8
0
 62
     7
 10
61.611400000000003
 20
108.801
 30
0.0
 11
61.611400000000003
 21
107.64
 31
0.0
  0
ARC
  5
25E
  8
0
 62
     7
 10
29.294121000000001
 20
109.64137099999991
 30
0.0
 40
0.9311609999999999
 50
180.11646499999989
 51
212.6070599999999
  0
ARC
  5
25F
  8
0
 62
     7
 10
34.13374799999999
 20
109.64057
 30
0.0
 40
0.9292780000000001
 50
330.03733099999988
 51
359.93274100000002
  0
LINE
  5
260
  8
0
 62
     7
 10
61.836399999999998
 20
117.1399999999999
 30
0.0
 11
61.836399999999998
 21
109.6389999999999
 31
0.0
  0
LINE
  5
261
  8
0
 62
     7
 10
55.136299999999999
 20
117.1399999999999
 30
0.0
 11
55.136299999999999
 21
109.6389999999999
 31
0.0
  0
ARC
  5
262
  8
0
 62
     7
 10
35.590363000000004
 20
108.7999919999999
 30
0.0
 40
0.7524770000000001
 50
149.98022999999989
 51
179.92800399999999
  0
LINE
  5
263
  8
0
 62
     7
 10
35.063000000000002
 20
117.1399999999999
 30
0.0
 11
35.063000000000002
 21
109.6389999999999
 31
0.0
  0
LINE
  5
264
  8
0
 62
     7
 10
28.363
 20
117.1399999999999
 30
0.0
 11
28.363
 21
109.6389999999999
 31
0.0
  0
ARC
  5
265
  8
0
 62
     7
 10
31.73349099999999
 20
100.119241
 30
0.0
 40
3.104738999999999
 50
179.99996999999991
 51
270.00002000000001
  0
ARC
  5
266
  8
0
 62
     7
 10
31.733319000000002
 20
100.11906999999989
 30
0.0
 40
3.1045679999999991
 50
270.00319899999988
 51
0.003169
  0
LINE
  5
267
  8
0
 62
     7
 10
28.628799999999998
 20
108.7339999999999
 30
0.0
 11
28.628799999999998
 21
100.119
 31
0.0
  0
LINE
  5
268
  8
0
  6
AIGENLINE001
 62
     7
 10
58.486400000000003
 20
153.8899999999999
 30
0.0
 11
58.486400000000003
 21
107.64
 31
0.0
  0
ARC
  5
269
  8
0
 62
     7
 10
69.48942199999999
 20
106.73154199999991
 30
0.0
 40
0.756271
 50
345.67199799999992
 51
26.361730999999988
  0
ARC
  5
26A
  8
0
 62
     7
 10
77.304435999999995
 20
106.4459269999999
 30
0.0
 40
0.7554800000000002
 50
142.57119199999991
 51
173.87989699999989
  0
ARC
  5
26B
  8
0
 62
     7
 10
66.136049
 20
107.771253
 30
0.0
 40
4.5265209999999989
 50
181.666843
 51
261.08387699999997
  0
ARC
  5
26C
  8
0
 62
     7
 10
65.875047999999992
 20
107.803822
 30
0.0
 40
4.525885999999999
 50
264.41388799999987
 51
343.84277899999989
  0
ARC
  5
26D
  8
0
 62
     7
 10
66.428302999999985
 20
108.002641
 30
0.0
 40
11.037751999999999
 50
176.65358900000001
 51
262.17919699999999
  0
ARC
  5
26E
  8
0
 62
     7
 10
65.625951000000001
 20
108.0829709999999
 30
0.0
 40
11.037608999999989
 50
266.36589700000002
 51
351.89325099999991
  0
ARC
  5
26F
  8
0
  6
AIGENLINE001
 62
     7
 10
66.077066000000002
 20
107.67712
 30
0.0
 40
7.5907809999999989
 50
180.2833159999999
 51
224.71733099999989
  0
ARC
  5
270
  8
0
  6
AIGENLINE001
 62
     7
 10
66.023040000000009
 20
107.728112
 30
0.0
 40
7.5886319999999996
 50
225.277919
 51
269.72335399999997
  0
ARC
  5
271
  8
0
  6
AIGENLINE001
 62
     7
 10
65.949731
 20
107.7285899999999
 30
0.0
 40
7.5891109999999991
 50
270.276837
 51
314.72061400000001
  0
ARC
  5
272
  8
0
  6
AIGENLINE001
 62
     7
 10
65.895995999999997
 20
107.677082
 30
0.0
 40
7.5906869999999991
 50
315.282399
 51
359.716993
  0
LINE
  5
273
  8
0
 62
     7
 10
34.837899999999991
 20
100.119
 30
0.0
 11
34.837899999999991
 21
108.801
 31
0.0
  0
LINE
  5
274
  8
0
  6
AIGENLINE001
 62
     7
 10
31.713000000000001
 20
93.264499999999984
 30
0.0
 11
31.713000000000001
 21
153.8899999999999
 31
0.0
  0
LINE
  5
275
  8
0
 62
     7
 10
76.911600000000007
 20
109.6389999999999
 30
0.0
 11
76.911600000000007
 21
107.515
 31
0.0
  0
LINE
  5
276
  8
0
 62
     7
 10
70.061599999999999
 20
109.6389999999999
 30
0.0
 11
70.061599999999999
 21
107.515
 31
0.0
  0
LINE
  5
277
  8
0
  6
AIGENLINE001
 62
     7
 10
73.486599999999996
 20
112.639
 30
0.0
 11
73.486599999999996
 21
107.64
 31
0.0
  0
ARC
  5
278
  8
0
 62
     7
 10
75.904157999999995
 20
107.5168909999999
 30
0.0
 40
1.007398999999999
 50
322.60489200000001
 51
359.86575800000003
  0
ARC
  5
279
  8
0
 62
     7
 10
71.067831000000012
 20
107.515726
 30
0.0
 40
1.0062040000000001
 50
180.06808899999999
 51
206.46218999999999
  0
LINE
  5
27A
  8
_________2
 62
     7
 10
205.30099999999999
 20
127.411
 30
0.0
 11
183.55000000000001
 21
127.411
 31
0.0
  0
LINE
  5
27B
  8
_________2
 62
     7
 10
100.2999999999999
 20
-4.0910799999999998
 30
0.0
 11
100.2999999999999
 21
-21.070999999999991
 31
0.0
  0
LINE
  5
27C
  8
_________2
 62
     7
 10
100.2999999999999
 20
275.93099999999993
 30
0.0
 11
100.2999999999999
 21
258.911
 31
0.0
  0
LINE
  5
27D
  8
_________2
 62
     7
 10
17.049399999999991
 20
127.411
 30
0.0
 11
-4.7006899999999989
 21
127.411
 31
0.0
  0
LINE
  5
27E
  8
_________2
 62
     7
 10
76.740799999999993
 20
29.8047
 30
0.0
 11
74.554599999999994
 21
29.8047
 31
0.0
  0
LINE
  5
27F
  8
_________2
 62
     7
 10
77.233500000000006
 20
29.8047
 30
0.0
 11
76.981300000000005
 21
29.8047
 31
0.0
  0
LINE
  5
280
  8
_________2
 62
     7
 10
77.726200000000006
 20
29.8047
 30
0.0
 11
80.6511
 21
29.8047
 31
0.0
  0
LINE
  5
281
  8
_________2
 62
     7
 10
77.233500000000006
 20
29.8047
 30
0.0
 11
77.485299999999995
 21
29.8047
 31
0.0
  0
LINE
  5
282
  8
_________2
 62
     7
 10
70.837000000000003
 20
29.8047
 30
0.0
 11
68.650300000000001
 21
29.8047
 31
0.0
  0
LINE
  5
283
  8
_________2
 62
     7
 10
71.329300000000003
 20
29.8047
 30
0.0
 11
71.077399999999983
 21
29.8047
 31
0.0
  0
LINE
  5
284
  8
_________2
 62
     7
 10
71.329300000000003
 20
30.2974
 30
0.0
 11
71.329300000000003
 21
32.484400000000001
 31
0.0
  0
LINE
  5
285
  8
_________2
 62
     7
 10
71.329300000000003
 20
29.8047
 30
0.0
 11
71.329300000000003
 21
30.057300000000001
 31
0.0
  0
LINE
  5
286
  8
_________2
 62
     7
 10
71.821899999999999
 20
29.8047
 30
0.0
 11
74.008899999999997
 21
29.8047
 31
0.0
  0
LINE
  5
287
  8
_________2
 62
     7
 10
71.329300000000003
 20
29.8047
 30
0.0
 11
71.581400000000002
 21
29.8047
 31
0.0
  0
LINE
  5
288
  8
_________2
 62
     7
 10
71.329300000000003
 20
29.312799999999999
 30
0.0
 11
71.329300000000003
 21
27.126200000000001
 31
0.0
  0
LINE
  5
289
  8
_________2
 62
     7
 10
71.329300000000003
 20
29.8047
 30
0.0
 11
71.329300000000003
 21
29.5532
 31
0.0
  0
LINE
  5
28A
  8
_________2
 62
     7
 10
75.040300000000002
 20
28.5852
 30
0.0
 11
80.218299999999985
 21
27.720400000000001
 31
0.0
  0
LINE
  5
28B
  8
_________2
 62
     7
 10
75.040300000000002
 20
31.024699999999999
 30
0.0
 11
80.218299999999985
 21
31.8901
 31
0.0
  0
LINE
  5
28C
  8
_________2
 62
     7
 10
80.218299999999985
 20
27.720400000000001
 30
0.0
 11
80.218299999999985
 21
31.8901
 31
0.0
  0
LINE
  5
28D
  8
_________2
 62
     7
 10
75.040300000000002
 20
28.5852
 30
0.0
 11
75.040300000000002
 21
31.024699999999999
 31
0.0
  0
ARC
  5
28E
  8
_________2
 62
     7
 10
71.282340000000005
 20
29.757825
 30
0.0
 40
1.2677020000000001
 50
2.1210029999999991
 51
87.878986999999995
  0
ARC
  5
28F
  8
_________2
 62
     7
 10
71.375812999999994
 20
29.758545999999999
 30
0.0
 40
1.2669680000000001
 50
92.105782999999988
 51
177.91037
  0
ARC
  5
290
  8
_________2
 62
     7
 10
71.376186000000004
 20
29.851671
 30
0.0
 40
1.2673680000000001
 50
182.12203600000001
 51
267.877993
  0
ARC
  5
291
  8
_________2
 62
     7
 10
71.282359999999997
 20
29.851998999999989
 30
0.0
 40
1.267695999999999
 50
272.12015300000002
 51
357.863674
  0
ARC
  5
292
  8
_________2
 62
     7
 10
71.248890000000003
 20
29.724731999999989
 30
0.0
 40
2.1668310000000002
 50
2.1161439999999989
 51
87.874379000000005
  0
ARC
  5
293
  8
_________2
 62
     7
 10
71.408918999999983
 20
29.725798000000001
 30
0.0
 40
2.1657399999999991
 50
92.107930000000025
 51
177.91097500000001
  0
ARC
  5
294
  8
_________2
 62
     7
 10
71.408934000000002
 20
29.884775999999999
 30
0.0
 40
2.1657950000000001
 50
182.11776599999999
 51
267.89173399999999
  0
ARC
  5
295
  8
_________2
 62
     7
 10
71.249286999999995
 20
29.885429999999989
 30
0.0
 40
2.1664590000000001
 50
272.11546800000002
 51
357.86560400000002
  0
TEXT
  5
296
  8
_________2
 62
     7
 10
104.604
 20
1.6794899999999999
 30
0.0
 40
3.0923400000000001
  1
図番
 41
0.5
  0
LINE
  5
297
  8
_________2
 62
     7
 10
103.55
 20
5.9087199999999989
 30
0.0
 11
183.55099999999999
 21
5.9087199999999989
 31
0.0
  0
TEXT
  5
298
  8
_________2
 62
     7
 10
104.604
 20
11.679299999999991
 30
0.0
 40
3.0923400000000001
  1
品番
 41
0.5
  0
TEXT
  5
299
  8
_________2
 62
     7
 10
104.604
 20
31.8184
 30
0.0
 40
3.0923400000000001
  1
名称
 41
0.5
  0
TEXT
  5
29A
  8
_________2
 62
     7
 10
91.844958333333338
 20
26.822299999999998
 30
0.0
 40
3.6545800000000002
  1
mm
 41
0.5
 72
     1
 11
93.367699999999985
 21
26.822299999999998
 31
0.0
  0
TEXT
  5
29B
  8
_________2
 62
     7
 10
85.642999999999986
 20
31.8184
 30
0.0
 40
3.0923400000000001
  1
単位
 41
0.5
  0
TEXT
  5
29C
  8
_________2
 62
     7
 10
85.642999999999986
 20
19.410799999999991
 30
0.0
 40
3.0923400000000001
  1
尺度
 41
0.5
  0
TEXT
  5
29D
  8
_________2
 62
     7
 10
90.548558666666679
 20
13.218199999999991
 30
0.0
 40
3.6545800000000002
  1
1 ： 4
 41
0.5
 72
     1
 11
93.959500000000006
 21
13.218199999999991
 31
0.0
  0
TEXT
  5
29E
  8
_________2
 62
     7
 10
135.5146125
 20
9.1082000000000001
 30
0.0
 40
3.9357000000000002
  1
CEM92000R
 41
0.5
 72
     1
 11
143.55000000000001
 21
9.1082000000000001
 31
0.0
  0
TEXT
  5
29F
  8
_________2
 62
     7
 10
135.5146125
 20
-0.8926299999999999
 30
0.0
 40
3.9357000000000002
  1
CEM92000R
 41
0.5
 72
     1
 11
143.55000000000001
 21
-0.8926299999999999
 31
0.0
  0
TEXT
  5
2A0
  8
_________2
 62
     7
 10
109.179
 20
24.226099999999999
 30
0.0
 40
3.9357000000000002
  1
　Pトラップ（25mm）
 41
0.5
  0
TEXT
  5
2A1
  8
_________2
 62
     7
 10
39.425100333333333
 20
13.603400000000001
 30
0.0
 40
3.6545800000000002
  1
福田
 41
0.5
 72
     1
 11
41.313299999999998
 21
13.603400000000001
 31
0.0
  0
TEXT
  5
2A2
  8
_________2
 62
     7
 10
20.789890666666661
 20
13.603400000000001
 30
0.0
 40
3.6545800000000002
  1
石原
 41
0.5
 72
     1
 11
22.739000000000001
 21
13.603400000000001
 31
0.0
  0
TEXT
  5
2A3
  8
_________2
 62
     7
 10
67.785300000000007
 20
13.218199999999991
 30
0.0
 40
3.6545800000000002
  1
05.05.30
 41
0.5
  0
TEXT
  5
2A4
  8
_________2
 62
     7
 10
66.5929
 20
19.410799999999991
 30
0.0
 40
3.0923400000000001
  1
日付
 41
0.5
  0
TEXT
  5
2A5
  8
_________2
 62
     7
 10
29.639199999999992
 20
19.410799999999991
 30
0.0
 40
3.0923400000000001
  1
検図
 41
0.5
  0
TEXT
  5
2A6
  8
_________2
 62
     7
 10
18.020900000000001
 20
5.21143
 30
0.0
 40
3.0923400000000001
  1
備考
 41
0.5
  0
TEXT
  5
2A7
  8
_________2
 62
     7
 10
18.020900000000001
 20
19.410799999999991
 30
0.0
 40
3.0923400000000001
  1
製図
 41
0.5
  0
TEXT
  5
2A8
  8
_________2
 62
     7
 10
23.788265333333339
 20
27.936800000000002
 30
0.0
 40
4.4979399999999989
  1
セラトレーディング株式会社
 41
0.5
 72
     1
 11
41.180300000000003
 21
27.936800000000002
 31
0.0
  0
LINE
  5
2A9
  8
_________2
 62
     7
 10
183.55099999999999
 20
-4.0910799999999998
 30
0.0
 11
17.049399999999991
 21
-4.0910799999999998
 31
0.0
  0
LINE
  5
2AA
  8
_________2
 62
     7
 10
17.049399999999991
 20
-4.0910799999999998
 30
0.0
 11
17.049399999999991
 21
258.911
 31
0.0
  0
LINE
  5
2AB
  8
_________2
 62
     7
 10
17.049399999999991
 20
258.911
 30
0.0
 11
183.55099999999999
 21
258.911
 31
0.0
  0
LINE
  5
2AC
  8
_________2
 62
     7
 10
183.55099999999999
 20
258.911
 30
0.0
 11
183.55099999999999
 21
-4.0910799999999998
 31
0.0
  0
LINE
  5
2AD
  8
_________2
 62
     7
 10
65.549400000000006
 20
9.4092999999999982
 30
0.0
 11
65.549400000000006
 21
35.909100000000002
 31
0.0
  0
LINE
  5
2AE
  8
_________2
 62
     7
 10
84.549599999999984
 20
9.4092999999999982
 30
0.0
 11
84.549599999999984
 21
35.909100000000002
 31
0.0
  0
LINE
  5
2AF
  8
_________2
 62
     7
 10
103.55
 20
-4.0910799999999998
 30
0.0
 11
103.55
 21
35.909100000000002
 31
0.0
  0
LINE
  5
2B0
  8
_________2
 62
     7
 10
28.549199999999988
 20
9.4092999999999982
 30
0.0
 11
28.549199999999988
 21
23.409199999999998
 31
0.0
  0
LINE
  5
2B1
  8
_________2
 62
     7
 10
17.049399999999991
 20
9.4092999999999982
 30
0.0
 11
103.55
 21
9.4092999999999982
 31
0.0
  0
LINE
  5
2B2
  8
_________2
 62
     7
 10
17.049399999999991
 20
23.409199999999998
 30
0.0
 11
103.55
 21
23.409199999999998
 31
0.0
  0
LINE
  5
2B3
  8
_________2
 62
     7
 10
103.55
 20
15.9085
 30
0.0
 11
183.55099999999999
 21
15.9085
 31
0.0
  0
LINE
  5
2B4
  8
_________2
 62
     7
 10
17.049399999999991
 20
35.909100000000002
 30
0.0
 11
183.55099999999999
 21
35.909100000000002
 31
0.0
  0
ENDSEC
  0
EOF
