  0
SECTION
  2
HEADER
  9
$ACADVER
  1
AC1009
  9
$INSBASE
 10
0.0
 20
0.0
 30
0.0
  9
$EXTMIN
 10
-4.7008599999999987
 20
-21.070699999999992
 30
0.0
  9
$EXTMAX
 10
205.30099999999999
 20
275.93099999999993
 30
0.0
  9
$LIMMIN
 10
0.0
 20
0.0
  9
$LIMMAX
 10
12.0
 20
9.0
  9
$ORTHOMODE
 70
     0
  9
$REGENMODE
 70
     1
  9
$FILLMODE
 70
     1
  9
$QTEXTMODE
 70
     0
  9
$MIRRTEXT
 70
     1
  9
$DRAGMODE
 70
     2
  9
$LTSCALE
 40
1.0
  9
$OSMODE
 70
    37
  9
$ATTMODE
 70
     1
  9
$TEXTSIZE
 40
0.0
  9
$TRACEWID
 40
0.05
  9
$TEXTSTYLE
  7
STANDARD
  9
$CLAYER
  8
0
  9
$CELTYPE
  6
CONTINUOUS
  9
$CECOLOR
 62
   256
  9
$DIMSCALE
 40
1.0
  9
$DIMASZ
 40
0.18
  9
$DIMEXO
 40
0.0625
  9
$DIMDLI
 40
0.38
  9
$DIMRND
 40
0.0
  9
$DIMDLE
 40
0.0
  9
$DIMEXE
 40
0.18
  9
$DIMTP
 40
0.0
  9
$DIMTM
 40
0.0
  9
$DIMTXT
 40
0.18
  9
$DIMCEN
 40
0.09
  9
$DIMTSZ
 40
0.0
  9
$DIMTOL
 70
     0
  9
$DIMLIM
 70
     0
  9
$DIMTIH
 70
     1
  9
$DIMTOH
 70
     1
  9
$DIMSE1
 70
     0
  9
$DIMSE2
 70
     0
  9
$DIMTAD
 70
     0
  9
$DIMZIN
 70
     0
  9
$DIMBLK
  1

  9
$DIMASO
 70
     1
  9
$DIMSHO
 70
     1
  9
$DIMPOST
  1

  9
$DIMAPOST
  1

  9
$DIMALT
 70
     0
  9
$DIMALTD
 70
     2
  9
$DIMALTF
 40
25.399999999999999
  9
$DIMLFAC
 40
1.0
  9
$DIMTOFL
 70
     0
  9
$DIMTVP
 40
0.0
  9
$DIMTIX
 70
     0
  9
$DIMSOXD
 70
     0
  9
$DIMSAH
 70
     0
  9
$DIMBLK1
  1

  9
$DIMBLK2
  1

  9
$DIMSTYLE
  2
STANDARD
  9
$DIMCLRD
 70
     0
  9
$DIMCLRE
 70
     0
  9
$DIMCLRT
 70
     0
  9
$DIMTFAC
 40
1.0
  9
$DIMGAP
 40
0.09
  9
$LUNITS
 70
     2
  9
$LUPREC
 70
     4
  9
$SKETCHINC
 40
0.1
  9
$FILLETRAD
 40
0.0
  9
$AUNITS
 70
     0
  9
$AUPREC
 70
     0
  9
$MENU
  1
.
  9
$ELEVATION
 40
0.0
  9
$PELEVATION
 40
0.0
  9
$THICKNESS
 40
0.0
  9
$LIMCHECK
 70
     0
  9
$BLIPMODE
 70
     0
  9
$CHAMFERA
 40
0.0
  9
$CHAMFERB
 40
0.0
  9
$SKPOLY
 70
     0
  9
$TDCREATE
 40
2444972.375
  9
$TDUPDATE
 40
2454458.289610636
  9
$TDINDWG
 40
0.0000080208
  9
$TDUSRTIMER
 40
0.0000080208
  9
$USRTIMER
 70
     1
  9
$ANGBASE
 50
0.0
  9
$ANGDIR
 70
     0
  9
$PDMODE
 70
     0
  9
$PDSIZE
 40
0.0
  9
$PLINEWID
 40
0.0
  9
$COORDS
 70
     1
  9
$SPLFRAME
 70
     0
  9
$SPLINETYPE
 70
     6
  9
$SPLINESEGS
 70
     8
  9
$ATTDIA
 70
     0
  9
$ATTREQ
 70
     1
  9
$HANDLING
 70
     1
  9
$HANDSEED
  5
2D8
  9
$SURFTAB1
 70
     6
  9
$SURFTAB2
 70
     6
  9
$SURFTYPE
 70
     6
  9
$SURFU
 70
     6
  9
$SURFV
 70
     6
  9
$UCSNAME
  2

  9
$UCSORG
 10
0.0
 20
0.0
 30
0.0
  9
$UCSXDIR
 10
1.0
 20
0.0
 30
0.0
  9
$UCSYDIR
 10
0.0
 20
1.0
 30
0.0
  9
$PUCSNAME
  2

  9
$PUCSORG
 10
0.0
 20
0.0
 30
0.0
  9
$PUCSXDIR
 10
1.0
 20
0.0
 30
0.0
  9
$PUCSYDIR
 10
0.0
 20
1.0
 30
0.0
  9
$USERI1
 70
     0
  9
$USERI2
 70
     0
  9
$USERI3
 70
     0
  9
$USERI4
 70
     0
  9
$USERI5
 70
     0
  9
$USERR1
 40
0.0
  9
$USERR2
 40
0.0
  9
$USERR3
 40
0.0
  9
$USERR4
 40
0.0
  9
$USERR5
 40
0.0
  9
$WORLDVIEW
 70
     1
  9
$SHADEDGE
 70
     3
  9
$SHADEDIF
 70
    70
  9
$TILEMODE
 70
     1
  9
$MAXACTVP
 70
    48
  9
$PLIMCHECK
 70
     0
  9
$PEXTMIN
 10
1.0000000000000000E+020
 20
1.0000000000000000E+020
 30
1.0000000000000000E+020
  9
$PEXTMAX
 10
-1.0000000000000000E+020
 20
-1.0000000000000000E+020
 30
-1.0000000000000000E+020
  9
$PLIMMIN
 10
0.0
 20
0.0
  9
$PLIMMAX
 10
12.0
 20
9.0
  9
$UNITMODE
 70
     0
  9
$VISRETAIN
 70
     1
  9
$PLINEGEN
 70
     0
  9
$PSLTSCALE
 70
     1
  0
ENDSEC
  0
SECTION
  2
TABLES
  0
TABLE
  2
VPORT
 70
     2
  0
VPORT
  2
*ACTIVE
 70
     0
 10
0.0
 20
0.0
 11
1.0
 21
1.0
 12
195.35132764570241
 22
127.4301499999999
 13
0.0
 23
0.0
 14
1.0
 24
1.0
 15
0.0
 25
0.0
 16
0.0
 26
0.0
 36
1.0
 17
0.0
 27
0.0
 37
0.0
 40
299.34029606299208
 41
2.2894736842105261
 42
50.0
 43
0.0
 44
0.0
 50
0.0
 51
0.0
 71
     0
 72
   100
 73
     1
 74
     1
 75
     0
 76
     0
 77
     0
 78
     0
  0
ENDTAB
  0
TABLE
  2
LTYPE
 70
     2
  0
LTYPE
  2
CONTINUOUS
 70
     0
  3
Solid line
 72
    65
 73
     0
 40
0.0
  0
LTYPE
  2
AIGENLINE001
 70
     0
  3
generate AI->DXF Converter
 72
    65
 73
     4
 40
5.8561449999999988
 49
3.5278
 49
-0.776115
 49
0.776115
 49
-0.776115
  0
ENDTAB
  0
TABLE
  2
LAYER
 70
     2
  0
LAYER
  2
0
 70
     0
 62
     7
  6
CONTINUOUS
  0
LAYER
  2
_________2
 70
     0
 62
     7
  6
CONTINUOUS
  0
ENDTAB
  0
TABLE
  2
STYLE
 70
     1
  0
STYLE
  2
STANDARD
 70
     0
 40
0.0
 41
0.0
 50
0.0
 71
     0
 42
0.0
  3
TXT
  4
EXTFONT.SHX
  0
ENDTAB
  0
TABLE
  2
VIEW
 70
     0
  0
ENDTAB
  0
TABLE
  2
UCS
 70
     0
  0
ENDTAB
  0
TABLE
  2
APPID
 70
     1
  0
APPID
  2
ACAD
 70
     0
  0
ENDTAB
  0
TABLE
  2
DIMSTYLE
 70
     1
  0
DIMSTYLE
  2
STANDARD
 70
     0
  3

  4

  5

  6

  7

 40
1.0
 41
0.18
 42
0.0625
 43
0.38
 44
0.18
 45
0.0
 46
0.0
 47
0.0
 48
0.0
140
0.18
141
0.09
142
0.0
143
25.399999999999999
144
1.0
145
0.0
146
1.0
147
0.09
 71
     0
 72
     0
 73
     1
 74
     1
 75
     0
 76
     0
 77
     0
 78
     0
170
     0
171
     2
172
     0
173
     0
174
     0
175
     0
176
     0
177
     0
178
     0
  0
ENDTAB
  0
ENDSEC
  0
SECTION
  2
BLOCKS
  0
BLOCK
  8
0
  2
$MODEL_SPACE
 70
     0
 10
0.0
 20
0.0
 30
0.0
  3
$MODEL_SPACE
  1

  0
ENDBLK
  5
1A
  8
0
  0
BLOCK
 67
     1
  8
0
  2
$PAPER_SPACE
 70
     0
 10
0.0
 20
0.0
 30
0.0
  3
$PAPER_SPACE
  1

  0
ENDBLK
  5
17
 67
     1
  8
0
  0
ENDSEC
  0
SECTION
  2
ENTITIES
  0
TEXT
  5
22
  8
0
 62
     7
 10
120.50237249999989
 20
162.22
 30
0.0
 40
3.0923400000000001
  1
60
 41
0.5
 72
     1
 11
121.66200000000001
 21
162.22
 31
0.0
  0
TEXT
  5
23
  8
0
 62
     7
 10
115.95099999999999
 20
71.469999999999999
 30
0.0
 40
3.0923400000000001
  1
%%c62
 41
0.5
  0
TEXT
  5
24
  8
0
 62
     7
 10
108.3513725
 20
162.22
 30
0.0
 40
3.0923400000000001
  1
60
 41
0.5
 72
     1
 11
109.511
 21
162.22
 31
0.0
  0
TEXT
  5
25
  8
0
 62
     7
 10
145.70099999999991
 20
120.68028750000001
 30
0.0
 40
3.0923400000000001
  1
670
 50
90.0
 41
0.5
 72
     1
 11
145.70099999999991
 21
122.6129999999999
 31
0.0
  0
TEXT
  5
26
  8
0
 62
     7
 10
137.977
 20
180.09937249999999
 30
0.0
 40
3.0923400000000001
  1
80
 50
90.0
 41
0.5
 72
     1
 11
137.977
 21
181.25899999999999
 31
0.0
  0
TEXT
  5
27
  8
0
 62
     7
 10
87.650300000000016
 20
190.9911349999999
 30
0.0
 40
3.0923400000000001
  1
200
 50
90.0
 41
0.5
 72
     1
 11
87.650300000000016
 21
192.7949999999999
 31
0.0
  0
TEXT
  5
28
  8
0
 62
     7
 10
117.7239999999999
 20
48.935099999999998
 30
0.0
 40
3.0923400000000001
  1
%%c25
 41
0.5
  0
ARC
  5
29
  8
0
 62
     7
 10
65.097773000000004
 20
181.87812799999989
 30
0.0
 40
0.781655
 50
42.999190999999989
 51
117.72726299999999
  0
ARC
  5
2A
  8
0
 62
     7
 10
65.084529000000003
 20
181.83199899999991
 30
0.0
 40
0.7857110000000001
 50
243.4281399999999
 51
318.11141099999992
  0
LINE
  5
2B
  8
0
 62
     7
 10
65.669399999999996
 20
181.30699999999999
 30
0.0
 11
65.354200000000006
 21
180.90700000000001
 31
0.0
  0
LINE
  5
2C
  8
0
 62
     7
 10
65.354200000000006
 20
182.90700000000001
 30
0.0
 11
65.669399999999996
 21
182.41099999999989
 31
0.0
  0
LINE
  5
2D
  8
0
 62
     7
 10
65.669399999999996
 20
181.30699999999999
 30
0.0
 11
65.669399999999996
 21
182.41099999999989
 31
0.0
  0
LINE
  5
2E
  8
0
 62
     7
 10
65.354200000000006
 20
180.90700000000001
 30
0.0
 11
64.734399999999994
 21
180.90700000000001
 31
0.0
  0
LINE
  5
2F
  8
0
 62
     7
 10
65.354200000000006
 20
182.90700000000001
 30
0.0
 11
64.734399999999994
 21
182.90700000000001
 31
0.0
  0
ARC
  5
30
  8
0
 62
     7
 10
59.010932999999987
 20
181.879851
 30
0.0
 40
0.780288
 50
62.355142000000001
 51
137.08003600000001
  0
ARC
  5
31
  8
0
 62
     7
 10
59.024314000000011
 20
181.83030600000001
 30
0.0
 40
0.7844860000000001
 50
221.80284900000001
 51
296.52869299999998
  0
LINE
  5
32
  8
0
 62
     7
 10
58.439500000000002
 20
181.30699999999999
 30
0.0
 11
58.754399999999997
 21
180.90700000000001
 31
0.0
  0
LINE
  5
33
  8
0
 62
     7
 10
58.754399999999997
 20
182.90700000000001
 30
0.0
 11
58.439500000000002
 21
182.41099999999989
 31
0.0
  0
LINE
  5
34
  8
0
 62
     7
 10
58.439500000000002
 20
181.30699999999999
 30
0.0
 11
58.439500000000002
 21
182.41099999999989
 31
0.0
  0
LINE
  5
35
  8
0
 62
     7
 10
58.754399999999997
 20
180.90700000000001
 30
0.0
 11
59.374400000000001
 21
180.90700000000001
 31
0.0
  0
LINE
  5
36
  8
0
 62
     7
 10
58.754399999999997
 20
182.90700000000001
 30
0.0
 11
59.374400000000001
 21
182.90700000000001
 31
0.0
  0
LINE
  5
37
  8
0
 62
     7
 10
64.526399999999995
 20
188.41099999999989
 30
0.0
 11
63.347099999999998
 21
188.41099999999989
 31
0.0
  0
LINE
  5
38
  8
0
 62
     7
 10
63.347099999999998
 20
187.30799999999991
 30
0.0
 11
64.526399999999995
 21
187.30799999999991
 31
0.0
  0
ARC
  5
39
  8
0
 62
     7
 10
62.054223999999991
 20
185.2468889999999
 30
0.0
 40
3.4642319999999991
 50
76.456341000000009
 51
89.995654999999999
  0
ARC
  5
3A
  8
0
 62
     7
 10
62.460262
 20
186.98339300000001
 30
0.0
 40
1.6809709999999991
 50
58.158487000000001
 51
76.050104000000005
  0
ARC
  5
3B
  8
0
 62
     7
 10
65.135036999999997
 20
187.7914759999999
 30
0.0
 40
0.8687879999999999
 50
76.899959999999993
 51
134.47579999999991
  0
ARC
  5
3C
  8
0
 62
     7
 10
65.125256999999991
 20
187.96449799999991
 30
0.0
 40
0.704174
 50
39.393405999999992
 51
72.930868000000004
  0
ARC
  5
3D
  8
0
 62
     7
 10
62.054743999999992
 20
190.08233899999999
 30
0.0
 40
3.1747359999999998
 50
269.99534999999992
 51
283.85521999999997
  0
ARC
  5
3E
  8
0
 62
     7
 10
62.537282999999988
 20
188.094379
 30
0.0
 40
1.1290910000000001
 50
284.23864800000001
 51
315.82575400000002
  0
ARC
  5
3F
  8
0
 62
     7
 10
65.068820000000002
 20
187.72977700000001
 30
0.0
 40
0.687398
 50
217.89345599999999
 51
285.95392399999997
  0
ARC
  5
40
  8
0
 62
     7
 10
65.095928000000001
 20
187.822283
 30
0.0
 40
0.770612
 50
282.12272000000002
 51
318.093749
  0
LINE
  5
41
  8
0
 62
     7
 10
65.669399999999996
 20
187.30799999999991
 30
0.0
 11
65.354200000000006
 21
186.9079999999999
 31
0.0
  0
LINE
  5
42
  8
0
 62
     7
 10
65.354200000000006
 20
188.9079999999999
 30
0.0
 11
65.669399999999996
 21
188.41099999999989
 31
0.0
  0
LINE
  5
43
  8
0
 62
     7
 10
63.347099999999998
 20
187.30799999999991
 30
0.0
 11
63.347099999999998
 21
188.41099999999989
 31
0.0
  0
LINE
  5
44
  8
0
 62
     7
 10
64.526399999999995
 20
187.30799999999991
 30
0.0
 11
64.526399999999995
 21
188.41099999999989
 31
0.0
  0
LINE
  5
45
  8
0
 62
     7
 10
65.669399999999996
 20
187.30799999999991
 30
0.0
 11
65.669399999999996
 21
188.41099999999989
 31
0.0
  0
LINE
  5
46
  8
0
 62
     7
 10
65.354200000000006
 20
186.9079999999999
 30
0.0
 11
62.05449999999999
 21
186.9079999999999
 31
0.0
  0
LINE
  5
47
  8
0
 62
     7
 10
65.354200000000006
 20
188.9079999999999
 30
0.0
 11
62.05449999999999
 21
188.9079999999999
 31
0.0
  0
LINE
  5
48
  8
0
 62
     7
 10
59.582599999999999
 20
188.41099999999989
 30
0.0
 11
60.761899999999997
 21
188.41099999999989
 31
0.0
  0
LINE
  5
49
  8
0
 62
     7
 10
60.761899999999997
 20
187.30799999999991
 30
0.0
 11
59.582599999999999
 21
187.30799999999991
 31
0.0
  0
ARC
  5
4A
  8
0
 62
     7
 10
62.054747999999996
 20
185.2468889999999
 30
0.0
 40
3.4642319999999991
 50
90.004324999999994
 51
103.5436389999999
  0
ARC
  5
4B
  8
0
 62
     7
 10
61.648709999999987
 20
186.98339300000001
 30
0.0
 40
1.6809709999999991
 50
103.9498759999999
 51
121.841493
  0
ARC
  5
4C
  8
0
 62
     7
 10
58.973934
 20
187.7914759999999
 30
0.0
 40
0.8687879999999999
 50
45.524180000000001
 51
103.10002
  0
ARC
  5
4D
  8
0
 62
     7
 10
58.983714999999997
 20
187.96449799999991
 30
0.0
 40
0.704174
 50
107.069112
 51
140.60657399999999
  0
ARC
  5
4E
  8
0
 62
     7
 10
62.054226999999997
 20
190.08233899999999
 30
0.0
 40
3.1747359999999998
 50
256.14479999999992
 51
270.00466999999998
  0
ARC
  5
4F
  8
0
 62
     7
 10
61.571688000000002
 20
188.094379
 30
0.0
 40
1.1290910000000001
 50
224.1742659999999
 51
255.76137199999999
  0
ARC
  5
50
  8
0
 62
     7
 10
59.040151000000002
 20
187.72977700000001
 30
0.0
 40
0.687398
 50
254.04609600000001
 51
322.10656299999999
  0
ARC
  5
51
  8
0
 62
     7
 10
59.013043999999987
 20
187.822283
 30
0.0
 40
0.770612
 50
221.906271
 51
257.87729999999988
  0
LINE
  5
52
  8
0
 62
     7
 10
58.439500000000002
 20
187.30799999999991
 30
0.0
 11
58.754600000000003
 21
186.9079999999999
 31
0.0
  0
LINE
  5
53
  8
0
 62
     7
 10
58.754600000000003
 20
188.9079999999999
 30
0.0
 11
58.439500000000002
 21
188.41099999999989
 31
0.0
  0
LINE
  5
54
  8
0
 62
     7
 10
60.761899999999997
 20
187.30799999999991
 30
0.0
 11
60.761899999999997
 21
188.41099999999989
 31
0.0
  0
LINE
  5
55
  8
0
 62
     7
 10
59.582599999999999
 20
187.30799999999991
 30
0.0
 11
59.582599999999999
 21
188.41099999999989
 31
0.0
  0
LINE
  5
56
  8
0
 62
     7
 10
58.439500000000002
 20
187.30799999999991
 30
0.0
 11
58.439500000000002
 21
188.41099999999989
 31
0.0
  0
LINE
  5
57
  8
0
 62
     7
 10
58.754600000000003
 20
186.9079999999999
 30
0.0
 11
62.05449999999999
 21
186.9079999999999
 31
0.0
  0
LINE
  5
58
  8
0
 62
     7
 10
58.754600000000003
 20
188.9079999999999
 30
0.0
 11
62.05449999999999
 21
188.9079999999999
 31
0.0
  0
LINE
  5
59
  8
0
 62
     7
 10
118.059
 20
182.41099999999989
 30
0.0
 11
116.87899999999991
 21
182.41099999999989
 31
0.0
  0
LINE
  5
5A
  8
0
 62
     7
 10
116.87899999999991
 20
181.30699999999999
 30
0.0
 11
118.059
 21
181.30699999999999
 31
0.0
  0
ARC
  5
5B
  8
0
 62
     7
 10
115.586523
 20
179.246701
 30
0.0
 40
3.4642319999999991
 50
76.456341000000009
 51
89.995654999999999
  0
ARC
  5
5C
  8
0
 62
     7
 10
115.992496
 20
180.98305199999999
 30
0.0
 40
1.6811349999999989
 50
58.159368000000001
 51
76.049223999999995
  0
ARC
  5
5D
  8
0
 62
     7
 10
118.66746599999991
 20
181.79081999999991
 30
0.0
 40
0.8692129999999998
 50
76.915642000000005
 51
134.460317
  0
ARC
  5
5E
  8
0
 62
     7
 10
118.657577
 20
181.96433499999989
 30
0.0
 40
0.7041420000000001
 50
39.392834000000001
 51
72.932286000000005
  0
ARC
  5
5F
  8
0
 62
     7
 10
115.58704299999999
 20
184.08215000000001
 30
0.0
 40
3.1747359999999998
 50
269.99534999999992
 51
283.85521999999997
  0
ARC
  5
60
  8
0
 62
     7
 10
116.069582
 20
182.09419099999991
 30
0.0
 40
1.1290910000000001
 50
284.23864800000001
 51
315.82575400000002
  0
ARC
  5
61
  8
0
 62
     7
 10
118.60112099999991
 20
181.72958999999989
 30
0.0
 40
0.6874000000000001
 50
217.89346900000001
 51
285.95416099999989
  0
ARC
  5
62
  8
0
 62
     7
 10
118.62823999999991
 20
181.82206799999989
 30
0.0
 40
0.7705850000000001
 50
282.12256899999988
 51
318.09455000000003
  0
LINE
  5
63
  8
0
 62
     7
 10
119.202
 20
181.30699999999999
 30
0.0
 11
118.887
 21
180.90700000000001
 31
0.0
  0
LINE
  5
64
  8
0
 62
     7
 10
118.887
 20
182.90700000000001
 30
0.0
 11
119.202
 21
182.41099999999989
 31
0.0
  0
LINE
  5
65
  8
0
 62
     7
 10
116.87899999999991
 20
181.30699999999999
 30
0.0
 11
116.87899999999991
 21
182.41099999999989
 31
0.0
  0
LINE
  5
66
  8
0
 62
     7
 10
118.059
 20
181.30699999999999
 30
0.0
 11
118.059
 21
182.41099999999989
 31
0.0
  0
LINE
  5
67
  8
0
 62
     7
 10
119.202
 20
181.30699999999999
 30
0.0
 11
119.202
 21
182.41099999999989
 31
0.0
  0
LINE
  5
68
  8
0
 62
     7
 10
118.887
 20
180.90700000000001
 30
0.0
 11
115.5869999999999
 21
180.90700000000001
 31
0.0
  0
LINE
  5
69
  8
0
 62
     7
 10
118.887
 20
182.90700000000001
 30
0.0
 11
115.5869999999999
 21
182.90700000000001
 31
0.0
  0
LINE
  5
6A
  8
0
 62
     7
 10
113.1149999999999
 20
182.41099999999989
 30
0.0
 11
114.294
 21
182.41099999999989
 31
0.0
  0
LINE
  5
6B
  8
0
 62
     7
 10
114.294
 20
181.30699999999999
 30
0.0
 11
113.1149999999999
 21
181.30699999999999
 31
0.0
  0
ARC
  5
6C
  8
0
 62
     7
 10
115.5870469999999
 20
179.246701
 30
0.0
 40
3.4642319999999991
 50
90.004324999999994
 51
103.5436389999999
  0
ARC
  5
6D
  8
0
 62
     7
 10
115.181073
 20
180.98305199999999
 30
0.0
 40
1.6811349999999989
 50
103.950756
 51
121.84061299999991
  0
ARC
  5
6E
  8
0
 62
     7
 10
112.5061029999999
 20
181.79081999999991
 30
0.0
 40
0.8692129999999998
 50
45.53966299999999
 51
103.084338
  0
ARC
  5
6F
  8
0
 62
     7
 10
112.5159929999999
 20
181.96433499999989
 30
0.0
 40
0.7041420000000001
 50
107.067694
 51
140.607147
  0
ARC
  5
70
  8
0
 62
     7
 10
115.586527
 20
184.08215000000001
 30
0.0
 40
3.1747359999999998
 50
256.14479999999992
 51
270.00466999999998
  0
ARC
  5
71
  8
0
 62
     7
 10
115.1039879999999
 20
182.09419099999991
 30
0.0
 40
1.1290910000000001
 50
224.1742659999999
 51
255.76137199999999
  0
ARC
  5
72
  8
0
 62
     7
 10
112.57244799999989
 20
181.72958999999989
 30
0.0
 40
0.6874000000000001
 50
254.04585899999989
 51
322.10655099999991
  0
ARC
  5
73
  8
0
 62
     7
 10
112.54532999999989
 20
181.82206799999989
 30
0.0
 40
0.7705850000000001
 50
221.90547000000001
 51
257.87745099999989
  0
LINE
  5
74
  8
0
 62
     7
 10
111.97199999999999
 20
181.30699999999999
 30
0.0
 11
112.28700000000001
 21
180.90700000000001
 31
0.0
  0
LINE
  5
75
  8
0
 62
     7
 10
112.28700000000001
 20
182.90700000000001
 30
0.0
 11
111.97199999999999
 21
182.41099999999989
 31
0.0
  0
LINE
  5
76
  8
0
 62
     7
 10
114.294
 20
181.30699999999999
 30
0.0
 11
114.294
 21
182.41099999999989
 31
0.0
  0
LINE
  5
77
  8
0
 62
     7
 10
113.1149999999999
 20
181.30699999999999
 30
0.0
 11
113.1149999999999
 21
182.41099999999989
 31
0.0
  0
LINE
  5
78
  8
0
 62
     7
 10
111.97199999999999
 20
181.30699999999999
 30
0.0
 11
111.97199999999999
 21
182.41099999999989
 31
0.0
  0
LINE
  5
79
  8
0
 62
     7
 10
112.28700000000001
 20
180.90700000000001
 30
0.0
 11
115.5869999999999
 21
180.90700000000001
 31
0.0
  0
LINE
  5
7A
  8
0
 62
     7
 10
112.28700000000001
 20
182.90700000000001
 30
0.0
 11
115.5869999999999
 21
182.90700000000001
 31
0.0
  0
LINE
  5
7B
  8
0
 62
     7
 10
106.05799999999989
 20
188.41099999999989
 30
0.0
 11
104.87899999999991
 21
188.41099999999989
 31
0.0
  0
LINE
  5
7C
  8
0
 62
     7
 10
104.87899999999991
 20
187.30799999999991
 30
0.0
 11
106.05799999999989
 21
187.30799999999991
 31
0.0
  0
ARC
  5
7D
  8
0
 62
     7
 10
103.586146
 20
185.2468889999999
 30
0.0
 40
3.4642319999999991
 50
76.456341000000009
 51
89.995654999999999
  0
ARC
  5
7E
  8
0
 62
     7
 10
103.9921189999999
 20
186.98323999999991
 30
0.0
 40
1.6811349999999989
 50
58.159368000000001
 51
76.049223999999995
  0
ARC
  5
7F
  8
0
 62
     7
 10
106.6670889999999
 20
187.79100800000001
 30
0.0
 40
0.8692129999999998
 50
76.915642000000005
 51
134.460317
  0
ARC
  5
80
  8
0
 62
     7
 10
106.6572
 20
187.96452400000001
 30
0.0
 40
0.7041420000000001
 50
39.392834000000001
 51
72.932286000000005
  0
ARC
  5
81
  8
0
 62
     7
 10
103.58666599999999
 20
190.08233899999999
 30
0.0
 40
3.1747359999999998
 50
269.99534999999992
 51
283.85521999999997
  0
ARC
  5
82
  8
0
 62
     7
 10
104.069205
 20
188.094379
 30
0.0
 40
1.1290910000000001
 50
284.23864800000001
 51
315.82575400000002
  0
ARC
  5
83
  8
0
 62
     7
 10
106.60074399999991
 20
187.72977800000001
 30
0.0
 40
0.6874000000000001
 50
217.89346900000001
 51
285.95416099999989
  0
ARC
  5
84
  8
0
 62
     7
 10
106.627863
 20
187.82225700000001
 30
0.0
 40
0.7705850000000001
 50
282.12256899999988
 51
318.09455000000003
  0
LINE
  5
85
  8
0
 62
     7
 10
107.20099999999999
 20
187.30799999999991
 30
0.0
 11
106.886
 21
186.9079999999999
 31
0.0
  0
LINE
  5
86
  8
0
 62
     7
 10
106.886
 20
188.9079999999999
 30
0.0
 11
107.20099999999999
 21
188.41099999999989
 31
0.0
  0
LINE
  5
87
  8
0
 62
     7
 10
104.87899999999991
 20
187.30799999999991
 30
0.0
 11
104.87899999999991
 21
188.41099999999989
 31
0.0
  0
LINE
  5
88
  8
0
 62
     7
 10
106.05799999999989
 20
187.30799999999991
 30
0.0
 11
106.05799999999989
 21
188.41099999999989
 31
0.0
  0
LINE
  5
89
  8
0
 62
     7
 10
107.20099999999999
 20
187.30799999999991
 30
0.0
 11
107.20099999999999
 21
188.41099999999989
 31
0.0
  0
LINE
  5
8A
  8
0
 62
     7
 10
106.886
 20
186.9079999999999
 30
0.0
 11
103.586
 21
186.9079999999999
 31
0.0
  0
LINE
  5
8B
  8
0
 62
     7
 10
106.886
 20
188.9079999999999
 30
0.0
 11
103.586
 21
188.9079999999999
 31
0.0
  0
LINE
  5
8C
  8
0
 62
     7
 10
101.1149999999999
 20
188.41099999999989
 30
0.0
 11
102.2939999999999
 21
188.41099999999989
 31
0.0
  0
LINE
  5
8D
  8
0
 62
     7
 10
102.2939999999999
 20
187.30799999999991
 30
0.0
 11
101.1149999999999
 21
187.30799999999991
 31
0.0
  0
ARC
  5
8E
  8
0
 62
     7
 10
103.5866699999999
 20
185.2468889999999
 30
0.0
 40
3.4642319999999991
 50
90.004324999999994
 51
103.5436389999999
  0
ARC
  5
8F
  8
0
 62
     7
 10
103.1806969999999
 20
186.98323999999991
 30
0.0
 40
1.6811349999999989
 50
103.950756
 51
121.84061299999991
  0
ARC
  5
90
  8
0
 62
     7
 10
100.505726
 20
187.79100800000001
 30
0.0
 40
0.8692129999999998
 50
45.53966299999999
 51
103.084338
  0
ARC
  5
91
  8
0
 62
     7
 10
100.51561599999999
 20
187.96452400000001
 30
0.0
 40
0.7041420000000001
 50
107.067694
 51
140.607147
  0
ARC
  5
92
  8
0
 62
     7
 10
103.5861499999999
 20
190.08233899999999
 30
0.0
 40
3.1747359999999998
 50
256.14479999999992
 51
270.00466999999998
  0
ARC
  5
93
  8
0
 62
     7
 10
103.103611
 20
188.094379
 30
0.0
 40
1.1290910000000001
 50
224.1742659999999
 51
255.76137199999999
  0
ARC
  5
94
  8
0
 62
     7
 10
100.57207099999989
 20
187.72977800000001
 30
0.0
 40
0.6874000000000001
 50
254.04585899999989
 51
322.10655099999991
  0
ARC
  5
95
  8
0
 62
     7
 10
100.54495300000001
 20
187.82225700000001
 30
0.0
 40
0.7705850000000001
 50
221.90547000000001
 51
257.87745099999989
  0
LINE
  5
96
  8
0
 62
     7
 10
99.971400000000017
 20
187.30799999999991
 30
0.0
 11
100.28700000000001
 21
186.9079999999999
 31
0.0
  0
LINE
  5
97
  8
0
 62
     7
 10
100.28700000000001
 20
188.9079999999999
 30
0.0
 11
99.971400000000017
 21
188.41099999999989
 31
0.0
  0
LINE
  5
98
  8
0
 62
     7
 10
102.2939999999999
 20
187.30799999999991
 30
0.0
 11
102.2939999999999
 21
188.41099999999989
 31
0.0
  0
LINE
  5
99
  8
0
 62
     7
 10
101.1149999999999
 20
187.30799999999991
 30
0.0
 11
101.1149999999999
 21
188.41099999999989
 31
0.0
  0
LINE
  5
9A
  8
0
 62
     7
 10
99.971400000000017
 20
187.30799999999991
 30
0.0
 11
99.971400000000017
 21
188.41099999999989
 31
0.0
  0
ARC
  5
9B
  8
0
 62
     7
 10
127.68414900000001
 20
235.695089
 30
0.0
 40
6.3532279999999988
 50
90.880904000000001
 51
155.31851399999999
  0
ARC
  5
9C
  8
0
 62
     7
 10
127.586558
 20
235.84747300000001
 30
0.0
 40
6.2000919999999988
 50
0.000806
 51
90.000776000000002
  0
ARC
  5
9D
  8
0
 62
     7
 10
127.586558
 20
235.84764699999999
 30
0.0
 40
6.2000919999999988
 50
269.99922400000003
 51
359.99919399999999
  0
ARC
  5
9E
  8
0
 62
     7
 10
127.6833279999999
 20
235.99893999999989
 30
0.0
 40
6.352123999999999
 50
204.67009699999991
 51
269.12634400000002
  0
ARC
  5
9F
  8
0
 62
     7
 10
58.453993999999987
 20
61.706701000000002
 30
0.0
 40
2.5998579999999998
 50
90.003795999999994
 51
180.003806
  0
ARC
  5
A0
  8
0
 62
     7
 10
65.623019999999997
 20
61.693829999999998
 30
0.0
 40
2.6315019999999998
 50
0.276495
 51
44.711444
  0
ARC
  5
A1
  8
0
 62
     7
 10
65.640926000000007
 20
61.673068999999991
 30
0.0
 40
2.6335250000000001
 50
45.306525999999977
 51
89.705515000000005
  0
LINE
  5
A2
  8
0
 62
     7
 10
55.854100000000003
 20
61.706499999999998
 30
0.0
 11
55.854100000000003
 21
61.306600000000003
 31
0.0
  0
LINE
  5
A3
  8
0
 62
     7
 10
68.254499999999993
 20
61.706499999999998
 30
0.0
 11
68.254499999999993
 21
61.306600000000003
 31
0.0
  0
LINE
  5
A4
  8
0
 62
     7
 10
65.654099999999985
 20
64.306600000000003
 30
0.0
 11
58.453800000000001
 21
64.306600000000003
 31
0.0
  0
LINE
  5
A5
  8
0
 62
     7
 10
68.254499999999993
 20
61.306600000000003
 30
0.0
 11
55.854100000000003
 21
61.306600000000003
 31
0.0
  0
LINE
  5
A6
  8
0
 62
     7
 10
64.554400000000001
 20
61.306600000000003
 30
0.0
 11
64.554400000000001
 21
55.3065
 31
0.0
  0
LINE
  5
A7
  8
0
 62
     7
 10
125.087
 20
48.0456
 30
0.0
 11
117.48099999999999
 21
48.0456
 31
0.0
  0
LINE
  5
A8
  8
0
 62
     7
 10
122.876
 20
47.460599999999992
 30
0.0
 11
125.087
 21
48.052500000000002
 31
0.0
  0
LINE
  5
A9
  8
0
 62
     7
 10
125.087
 20
48.052500000000002
 30
0.0
 11
122.876
 21
48.645099999999999
 31
0.0
  0
LINE
  5
AA
  8
0
 62
     7
 10
122.876
 20
48.645099999999999
 30
0.0
 11
122.876
 21
47.460599999999992
 31
0.0
  0
LINE
  5
AB
  8
0
 62
     7
 10
132.29699999999991
 20
48.630600000000001
 30
0.0
 11
130.08699999999999
 21
48.038400000000003
 31
0.0
  0
LINE
  5
AC
  8
0
 62
     7
 10
130.08699999999999
 20
48.038400000000003
 30
0.0
 11
132.29699999999991
 21
47.445799999999998
 31
0.0
  0
LINE
  5
AD
  8
0
 62
     7
 10
132.29699999999991
 20
47.445799999999998
 30
0.0
 11
132.29699999999991
 21
48.630600000000001
 31
0.0
  0
LINE
  5
AE
  8
0
 62
     7
 10
133.83799999999991
 20
48.0456
 30
0.0
 11
125.087
 21
48.0456
 31
0.0
  0
LINE
  5
AF
  8
0
 62
     7
 10
121.387
 20
71.316299999999998
 30
0.0
 11
121.387
 21
63.886899999999997
 31
0.0
  0
LINE
  5
B0
  8
0
 62
     7
 10
125.087
 20
54.488999999999997
 30
0.0
 11
125.087
 21
47.345599999999997
 31
0.0
  0
LINE
  5
B1
  8
0
 62
     7
 10
130.08699999999999
 20
54.488999999999997
 30
0.0
 11
130.08699999999999
 21
47.352400000000003
 31
0.0
  0
LINE
  5
B2
  8
0
 62
     7
 10
133.78700000000001
 20
71.316299999999998
 30
0.0
 11
133.78700000000001
 21
63.886899999999997
 31
0.0
  0
LINE
  5
B3
  8
0
 62
     7
 10
123.59699999999999
 20
71.193700000000007
 30
0.0
 11
121.387
 21
70.601799999999983
 31
0.0
  0
LINE
  5
B4
  8
0
 62
     7
 10
121.387
 20
70.601799999999983
 30
0.0
 11
123.59699999999999
 21
70.009299999999996
 31
0.0
  0
LINE
  5
B5
  8
0
 62
     7
 10
123.59699999999999
 20
70.009299999999996
 30
0.0
 11
123.59699999999999
 21
71.193700000000007
 31
0.0
  0
LINE
  5
B6
  8
0
 62
     7
 10
131.577
 20
70.023700000000005
 30
0.0
 11
133.78700000000001
 21
70.616299999999995
 31
0.0
  0
LINE
  5
B7
  8
0
 62
     7
 10
133.78700000000001
 20
70.616299999999995
 30
0.0
 11
131.577
 21
71.208500000000001
 31
0.0
  0
LINE
  5
B8
  8
0
 62
     7
 10
131.577
 20
71.208500000000001
 30
0.0
 11
131.577
 21
70.023700000000005
 31
0.0
  0
LINE
  5
B9
  8
0
 62
     7
 10
115.7299999999999
 20
70.608699999999999
 30
0.0
 11
133.78700000000001
 21
70.608699999999999
 31
0.0
  0
LINE
  5
BA
  8
0
 62
     7
 10
103.586
 20
176.58500000000001
 30
0.0
 11
103.586
 21
160.40700000000001
 31
0.0
  0
LINE
  5
BB
  8
0
 62
     7
 10
115.5869999999999
 20
176.58500000000001
 30
0.0
 11
115.5869999999999
 21
160.40700000000001
 31
0.0
  0
LINE
  5
BC
  8
0
 62
     7
 10
117.797
 20
161.79199999999989
 30
0.0
 11
115.5869999999999
 21
161.1999999999999
 31
0.0
  0
LINE
  5
BD
  8
0
 62
     7
 10
115.5869999999999
 20
161.1999999999999
 30
0.0
 11
117.797
 21
160.608
 31
0.0
  0
LINE
  5
BE
  8
0
 62
     7
 10
117.797
 20
160.608
 30
0.0
 11
117.797
 21
161.79199999999989
 31
0.0
  0
LINE
  5
BF
  8
0
 62
     7
 10
105.797
 20
161.79199999999989
 30
0.0
 11
103.586
 21
161.1999999999999
 31
0.0
  0
LINE
  5
C0
  8
0
 62
     7
 10
103.586
 20
161.1999999999999
 30
0.0
 11
105.797
 21
160.608
 31
0.0
  0
LINE
  5
C1
  8
0
 62
     7
 10
105.797
 20
160.608
 30
0.0
 11
105.797
 21
161.79199999999989
 31
0.0
  0
LINE
  5
C2
  8
0
 62
     7
 10
113.376
 20
160.62200000000001
 30
0.0
 11
115.5869999999999
 21
161.21499999999989
 31
0.0
  0
LINE
  5
C3
  8
0
 62
     7
 10
115.5869999999999
 20
161.21499999999989
 30
0.0
 11
113.376
 21
161.80699999999999
 31
0.0
  0
LINE
  5
C4
  8
0
 62
     7
 10
113.376
 20
161.80699999999999
 30
0.0
 11
113.376
 21
160.62200000000001
 31
0.0
  0
LINE
  5
C5
  8
0
 62
     7
 10
125.37599999999991
 20
160.62200000000001
 30
0.0
 11
127.587
 21
161.21499999999989
 31
0.0
  0
LINE
  5
C6
  8
0
 62
     7
 10
127.587
 20
161.21499999999989
 30
0.0
 11
125.37599999999991
 21
161.80699999999999
 31
0.0
  0
LINE
  5
C7
  8
0
 62
     7
 10
125.37599999999991
 20
161.80699999999999
 30
0.0
 11
125.37599999999991
 21
160.62200000000001
 31
0.0
  0
LINE
  5
C8
  8
0
 62
     7
 10
103.586
 20
161.20699999999991
 30
0.0
 11
127.587
 21
161.20699999999991
 31
0.0
  0
LINE
  5
C9
  8
0
 62
     7
 10
97.568299999999994
 20
213.30799999999999
 30
0.0
 11
87.786600000000007
 21
213.30799999999999
 31
0.0
  0
LINE
  5
CA
  8
0
 62
     7
 10
106.76299999999991
 20
173.30699999999999
 30
0.0
 11
87.786600000000007
 21
173.30699999999999
 31
0.0
  0
LINE
  5
CB
  8
0
 62
     7
 10
88.001599999999996
 20
175.518
 30
0.0
 11
88.593799999999987
 21
173.30699999999999
 31
0.0
  0
LINE
  5
CC
  8
0
 62
     7
 10
88.593799999999987
 20
173.30699999999999
 30
0.0
 11
89.186199999999999
 21
175.518
 31
0.0
  0
LINE
  5
CD
  8
0
 62
     7
 10
89.186199999999999
 20
175.518
 30
0.0
 11
88.001599999999996
 21
175.518
 31
0.0
  0
LINE
  5
CE
  8
0
 62
     7
 10
89.171499999999995
 20
211.09700000000001
 30
0.0
 11
88.579300000000003
 21
213.30799999999999
 31
0.0
  0
LINE
  5
CF
  8
0
 62
     7
 10
88.579300000000003
 20
213.30799999999999
 30
0.0
 11
87.986900000000006
 21
211.09700000000001
 31
0.0
  0
LINE
  5
D0
  8
0
 62
     7
 10
87.986900000000006
 20
211.09700000000001
 30
0.0
 11
89.171499999999995
 21
211.09700000000001
 31
0.0
  0
LINE
  5
D1
  8
0
 62
     7
 10
88.586500000000001
 20
173.30699999999999
 30
0.0
 11
88.586500000000001
 21
213.30799999999999
 31
0.0
  0
LINE
  5
D2
  8
0
 62
     7
 10
112.026
 20
173.30699999999999
 30
0.0
 11
139.67099999999991
 21
173.30699999999999
 31
0.0
  0
LINE
  5
D3
  8
0
 62
     7
 10
139.45599999999999
 20
187.09699999999989
 30
0.0
 11
138.864
 21
189.30699999999999
 31
0.0
  0
LINE
  5
D4
  8
0
 62
     7
 10
138.864
 20
189.30699999999999
 30
0.0
 11
138.27099999999999
 21
187.09699999999989
 31
0.0
  0
LINE
  5
D5
  8
0
 62
     7
 10
138.27099999999999
 20
187.09699999999989
 30
0.0
 11
139.45599999999999
 21
187.09699999999989
 31
0.0
  0
LINE
  5
D6
  8
0
 62
     7
 10
138.28599999999989
 20
175.518
 30
0.0
 11
138.8779999999999
 21
173.30699999999999
 31
0.0
  0
LINE
  5
D7
  8
0
 62
     7
 10
138.8779999999999
 20
173.30699999999999
 30
0.0
 11
139.47
 21
175.518
 31
0.0
  0
LINE
  5
D8
  8
0
 62
     7
 10
139.47
 20
175.518
 30
0.0
 11
138.28599999999989
 21
175.518
 31
0.0
  0
LINE
  5
D9
  8
0
 62
     7
 10
138.87100000000001
 20
189.30699999999999
 30
0.0
 11
138.87100000000001
 21
173.30699999999999
 31
0.0
  0
ARC
  5
DA
  8
0
 62
     7
 10
62.054398999999997
 20
173.307571
 30
0.0
 40
2.500035
 50
180.00198399999999
 51
270.00199399999991
  0
ARC
  5
DB
  8
0
 62
     7
 10
62.054485
 20
173.30748600000001
 30
0.0
 40
2.4999500000000001
 50
270.00002000000001
 51
359.99998999999991
  0
LINE
  5
DC
  8
0
 62
     7
 10
65.1935
 20
205.0679999999999
 30
0.0
 11
65.167000000000002
 21
205.262
 31
0.0
  0
LINE
  5
DD
  8
0
 62
     7
 10
65.167000000000002
 20
205.262
 30
0.0
 11
65.088300000000004
 21
205.447
 31
0.0
  0
LINE
  5
DE
  8
0
 62
     7
 10
65.088300000000004
 20
205.447
 30
0.0
 11
64.959800000000001
 21
205.619
 31
0.0
  0
LINE
  5
DF
  8
0
 62
     7
 10
64.959800000000001
 20
205.619
 30
0.0
 11
64.786600000000007
 21
205.77000000000001
 31
0.0
  0
LINE
  5
E0
  8
0
 62
     7
 10
64.786600000000007
 20
205.77000000000001
 30
0.0
 11
64.575800000000001
 21
205.89400000000001
 31
0.0
  0
LINE
  5
E1
  8
0
 62
     7
 10
64.575800000000001
 20
205.89400000000001
 30
0.0
 11
64.335700000000003
 21
205.9849999999999
 31
0.0
  0
LINE
  5
E2
  8
0
 62
     7
 10
64.335700000000003
 20
205.9849999999999
 30
0.0
 11
64.075699999999983
 21
206.042
 31
0.0
  0
LINE
  5
E3
  8
0
 62
     7
 10
64.075699999999983
 20
206.042
 30
0.0
 11
63.804400000000001
 21
206.06099999999989
 31
0.0
  0
LINE
  5
E4
  8
0
 62
     7
 10
63.804400000000001
 20
206.06099999999989
 30
0.0
 11
63.533099999999997
 21
206.042
 31
0.0
  0
LINE
  5
E5
  8
0
 62
     7
 10
63.533099999999997
 20
206.042
 30
0.0
 11
63.273400000000002
 21
205.9849999999999
 31
0.0
  0
LINE
  5
E6
  8
0
 62
     7
 10
63.273400000000002
 20
205.9849999999999
 30
0.0
 11
63.033200000000001
 21
205.89400000000001
 31
0.0
  0
LINE
  5
E7
  8
0
 62
     7
 10
63.033200000000001
 20
205.89400000000001
 30
0.0
 11
62.822200000000002
 21
205.77000000000001
 31
0.0
  0
LINE
  5
E8
  8
0
 62
     7
 10
62.822200000000002
 20
205.77000000000001
 30
0.0
 11
62.649099999999997
 21
205.619
 31
0.0
  0
LINE
  5
E9
  8
0
 62
     7
 10
62.649099999999997
 20
205.619
 30
0.0
 11
62.520600000000002
 21
205.447
 31
0.0
  0
LINE
  5
EA
  8
0
 62
     7
 10
62.520600000000002
 20
205.447
 30
0.0
 11
62.44189999999999
 21
205.262
 31
0.0
  0
LINE
  5
EB
  8
0
 62
     7
 10
62.44189999999999
 20
205.262
 30
0.0
 11
62.415399999999998
 21
205.0679999999999
 31
0.0
  0
LINE
  5
EC
  8
0
 62
     7
 10
62.415399999999998
 20
205.0679999999999
 30
0.0
 11
62.44189999999999
 21
204.874
 31
0.0
  0
LINE
  5
ED
  8
0
 62
     7
 10
62.44189999999999
 20
204.874
 30
0.0
 11
62.520600000000002
 21
204.6879999999999
 31
0.0
  0
LINE
  5
EE
  8
0
 62
     7
 10
62.520600000000002
 20
204.6879999999999
 30
0.0
 11
62.649099999999997
 21
204.51599999999999
 31
0.0
  0
LINE
  5
EF
  8
0
 62
     7
 10
62.649099999999997
 20
204.51599999999999
 30
0.0
 11
62.822200000000002
 21
204.3649999999999
 31
0.0
  0
LINE
  5
F0
  8
0
 62
     7
 10
62.822200000000002
 20
204.3649999999999
 30
0.0
 11
63.033200000000001
 21
204.2409999999999
 31
0.0
  0
LINE
  5
F1
  8
0
 62
     7
 10
63.033200000000001
 20
204.2409999999999
 30
0.0
 11
63.273400000000002
 21
204.15000000000001
 31
0.0
  0
LINE
  5
F2
  8
0
 62
     7
 10
63.273400000000002
 20
204.15000000000001
 30
0.0
 11
63.533099999999997
 21
204.0929999999999
 31
0.0
  0
LINE
  5
F3
  8
0
 62
     7
 10
63.533099999999997
 20
204.0929999999999
 30
0.0
 11
63.804400000000001
 21
204.0739999999999
 31
0.0
  0
LINE
  5
F4
  8
0
 62
     7
 10
63.804400000000001
 20
204.0739999999999
 30
0.0
 11
64.075699999999983
 21
204.0929999999999
 31
0.0
  0
LINE
  5
F5
  8
0
 62
     7
 10
64.075699999999983
 20
204.0929999999999
 30
0.0
 11
64.335700000000003
 21
204.15000000000001
 31
0.0
  0
LINE
  5
F6
  8
0
 62
     7
 10
64.335700000000003
 20
204.15000000000001
 30
0.0
 11
64.575800000000001
 21
204.2409999999999
 31
0.0
  0
LINE
  5
F7
  8
0
 62
     7
 10
64.575800000000001
 20
204.2409999999999
 30
0.0
 11
64.786600000000007
 21
204.3649999999999
 31
0.0
  0
LINE
  5
F8
  8
0
 62
     7
 10
64.786600000000007
 20
204.3649999999999
 30
0.0
 11
64.959800000000001
 21
204.51599999999999
 31
0.0
  0
LINE
  5
F9
  8
0
 62
     7
 10
64.959800000000001
 20
204.51599999999999
 30
0.0
 11
65.088300000000004
 21
204.6879999999999
 31
0.0
  0
LINE
  5
FA
  8
0
 62
     7
 10
65.088300000000004
 20
204.6879999999999
 30
0.0
 11
65.167000000000002
 21
204.874
 31
0.0
  0
LINE
  5
FB
  8
0
 62
     7
 10
65.167000000000002
 20
204.874
 30
0.0
 11
65.1935
 21
205.0679999999999
 31
0.0
  0
LINE
  5
FC
  8
0
 62
     7
 10
61.693600000000011
 20
205.0679999999999
 30
0.0
 11
61.666899999999998
 21
205.262
 31
0.0
  0
LINE
  5
FD
  8
0
 62
     7
 10
61.666899999999998
 20
205.262
 30
0.0
 11
61.588200000000001
 21
205.447
 31
0.0
  0
LINE
  5
FE
  8
0
 62
     7
 10
61.588200000000001
 20
205.447
 30
0.0
 11
61.459899999999998
 21
205.619
 31
0.0
  0
LINE
  5
FF
  8
0
 62
     7
 10
61.459899999999998
 20
205.619
 30
0.0
 11
61.286599999999993
 21
205.77000000000001
 31
0.0
  0
LINE
  5
100
  8
0
 62
     7
 10
61.286599999999993
 20
205.77000000000001
 30
0.0
 11
61.075600000000001
 21
205.89400000000001
 31
0.0
  0
LINE
  5
101
  8
0
 62
     7
 10
61.075600000000001
 20
205.89400000000001
 30
0.0
 11
60.835599999999999
 21
205.9849999999999
 31
0.0
  0
LINE
  5
102
  8
0
 62
     7
 10
60.835599999999999
 20
205.9849999999999
 30
0.0
 11
60.575800000000001
 21
206.042
 31
0.0
  0
LINE
  5
103
  8
0
 62
     7
 10
60.575800000000001
 20
206.042
 30
0.0
 11
60.304499999999997
 21
206.06099999999989
 31
0.0
  0
LINE
  5
104
  8
0
 62
     7
 10
60.304499999999997
 20
206.06099999999989
 30
0.0
 11
60.03309999999999
 21
206.042
 31
0.0
  0
LINE
  5
105
  8
0
 62
     7
 10
60.03309999999999
 20
206.042
 30
0.0
 11
59.773299999999999
 21
205.9849999999999
 31
0.0
  0
LINE
  5
106
  8
0
 62
     7
 10
59.773299999999999
 20
205.9849999999999
 30
0.0
 11
59.533200000000001
 21
205.89400000000001
 31
0.0
  0
LINE
  5
107
  8
0
 62
     7
 10
59.533200000000001
 20
205.89400000000001
 30
0.0
 11
59.322200000000002
 21
205.77000000000001
 31
0.0
  0
LINE
  5
108
  8
0
 62
     7
 10
59.322200000000002
 20
205.77000000000001
 30
0.0
 11
59.148999999999987
 21
205.619
 31
0.0
  0
LINE
  5
109
  8
0
 62
     7
 10
59.148999999999987
 20
205.619
 30
0.0
 11
59.020699999999998
 21
205.447
 31
0.0
  0
LINE
  5
10A
  8
0
 62
     7
 10
59.020699999999998
 20
205.447
 30
0.0
 11
58.941800000000001
 21
205.262
 31
0.0
  0
LINE
  5
10B
  8
0
 62
     7
 10
58.941800000000001
 20
205.262
 30
0.0
 11
58.915500000000002
 21
205.0679999999999
 31
0.0
  0
LINE
  5
10C
  8
0
 62
     7
 10
58.915500000000002
 20
205.0679999999999
 30
0.0
 11
58.941800000000001
 21
204.874
 31
0.0
  0
LINE
  5
10D
  8
0
 62
     7
 10
58.941800000000001
 20
204.874
 30
0.0
 11
59.020699999999998
 21
204.6879999999999
 31
0.0
  0
LINE
  5
10E
  8
0
 62
     7
 10
59.020699999999998
 20
204.6879999999999
 30
0.0
 11
59.148999999999987
 21
204.51599999999999
 31
0.0
  0
LINE
  5
10F
  8
0
 62
     7
 10
59.148999999999987
 20
204.51599999999999
 30
0.0
 11
59.322200000000002
 21
204.3649999999999
 31
0.0
  0
LINE
  5
110
  8
0
 62
     7
 10
59.322200000000002
 20
204.3649999999999
 30
0.0
 11
59.533200000000001
 21
204.2409999999999
 31
0.0
  0
LINE
  5
111
  8
0
 62
     7
 10
59.533200000000001
 20
204.2409999999999
 30
0.0
 11
59.773299999999999
 21
204.15000000000001
 31
0.0
  0
LINE
  5
112
  8
0
 62
     7
 10
59.773299999999999
 20
204.15000000000001
 30
0.0
 11
60.03309999999999
 21
204.0929999999999
 31
0.0
  0
LINE
  5
113
  8
0
 62
     7
 10
60.03309999999999
 20
204.0929999999999
 30
0.0
 11
60.304499999999997
 21
204.0739999999999
 31
0.0
  0
LINE
  5
114
  8
0
 62
     7
 10
60.304499999999997
 20
204.0739999999999
 30
0.0
 11
60.575800000000001
 21
204.0929999999999
 31
0.0
  0
LINE
  5
115
  8
0
 62
     7
 10
60.575800000000001
 20
204.0929999999999
 30
0.0
 11
60.835599999999999
 21
204.15000000000001
 31
0.0
  0
LINE
  5
116
  8
0
 62
     7
 10
60.835599999999999
 20
204.15000000000001
 30
0.0
 11
61.075600000000001
 21
204.2409999999999
 31
0.0
  0
LINE
  5
117
  8
0
 62
     7
 10
61.075600000000001
 20
204.2409999999999
 30
0.0
 11
61.286599999999993
 21
204.3649999999999
 31
0.0
  0
LINE
  5
118
  8
0
 62
     7
 10
61.286599999999993
 20
204.3649999999999
 30
0.0
 11
61.459899999999998
 21
204.51599999999999
 31
0.0
  0
LINE
  5
119
  8
0
 62
     7
 10
61.459899999999998
 20
204.51599999999999
 30
0.0
 11
61.588200000000001
 21
204.6879999999999
 31
0.0
  0
LINE
  5
11A
  8
0
 62
     7
 10
61.588200000000001
 20
204.6879999999999
 30
0.0
 11
61.666899999999998
 21
204.874
 31
0.0
  0
LINE
  5
11B
  8
0
 62
     7
 10
61.666899999999998
 20
204.874
 30
0.0
 11
61.693600000000011
 21
205.0679999999999
 31
0.0
  0
LINE
  5
11C
  8
0
 62
     7
 10
100.55500000000001
 20
206.06099999999989
 30
0.0
 11
100.3989999999999
 21
206.042
 31
0.0
  0
LINE
  5
11D
  8
0
 62
     7
 10
100.3989999999999
 20
206.042
 30
0.0
 11
100.2489999999999
 21
205.9849999999999
 31
0.0
  0
LINE
  5
11E
  8
0
 62
     7
 10
100.2489999999999
 20
205.9849999999999
 30
0.0
 11
100.11
 21
205.89400000000001
 31
0.0
  0
LINE
  5
11F
  8
0
 62
     7
 10
100.11
 20
205.89400000000001
 30
0.0
 11
99.988500000000002
 21
205.77000000000001
 31
0.0
  0
LINE
  5
120
  8
0
 62
     7
 10
99.988500000000002
 20
205.77000000000001
 30
0.0
 11
99.888400000000004
 21
205.619
 31
0.0
  0
LINE
  5
121
  8
0
 62
     7
 10
99.888400000000004
 20
205.619
 30
0.0
 11
99.814300000000003
 21
205.447
 31
0.0
  0
LINE
  5
122
  8
0
 62
     7
 10
99.814300000000003
 20
205.447
 30
0.0
 11
99.768900000000002
 21
205.262
 31
0.0
  0
LINE
  5
123
  8
0
 62
     7
 10
99.768900000000002
 20
205.262
 30
0.0
 11
99.753699999999995
 21
205.0679999999999
 31
0.0
  0
LINE
  5
124
  8
0
 62
     7
 10
99.753699999999995
 20
205.0679999999999
 30
0.0
 11
99.768900000000002
 21
204.874
 31
0.0
  0
LINE
  5
125
  8
0
 62
     7
 10
99.768900000000002
 20
204.874
 30
0.0
 11
99.814300000000003
 21
204.6879999999999
 31
0.0
  0
LINE
  5
126
  8
0
 62
     7
 10
99.814300000000003
 20
204.6879999999999
 30
0.0
 11
99.888400000000004
 21
204.51599999999999
 31
0.0
  0
LINE
  5
127
  8
0
 62
     7
 10
99.888400000000004
 20
204.51599999999999
 30
0.0
 11
99.988500000000002
 21
204.3649999999999
 31
0.0
  0
LINE
  5
128
  8
0
 62
     7
 10
99.988500000000002
 20
204.3649999999999
 30
0.0
 11
100.11
 21
204.2409999999999
 31
0.0
  0
LINE
  5
129
  8
0
 62
     7
 10
100.11
 20
204.2409999999999
 30
0.0
 11
100.2489999999999
 21
204.15000000000001
 31
0.0
  0
LINE
  5
12A
  8
0
 62
     7
 10
100.2489999999999
 20
204.15000000000001
 30
0.0
 11
100.3989999999999
 21
204.0929999999999
 31
0.0
  0
LINE
  5
12B
  8
0
 62
     7
 10
100.3989999999999
 20
204.0929999999999
 30
0.0
 11
100.55500000000001
 21
204.0739999999999
 31
0.0
  0
LINE
  5
12C
  8
0
 62
     7
 10
100.55500000000001
 20
204.0739999999999
 30
0.0
 11
100.712
 21
204.0929999999999
 31
0.0
  0
LINE
  5
12D
  8
0
 62
     7
 10
100.712
 20
204.0929999999999
 30
0.0
 11
100.86199999999999
 21
204.15000000000001
 31
0.0
  0
LINE
  5
12E
  8
0
 62
     7
 10
100.86199999999999
 20
204.15000000000001
 30
0.0
 11
101.001
 21
204.2409999999999
 31
0.0
  0
LINE
  5
12F
  8
0
 62
     7
 10
101.001
 20
204.2409999999999
 30
0.0
 11
101.122
 21
204.3649999999999
 31
0.0
  0
LINE
  5
130
  8
0
 62
     7
 10
101.122
 20
204.3649999999999
 30
0.0
 11
101.2229999999999
 21
204.51599999999999
 31
0.0
  0
LINE
  5
131
  8
0
 62
     7
 10
101.2229999999999
 20
204.51599999999999
 30
0.0
 11
101.297
 21
204.6879999999999
 31
0.0
  0
LINE
  5
132
  8
0
 62
     7
 10
101.297
 20
204.6879999999999
 30
0.0
 11
101.342
 21
204.874
 31
0.0
  0
LINE
  5
133
  8
0
 62
     7
 10
101.342
 20
204.874
 30
0.0
 11
101.357
 21
205.0679999999999
 31
0.0
  0
LINE
  5
134
  8
0
 62
     7
 10
101.357
 20
205.0679999999999
 30
0.0
 11
101.342
 21
205.262
 31
0.0
  0
LINE
  5
135
  8
0
 62
     7
 10
101.342
 20
205.262
 30
0.0
 11
101.297
 21
205.447
 31
0.0
  0
LINE
  5
136
  8
0
 62
     7
 10
101.297
 20
205.447
 30
0.0
 11
101.2229999999999
 21
205.619
 31
0.0
  0
LINE
  5
137
  8
0
 62
     7
 10
101.2229999999999
 20
205.619
 30
0.0
 11
101.122
 21
205.77000000000001
 31
0.0
  0
LINE
  5
138
  8
0
 62
     7
 10
101.122
 20
205.77000000000001
 30
0.0
 11
101.001
 21
205.89400000000001
 31
0.0
  0
LINE
  5
139
  8
0
 62
     7
 10
101.001
 20
205.89400000000001
 30
0.0
 11
100.86199999999999
 21
205.9849999999999
 31
0.0
  0
LINE
  5
13A
  8
0
 62
     7
 10
100.86199999999999
 20
205.9849999999999
 30
0.0
 11
100.712
 21
206.042
 31
0.0
  0
LINE
  5
13B
  8
0
 62
     7
 10
100.712
 20
206.042
 30
0.0
 11
100.55500000000001
 21
206.06099999999989
 31
0.0
  0
LINE
  5
13C
  8
0
 62
     7
 10
106.6179999999999
 20
206.06099999999989
 30
0.0
 11
106.461
 21
206.042
 31
0.0
  0
LINE
  5
13D
  8
0
 62
     7
 10
106.461
 20
206.042
 30
0.0
 11
106.31099999999989
 21
205.9849999999999
 31
0.0
  0
LINE
  5
13E
  8
0
 62
     7
 10
106.31099999999989
 20
205.9849999999999
 30
0.0
 11
106.1729999999999
 21
205.89400000000001
 31
0.0
  0
LINE
  5
13F
  8
0
 62
     7
 10
106.1729999999999
 20
205.89400000000001
 30
0.0
 11
106.051
 21
205.77000000000001
 31
0.0
  0
LINE
  5
140
  8
0
 62
     7
 10
106.051
 20
205.77000000000001
 30
0.0
 11
105.95099999999999
 21
205.619
 31
0.0
  0
LINE
  5
141
  8
0
 62
     7
 10
105.95099999999999
 20
205.619
 30
0.0
 11
105.877
 21
205.447
 31
0.0
  0
LINE
  5
142
  8
0
 62
     7
 10
105.877
 20
205.447
 30
0.0
 11
105.831
 21
205.262
 31
0.0
  0
LINE
  5
143
  8
0
 62
     7
 10
105.831
 20
205.262
 30
0.0
 11
105.8159999999999
 21
205.0679999999999
 31
0.0
  0
LINE
  5
144
  8
0
 62
     7
 10
105.8159999999999
 20
205.0679999999999
 30
0.0
 11
105.831
 21
204.874
 31
0.0
  0
LINE
  5
145
  8
0
 62
     7
 10
105.831
 20
204.874
 30
0.0
 11
105.877
 21
204.6879999999999
 31
0.0
  0
LINE
  5
146
  8
0
 62
     7
 10
105.877
 20
204.6879999999999
 30
0.0
 11
105.95099999999999
 21
204.51599999999999
 31
0.0
  0
LINE
  5
147
  8
0
 62
     7
 10
105.95099999999999
 20
204.51599999999999
 30
0.0
 11
106.051
 21
204.3649999999999
 31
0.0
  0
LINE
  5
148
  8
0
 62
     7
 10
106.051
 20
204.3649999999999
 30
0.0
 11
106.1729999999999
 21
204.2409999999999
 31
0.0
  0
LINE
  5
149
  8
0
 62
     7
 10
106.1729999999999
 20
204.2409999999999
 30
0.0
 11
106.31099999999989
 21
204.15000000000001
 31
0.0
  0
LINE
  5
14A
  8
0
 62
     7
 10
106.31099999999989
 20
204.15000000000001
 30
0.0
 11
106.461
 21
204.0929999999999
 31
0.0
  0
LINE
  5
14B
  8
0
 62
     7
 10
106.461
 20
204.0929999999999
 30
0.0
 11
106.6179999999999
 21
204.0739999999999
 31
0.0
  0
LINE
  5
14C
  8
0
 62
     7
 10
106.6179999999999
 20
204.0739999999999
 30
0.0
 11
106.774
 21
204.0929999999999
 31
0.0
  0
LINE
  5
14D
  8
0
 62
     7
 10
106.774
 20
204.0929999999999
 30
0.0
 11
106.925
 21
204.15000000000001
 31
0.0
  0
LINE
  5
14E
  8
0
 62
     7
 10
106.925
 20
204.15000000000001
 30
0.0
 11
107.0629999999999
 21
204.2409999999999
 31
0.0
  0
LINE
  5
14F
  8
0
 62
     7
 10
107.0629999999999
 20
204.2409999999999
 30
0.0
 11
107.1849999999999
 21
204.3649999999999
 31
0.0
  0
LINE
  5
150
  8
0
 62
     7
 10
107.1849999999999
 20
204.3649999999999
 30
0.0
 11
107.285
 21
204.51599999999999
 31
0.0
  0
LINE
  5
151
  8
0
 62
     7
 10
107.285
 20
204.51599999999999
 30
0.0
 11
107.35899999999999
 21
204.6879999999999
 31
0.0
  0
LINE
  5
152
  8
0
 62
     7
 10
107.35899999999999
 20
204.6879999999999
 30
0.0
 11
107.4049999999999
 21
204.874
 31
0.0
  0
LINE
  5
153
  8
0
 62
     7
 10
107.4049999999999
 20
204.874
 30
0.0
 11
107.42
 21
205.0679999999999
 31
0.0
  0
LINE
  5
154
  8
0
 62
     7
 10
107.42
 20
205.0679999999999
 30
0.0
 11
107.4049999999999
 21
205.262
 31
0.0
  0
LINE
  5
155
  8
0
 62
     7
 10
107.4049999999999
 20
205.262
 30
0.0
 11
107.35899999999999
 21
205.447
 31
0.0
  0
LINE
  5
156
  8
0
 62
     7
 10
107.35899999999999
 20
205.447
 30
0.0
 11
107.285
 21
205.619
 31
0.0
  0
LINE
  5
157
  8
0
 62
     7
 10
107.285
 20
205.619
 30
0.0
 11
107.1849999999999
 21
205.77000000000001
 31
0.0
  0
LINE
  5
158
  8
0
 62
     7
 10
107.1849999999999
 20
205.77000000000001
 30
0.0
 11
107.0629999999999
 21
205.89400000000001
 31
0.0
  0
LINE
  5
159
  8
0
 62
     7
 10
107.0629999999999
 20
205.89400000000001
 30
0.0
 11
106.925
 21
205.9849999999999
 31
0.0
  0
LINE
  5
15A
  8
0
 62
     7
 10
106.925
 20
205.9849999999999
 30
0.0
 11
106.774
 21
206.042
 31
0.0
  0
LINE
  5
15B
  8
0
 62
     7
 10
106.774
 20
206.042
 30
0.0
 11
106.6179999999999
 21
206.06099999999989
 31
0.0
  0
LINE
  5
15C
  8
0
 62
     7
 10
105.191
 20
205.0679999999999
 30
0.0
 11
105.16
 21
205.262
 31
0.0
  0
LINE
  5
15D
  8
0
 62
     7
 10
105.16
 20
205.262
 30
0.0
 11
105.069
 21
205.447
 31
0.0
  0
LINE
  5
15E
  8
0
 62
     7
 10
105.069
 20
205.447
 30
0.0
 11
104.92099999999991
 21
205.619
 31
0.0
  0
LINE
  5
15F
  8
0
 62
     7
 10
104.92099999999991
 20
205.619
 30
0.0
 11
104.7209999999999
 21
205.77000000000001
 31
0.0
  0
LINE
  5
160
  8
0
 62
     7
 10
104.7209999999999
 20
205.77000000000001
 30
0.0
 11
104.4769999999999
 21
205.89400000000001
 31
0.0
  0
LINE
  5
161
  8
0
 62
     7
 10
104.4769999999999
 20
205.89400000000001
 30
0.0
 11
104.2
 21
205.9849999999999
 31
0.0
  0
LINE
  5
162
  8
0
 62
     7
 10
104.2
 20
205.9849999999999
 30
0.0
 11
103.90000000000001
 21
206.042
 31
0.0
  0
LINE
  5
163
  8
0
 62
     7
 10
103.90000000000001
 20
206.042
 30
0.0
 11
103.586
 21
206.06099999999989
 31
0.0
  0
LINE
  5
164
  8
0
 62
     7
 10
103.586
 20
206.06099999999989
 30
0.0
 11
103.2739999999999
 21
206.042
 31
0.0
  0
LINE
  5
165
  8
0
 62
     7
 10
103.2739999999999
 20
206.042
 30
0.0
 11
102.973
 21
205.9849999999999
 31
0.0
  0
LINE
  5
166
  8
0
 62
     7
 10
102.973
 20
205.9849999999999
 30
0.0
 11
102.696
 21
205.89400000000001
 31
0.0
  0
LINE
  5
167
  8
0
 62
     7
 10
102.696
 20
205.89400000000001
 30
0.0
 11
102.4529999999999
 21
205.77000000000001
 31
0.0
  0
LINE
  5
168
  8
0
 62
     7
 10
102.4529999999999
 20
205.77000000000001
 30
0.0
 11
102.252
 21
205.619
 31
0.0
  0
LINE
  5
169
  8
0
 62
     7
 10
102.252
 20
205.619
 30
0.0
 11
102.1039999999999
 21
205.447
 31
0.0
  0
LINE
  5
16A
  8
0
 62
     7
 10
102.1039999999999
 20
205.447
 30
0.0
 11
102.01299999999991
 21
205.262
 31
0.0
  0
LINE
  5
16B
  8
0
 62
     7
 10
102.01299999999991
 20
205.262
 30
0.0
 11
101.983
 21
205.0679999999999
 31
0.0
  0
LINE
  5
16C
  8
0
 62
     7
 10
101.983
 20
205.0679999999999
 30
0.0
 11
102.01299999999991
 21
204.874
 31
0.0
  0
LINE
  5
16D
  8
0
 62
     7
 10
102.01299999999991
 20
204.874
 30
0.0
 11
102.1039999999999
 21
204.6879999999999
 31
0.0
  0
LINE
  5
16E
  8
0
 62
     7
 10
102.1039999999999
 20
204.6879999999999
 30
0.0
 11
102.252
 21
204.51599999999999
 31
0.0
  0
LINE
  5
16F
  8
0
 62
     7
 10
102.252
 20
204.51599999999999
 30
0.0
 11
102.4529999999999
 21
204.3649999999999
 31
0.0
  0
LINE
  5
170
  8
0
 62
     7
 10
102.4529999999999
 20
204.3649999999999
 30
0.0
 11
102.696
 21
204.2409999999999
 31
0.0
  0
LINE
  5
171
  8
0
 62
     7
 10
102.696
 20
204.2409999999999
 30
0.0
 11
102.973
 21
204.15000000000001
 31
0.0
  0
LINE
  5
172
  8
0
 62
     7
 10
102.973
 20
204.15000000000001
 30
0.0
 11
103.2739999999999
 21
204.0929999999999
 31
0.0
  0
LINE
  5
173
  8
0
 62
     7
 10
103.2739999999999
 20
204.0929999999999
 30
0.0
 11
103.586
 21
204.0739999999999
 31
0.0
  0
LINE
  5
174
  8
0
 62
     7
 10
103.586
 20
204.0739999999999
 30
0.0
 11
103.90000000000001
 21
204.0929999999999
 31
0.0
  0
LINE
  5
175
  8
0
 62
     7
 10
103.90000000000001
 20
204.0929999999999
 30
0.0
 11
104.2
 21
204.15000000000001
 31
0.0
  0
LINE
  5
176
  8
0
 62
     7
 10
104.2
 20
204.15000000000001
 30
0.0
 11
104.4769999999999
 21
204.2409999999999
 31
0.0
  0
LINE
  5
177
  8
0
 62
     7
 10
104.4769999999999
 20
204.2409999999999
 30
0.0
 11
104.7209999999999
 21
204.3649999999999
 31
0.0
  0
LINE
  5
178
  8
0
 62
     7
 10
104.7209999999999
 20
204.3649999999999
 30
0.0
 11
104.92099999999991
 21
204.51599999999999
 31
0.0
  0
LINE
  5
179
  8
0
 62
     7
 10
104.92099999999991
 20
204.51599999999999
 30
0.0
 11
105.069
 21
204.6879999999999
 31
0.0
  0
LINE
  5
17A
  8
0
 62
     7
 10
105.069
 20
204.6879999999999
 30
0.0
 11
105.16
 21
204.874
 31
0.0
  0
LINE
  5
17B
  8
0
 62
     7
 10
105.16
 20
204.874
 30
0.0
 11
105.191
 21
205.0679999999999
 31
0.0
  0
LINE
  5
17C
  8
0
 62
     7
 10
131.15499999999989
 20
55.3065
 30
0.0
 11
147.55600000000001
 21
55.3065
 31
0.0
  0
LINE
  5
17D
  8
0
 62
     7
 10
124.232
 20
189.30699999999999
 30
0.0
 11
147.55600000000001
 21
189.30699999999999
 31
0.0
  0
LINE
  5
17E
  8
0
 62
     7
 10
147.34100000000001
 20
187.09699999999989
 30
0.0
 11
146.74899999999991
 21
189.30699999999999
 31
0.0
  0
LINE
  5
17F
  8
0
 62
     7
 10
146.74899999999991
 20
189.30699999999999
 30
0.0
 11
146.15700000000001
 21
187.09699999999989
 31
0.0
  0
LINE
  5
180
  8
0
 62
     7
 10
146.15700000000001
 20
187.09699999999989
 30
0.0
 11
147.34100000000001
 21
187.09699999999989
 31
0.0
  0
LINE
  5
181
  8
0
 62
     7
 10
146.17199999999991
 20
57.516899999999993
 30
0.0
 11
146.76400000000001
 21
55.3065
 31
0.0
  0
LINE
  5
182
  8
0
 62
     7
 10
146.76400000000001
 20
55.3065
 30
0.0
 11
147.35599999999991
 21
57.516899999999993
 31
0.0
  0
LINE
  5
183
  8
0
 62
     7
 10
147.35599999999991
 20
57.516899999999993
 30
0.0
 11
146.17199999999991
 21
57.516899999999993
 31
0.0
  0
LINE
  5
184
  8
0
 62
     7
 10
146.75599999999989
 20
189.30699999999999
 30
0.0
 11
146.75599999999989
 21
55.3065
 31
0.0
  0
ARC
  5
185
  8
0
 62
     7
 10
58.951133999999989
 20
180.23579699999991
 30
0.0
 40
0.6032310000000001
 50
0.08095
 51
29.961748
  0
LINE
  5
186
  8
0
 62
     7
 10
59.554400000000001
 20
180.23699999999991
 30
0.0
 11
59.554400000000001
 21
64.306600000000003
 31
0.0
  0
ARC
  5
187
  8
0
 62
     7
 10
123.9864979999999
 20
61.706701000000002
 30
0.0
 40
2.5998579999999998
 50
90.003795999999994
 51
180.003806
  0
ARC
  5
188
  8
0
 62
     7
 10
131.15344400000001
 20
61.692968000000008
 30
0.0
 40
2.6335860000000002
 50
0.295018
 51
44.692921999999989
  0
ARC
  5
189
  8
0
 62
     7
 10
131.17342999999991
 20
61.673068999999991
 30
0.0
 40
2.6335250000000001
 50
45.306525999999977
 51
89.705515000000005
  0
LINE
  5
18A
  8
0
 62
     7
 10
121.387
 20
61.706499999999998
 30
0.0
 11
121.387
 21
61.306600000000003
 31
0.0
  0
LINE
  5
18B
  8
0
 62
     7
 10
133.78700000000001
 20
61.706499999999998
 30
0.0
 11
133.78700000000001
 21
61.306600000000003
 31
0.0
  0
LINE
  5
18C
  8
0
 62
     7
 10
131.18700000000001
 20
64.306600000000003
 30
0.0
 11
123.9859999999999
 21
64.306600000000003
 31
0.0
  0
LINE
  5
18D
  8
0
 62
     7
 10
133.78700000000001
 20
61.306600000000003
 30
0.0
 11
121.387
 21
61.306600000000003
 31
0.0
  0
LINE
  5
18E
  8
0
 62
     7
 10
125.087
 20
61.306600000000003
 30
0.0
 11
125.087
 21
55.3065
 31
0.0
  0
LINE
  5
18F
  8
0
 62
     7
 10
130.08699999999999
 20
61.306600000000003
 30
0.0
 11
130.08699999999999
 21
55.3065
 31
0.0
  0
LINE
  5
190
  8
0
 62
     7
 10
125.087
 20
183.30699999999999
 30
0.0
 11
125.087
 21
64.306600000000003
 31
0.0
  0
LINE
  5
191
  8
0
 62
     7
 10
130.08699999999999
 20
183.30699999999999
 30
0.0
 11
130.08699999999999
 21
64.306600000000003
 31
0.0
  0
LINE
  5
192
  8
0
  6
AIGENLINE001
 62
     7
 10
127.587
 20
183.30699999999999
 30
0.0
 11
127.587
 21
51.306399999999989
 31
0.0
  0
LINE
  5
193
  8
0
 62
     7
 10
130.08699999999999
 20
55.3065
 30
0.0
 11
125.087
 21
55.3065
 31
0.0
  0
ARC
  5
194
  8
0
 62
     7
 10
127.5867309999999
 20
235.84781899999999
 30
0.0
 40
2.5002080000000002
 50
269.99409899999989
 51
359.99406899999991
  0
ARC
  5
195
  8
0
 62
     7
 10
127.5866449999999
 20
235.847388
 30
0.0
 40
2.5002939999999989
 50
0.003957
 51
90.003928000000016
  0
LINE
  5
196
  8
0
  6
AIGENLINE001
 62
     7
 10
127.5859999999999
 20
243.91999999999999
 30
0.0
 11
127.5859999999999
 21
228.14399999999989
 31
0.0
  0
LINE
  5
197
  8
0
 62
     7
 10
60.091799999999999
 20
180.50700000000001
 30
0.0
 11
64.0351
 21
180.50700000000001
 31
0.0
  0
LINE
  5
198
  8
0
 62
     7
 10
101.624
 20
180.072
 30
0.0
 11
105.56699999999999
 21
180.072
 31
0.0
  0
ARC
  5
199
  8
0
 62
     7
 10
106.995221
 20
210.44743999999989
 30
0.0
 40
0.396685
 50
163.42958999999991
 51
185.76282900000001
  0
ARC
  5
19A
  8
0
 62
     7
 10
107.587858
 20
212.39633499999999
 30
0.0
 40
0.4114040000000001
 50
91.192138999999997
 51
162.33317700000001
  0
LINE
  5
19B
  8
0
 62
     7
 10
107.196
 20
212.52099999999999
 30
0.0
 11
106.6149999999999
 21
210.55999999999989
 31
0.0
  0
LINE
  5
19C
  8
0
 62
     7
 10
108.611
 20
212.80799999999991
 30
0.0
 11
108.9829999999999
 21
213.0679999999999
 31
0.0
  0
ARC
  5
19D
  8
0
 62
     7
 10
100.190139
 20
210.4485939999999
 30
0.0
 40
0.3846699999999999
 50
353.88369299999988
 51
16.923888000000002
  0
ARC
  5
19E
  8
0
 62
     7
 10
99.585445000000007
 20
212.39629600000001
 30
0.0
 40
0.411444
 50
17.670753999999999
 51
88.803889999999996
  0
LINE
  5
19F
  8
0
 62
     7
 10
100.55799999999989
 20
210.55999999999989
 30
0.0
 11
99.977599999999995
 21
212.52099999999999
 31
0.0
  0
LINE
  5
1A0
  8
0
 62
     7
 10
98.190700000000007
 20
213.0679999999999
 30
0.0
 11
98.561899999999994
 21
212.80799999999991
 31
0.0
  0
LINE
  5
1A1
  8
0
 62
     7
 10
98.190700000000007
 20
213.0679999999999
 30
0.0
 11
108.98699999999999
 21
213.0679999999999
 31
0.0
  0
ARC
  5
1A2
  8
0
 62
     7
 10
108.783856
 20
213.106762
 30
0.0
 40
0.202775
 50
0.270552
 51
44.531878999999989
  0
ARC
  5
1A3
  8
0
 62
     7
 10
108.7848639999999
 20
213.10297099999991
 30
0.0
 40
0.204743
 50
45.485835999999992
 51
89.551186000000001
  0
ARC
  5
1A4
  8
0
 62
     7
 10
98.387716000000012
 20
213.10562999999999
 30
0.0
 40
0.202081
 50
90.290088000000011
 51
134.820717
  0
ARC
  5
1A5
  8
0
 62
     7
 10
98.388722999999999
 20
213.1064749999999
 30
0.0
 40
0.202195
 50
135.19210899999999
 51
179.64753200000001
  0
LINE
  5
1A6
  8
0
 62
     7
 10
98.561899999999994
 20
212.80799999999991
 30
0.0
 11
108.611
 21
212.80799999999991
 31
0.0
  0
LINE
  5
1A7
  8
0
 62
     7
 10
108.98699999999999
 20
213.0679999999999
 30
0.0
 11
108.98699999999999
 21
213.10799999999989
 31
0.0
  0
LINE
  5
1A8
  8
0
 62
     7
 10
98.186499999999995
 20
213.10799999999989
 30
0.0
 11
98.186499999999995
 21
213.0679999999999
 31
0.0
  0
LINE
  5
1A9
  8
0
 62
     7
 10
98.386700000000005
 20
213.30799999999999
 30
0.0
 11
108.786
 21
213.30799999999999
 31
0.0
  0
ARC
  5
1AA
  8
0
 62
     7
 10
105.769847
 20
235.14641800000001
 30
0.0
 40
0.406992
 50
342.74989900000003
 51
35.628562000000002
  0
ARC
  5
1AB
  8
0
 62
     7
 10
105.77403
 20
235.14025499999991
 30
0.0
 40
0.4072510000000001
 50
36.676315999999993
 51
89.511482999999984
  0
ARC
  5
1AC
  8
0
 62
     7
 10
104.29447399999999
 20
233.66023399999989
 30
0.0
 40
0.407666
 50
180.48117199999999
 51
233.233858
  0
ARC
  5
1AD
  8
0
 62
     7
 10
104.287583
 20
233.66430999999989
 30
0.0
 40
0.4068850000000001
 50
234.354883
 51
287.27537000000001
  0
ARC
  5
1AE
  8
0
 62
     7
 10
104.3022279999999
 20
235.13207799999989
 30
0.0
 40
0.415699
 50
92.126935999999986
 51
177.848354
  0
LINE
  5
1AF
  8
0
 62
     7
 10
105.77799999999991
 20
235.54699999999991
 30
0.0
 11
104.28700000000001
 21
235.54699999999991
 31
0.0
  0
LINE
  5
1B0
  8
0
 62
     7
 10
103.8869999999999
 20
235.148
 30
0.0
 11
103.8869999999999
 21
233.65599999999989
 31
0.0
  0
ARC
  5
1B1
  8
0
 62
     7
 10
103.5529829999999
 20
235.88141400000001
 30
0.0
 40
2.742459999999999
 50
288.17501800000002
 51
341.81935199999992
  0
ARC
  5
1B2
  8
0
 62
     7
 10
102.885858
 20
233.663297
 30
0.0
 40
0.405899
 50
252.6908939999999
 51
305.69628799999992
  0
ARC
  5
1B3
  8
0
 62
     7
 10
102.879896
 20
233.660054
 30
0.0
 40
0.406799
 50
306.644746
 51
359.54307299999988
  0
ARC
  5
1B4
  8
0
 62
     7
 10
101.399086
 20
235.140342
 30
0.0
 40
0.407163
 50
90.482369000000006
 51
143.329792
  0
ARC
  5
1B5
  8
0
 62
     7
 10
101.40348999999991
 20
235.14676399999999
 30
0.0
 40
0.406935
 50
144.425488
 51
197.30359699999991
  0
ARC
  5
1B6
  8
0
 62
     7
 10
102.8717059999999
 20
235.13250699999989
 30
0.0
 40
0.4152540000000001
 50
2.0946020000000001
 51
87.930068999999989
  0
LINE
  5
1B7
  8
0
 62
     7
 10
103.28700000000001
 20
233.65599999999989
 30
0.0
 11
103.28700000000001
 21
235.148
 31
0.0
  0
LINE
  5
1B8
  8
0
 62
     7
 10
102.8869999999999
 20
235.54699999999991
 30
0.0
 11
101.3959999999999
 21
235.54699999999991
 31
0.0
  0
ARC
  5
1B9
  8
0
 62
     7
 10
103.6228399999999
 20
235.8837319999999
 30
0.0
 40
2.745385999999999
 50
198.211544
 51
251.79412500000001
  0
ARC
  5
1BA
  8
0
 62
     7
 10
101.4012689999999
 20
236.54794100000001
 30
0.0
 40
0.4048880000000001
 50
162.5700379999999
 51
215.70952999999989
  0
ARC
  5
1BB
  8
0
 62
     7
 10
101.39910999999989
 20
236.55482599999999
 30
0.0
 40
0.40721
 50
216.67352
 51
269.514319
  0
ARC
  5
1BC
  8
0
 62
     7
 10
102.87984299999999
 20
238.03503699999999
 30
0.0
 40
0.406854
 50
0.4851700000000001
 51
53.351670999999989
  0
ARC
  5
1BD
  8
0
 62
     7
 10
102.8855099999999
 20
238.03083100000001
 30
0.0
 40
0.406908
 50
54.345486000000001
 51
107.21354599999999
  0
ARC
  5
1BE
  8
0
 62
     7
 10
102.871748
 20
236.56256499999989
 30
0.0
 40
0.4152040000000001
 50
272.0643649999999
 51
357.93564500000002
  0
LINE
  5
1BF
  8
0
 62
     7
 10
101.3959999999999
 20
236.14799999999991
 30
0.0
 11
102.8869999999999
 21
236.14799999999991
 31
0.0
  0
LINE
  5
1C0
  8
0
 62
     7
 10
103.28700000000001
 20
236.547
 30
0.0
 11
103.28700000000001
 21
238.0379999999999
 31
0.0
  0
ARC
  5
1C1
  8
0
 62
     7
 10
103.62388900000001
 20
235.81067999999991
 30
0.0
 40
2.7465509999999989
 50
108.2209329999999
 51
161.78467599999991
  0
ARC
  5
1C2
  8
0
 62
     7
 10
104.287898
 20
238.0300169999999
 30
0.0
 40
0.407714
 50
72.807330000000007
 51
125.6161529999999
  0
ARC
  5
1C3
  8
0
 62
     7
 10
104.29355
 20
238.0353529999999
 30
0.0
 40
0.4067400000000001
 50
126.70119699999999
 51
179.55914299999989
  0
ARC
  5
1C4
  8
0
 62
     7
 10
105.7741909999999
 20
236.55454900000001
 30
0.0
 40
0.406933
 50
270.46627399999988
 51
323.34592700000002
  0
ARC
  5
1C5
  8
0
 62
     7
 10
105.76892700000001
 20
236.54879299999999
 30
0.0
 40
0.407793
 50
324.43636800000002
 51
17.176469999999998
  0
ARC
  5
1C6
  8
0
 62
     7
 10
104.301975
 20
236.562783
 30
0.0
 40
0.41543
 50
182.09337400000001
 51
267.90665499999989
  0
LINE
  5
1C7
  8
0
 62
     7
 10
103.8869999999999
 20
238.0379999999999
 30
0.0
 11
103.8869999999999
 21
236.547
 31
0.0
  0
LINE
  5
1C8
  8
0
 62
     7
 10
104.28700000000001
 20
236.14799999999991
 30
0.0
 11
105.77799999999991
 21
236.14799999999991
 31
0.0
  0
ARC
  5
1C9
  8
0
 62
     7
 10
103.5478619999999
 20
235.80892700000001
 30
0.0
 40
2.7487639999999991
 50
18.238593999999988
 51
71.755756999999988
  0
ARC
  5
1CA
  8
0
 62
     7
 10
103.58658
 20
235.847387
 30
0.0
 40
3.5503659999999999
 50
0.00279
 51
90.002760000000009
  0
ARC
  5
1CB
  8
0
 62
     7
 10
103.586581
 20
235.84773199999989
 30
0.0
 40
3.5500219999999998
 50
90.002779999999987
 51
180.00279
  0
ARC
  5
1CC
  8
0
 62
     7
 10
103.586493
 20
235.84747400000001
 30
0.0
 40
3.549933999999999
 50
179.99857999999989
 51
269.99862999999988
  0
ARC
  5
1CD
  8
0
 62
     7
 10
103.58666599999999
 20
235.84781899999999
 30
0.0
 40
3.5502799999999999
 50
269.99585000000002
 51
359.99581999999998
  0
ARC
  5
1CE
  8
0
 62
     7
 10
103.586493
 20
235.84747300000001
 30
0.0
 40
5.4001359999999989
 50
0.000924
 51
90.000893999999974
  0
ARC
  5
1CF
  8
0
 62
     7
 10
103.586495
 20
235.847645
 30
0.0
 40
5.3999639999999989
 50
90.000913999999995
 51
180.00092399999991
  0
ARC
  5
1D0
  8
0
 62
     7
 10
103.586493
 20
235.84747300000001
 30
0.0
 40
5.3999620000000004
 50
179.99905599999991
 51
269.99910599999993
  0
ARC
  5
1D1
  8
0
 62
     7
 10
103.586493
 20
235.84764699999999
 30
0.0
 40
5.4001359999999989
 50
269.99910599999993
 51
359.999076
  0
ARC
  5
1D2
  8
0
 62
     7
 10
65.468611999999993
 20
210.44690499999999
 30
0.0
 40
0.402262
 50
163.58635100000001
 51
185.60606699999991
  0
ARC
  5
1D3
  8
0
 62
     7
 10
66.055622999999997
 20
212.3962919999999
 30
0.0
 40
0.411447
 50
91.196464999999989
 51
162.3288499999999
  0
LINE
  5
1D4
  8
0
 62
     7
 10
65.663600000000002
 20
212.52099999999999
 30
0.0
 11
65.082700000000003
 21
210.55999999999989
 31
0.0
  0
LINE
  5
1D5
  8
0
 62
     7
 10
67.078999999999994
 20
212.80799999999991
 30
0.0
 11
67.450400000000002
 21
213.0679999999999
 31
0.0
  0
ARC
  5
1D6
  8
0
 62
     7
 10
58.637559000000003
 20
210.44664
 30
0.0
 40
0.405023
 50
354.46992699999993
 51
16.337654000000001
  0
ARC
  5
1D7
  8
0
 62
     7
 10
58.053468999999993
 20
212.39644799999999
 30
0.0
 40
0.411285
 50
17.655470000000001
 51
88.843849999999989
  0
LINE
  5
1D8
  8
0
 62
     7
 10
59.026200000000003
 20
210.55999999999989
 30
0.0
 11
58.445399999999999
 21
212.52099999999999
 31
0.0
  0
LINE
  5
1D9
  8
0
 62
     7
 10
56.6584
 20
213.0679999999999
 30
0.0
 11
57.029800000000002
 21
212.80699999999999
 31
0.0
  0
LINE
  5
1DA
  8
0
 62
     7
 10
56.6584
 20
213.0679999999999
 30
0.0
 11
67.454499999999996
 21
213.0679999999999
 31
0.0
  0
ARC
  5
1DB
  8
0
 62
     7
 10
67.252348999999995
 20
213.10665299999991
 30
0.0
 40
0.202188
 50
0.302107
 51
44.739019999999996
  0
ARC
  5
1DC
  8
0
 62
     7
 10
67.253268999999975
 20
213.10501899999991
 30
0.0
 40
0.202693
 50
45.250069999999987
 51
89.639083999999997
  0
ARC
  5
1DD
  8
0
 62
     7
 10
56.855449
 20
213.10562999999999
 30
0.0
 40
0.202081
 50
90.290088000000011
 51
134.820717
  0
ARC
  5
1DE
  8
0
 62
     7
 10
56.855981999999997
 20
213.106919
 30
0.0
 40
0.201547
 50
135.18644499999991
 51
179.77238899999989
  0
LINE
  5
1DF
  8
0
 62
     7
 10
57.029800000000002
 20
212.80799999999991
 30
0.0
 11
67.078999999999994
 21
212.80799999999991
 31
0.0
  0
LINE
  5
1E0
  8
0
 62
     7
 10
67.454499999999996
 20
213.0679999999999
 30
0.0
 11
67.454499999999996
 21
213.10799999999989
 31
0.0
  0
LINE
  5
1E1
  8
0
 62
     7
 10
56.654400000000003
 20
213.10799999999989
 30
0.0
 11
56.654400000000003
 21
213.0679999999999
 31
0.0
  0
LINE
  5
1E2
  8
0
 62
     7
 10
56.854399999999991
 20
213.30799999999999
 30
0.0
 11
67.254499999999993
 21
213.30799999999999
 31
0.0
  0
LINE
  5
1E3
  8
0
 62
     7
 10
112.9889999999999
 20
233.3479999999999
 30
0.0
 11
108.37299999999991
 21
233.3479999999999
 31
0.0
  0
LINE
  5
1E4
  8
0
 62
     7
 10
127.5859999999999
 20
233.3479999999999
 30
0.0
 11
114.9909999999999
 21
233.3479999999999
 31
0.0
  0
LINE
  5
1E5
  8
0
 62
     7
 10
127.5859999999999
 20
238.34800000000001
 30
0.0
 11
114.9909999999999
 21
238.34800000000001
 31
0.0
  0
LINE
  5
1E6
  8
0
 62
     7
 10
112.9889999999999
 20
238.34800000000001
 30
0.0
 11
108.37299999999991
 21
238.34800000000001
 31
0.0
  0
LINE
  5
1E7
  8
0
 62
     7
 10
58.854500000000002
 20
207.30799999999999
 30
0.0
 11
58.854500000000002
 21
206.26799999999989
 31
0.0
  0
LINE
  5
1E8
  8
0
 62
     7
 10
59.057600000000001
 20
207.30799999999999
 30
0.0
 11
59.057600000000001
 21
206.26799999999989
 31
0.0
  0
LINE
  5
1E9
  8
0
 62
     7
 10
65.554599999999994
 20
206.06099999999989
 30
0.0
 11
65.554599999999994
 21
204.07499999999999
 31
0.0
  0
ARC
  5
1EA
  8
0
 62
     7
 10
64.305286999999993
 20
205.05230399999991
 30
0.0
 40
1.605488
 50
38.91104099999999
 51
49.197851000000007
  0
ARC
  5
1EB
  8
0
 62
     7
 10
64.329208999999992
 20
205.059732
 30
0.0
 40
1.572338
 50
310.69340599999992
 51
321.19770199999988
  0
LINE
  5
1EC
  8
0
 62
     7
 10
58.754399999999997
 20
203.86799999999991
 30
0.0
 11
65.354399999999998
 21
203.86799999999991
 31
0.0
  0
LINE
  5
1ED
  8
0
 62
     7
 10
58.754399999999997
 20
206.26799999999989
 30
0.0
 11
65.354399999999998
 21
206.26799999999989
 31
0.0
  0
ARC
  5
1EE
  8
0
 62
     7
 10
59.791421999999997
 20
205.07015000000001
 30
0.0
 40
1.5879529999999999
 50
218.83162599999989
 51
229.228004
  0
LINE
  5
1EF
  8
0
 62
     7
 10
58.554400000000001
 20
206.06099999999989
 30
0.0
 11
58.554400000000001
 21
204.07499999999999
 31
0.0
  0
ARC
  5
1F0
  8
0
 62
     7
 10
59.801010999999988
 20
205.05576199999999
 30
0.0
 40
1.6012360000000001
 50
130.815234
 51
141.125136
  0
LINE
  5
1F1
  8
0
 62
     7
 10
106.78700000000001
 20
207.30799999999999
 30
0.0
 11
106.78700000000001
 21
206.26799999999989
 31
0.0
  0
LINE
  5
1F2
  8
0
 62
     7
 10
100.59
 20
207.30799999999999
 30
0.0
 11
100.59
 21
206.26799999999989
 31
0.0
  0
LINE
  5
1F3
  8
0
 62
     7
 10
100.28700000000001
 20
186.9079999999999
 30
0.0
 11
103.586
 21
186.9079999999999
 31
0.0
  0
LINE
  5
1F4
  8
0
 62
     7
 10
100.28700000000001
 20
188.9079999999999
 30
0.0
 11
103.586
 21
188.9079999999999
 31
0.0
  0
ARC
  5
1F5
  8
0
 62
     7
 10
105.82749799999991
 20
205.078926
 30
0.0
 40
1.609213
 50
311.16973200000001
 51
359.59334000000001
  0
ARC
  5
1F6
  8
0
 62
     7
 10
105.830935
 20
205.05783099999999
 30
0.0
 40
1.605764999999999
 50
0.345154
 51
48.885545
  0
ARC
  5
1F7
  8
0
 62
     7
 10
101.343588
 20
205.05728599999989
 30
0.0
 40
1.6069589999999989
 50
131.13362299999989
 51
179.63563799999989
  0
ARC
  5
1F8
  8
0
 62
     7
 10
101.342018
 20
205.077178
 30
0.0
 40
1.605386
 50
180.34524799999991
 51
228.89171999999999
  0
LINE
  5
1F9
  8
0
 62
     7
 10
100.28700000000001
 20
203.86799999999991
 30
0.0
 11
106.8869999999999
 21
203.86799999999991
 31
0.0
  0
LINE
  5
1FA
  8
0
 62
     7
 10
100.28700000000001
 20
206.26799999999989
 30
0.0
 11
106.8869999999999
 21
206.26799999999989
 31
0.0
  0
ARC
  5
1FB
  8
0
 62
     7
 10
115.57400199999999
 20
235.75544999999991
 30
0.0
 40
3.378701
 50
50.105555000000003
 51
113.775977
  0
ARC
  5
1FC
  8
0
 62
     7
 10
115.66557399999991
 20
235.7964399999999
 30
0.0
 40
3.3795980000000001
 50
115.4770899999999
 51
179.133275
  0
ARC
  5
1FD
  8
0
 62
     7
 10
115.6641939999999
 20
235.89761999999999
 30
0.0
 40
3.378201999999999
 50
180.84908799999991
 51
244.537556
  0
ARC
  5
1FE
  8
0
 62
     7
 10
115.573849
 20
235.937297
 30
0.0
 40
3.3766250000000002
 50
246.21133099999989
 51
309.91965699999997
  0
LINE
  5
1FF
  8
0
  6
AIGENLINE001
 62
     7
 10
115.586
 20
241.18100000000001
 30
0.0
 11
115.586
 21
230.33500000000001
 31
0.0
  0
ARC
  5
200
  8
0
 62
     7
 10
115.6217909999999
 20
235.84755999999999
 30
0.0
 40
3.8852000000000002
 50
174.6678399999999
 51
185.33215999999999
  0
ARC
  5
201
  8
0
 62
     7
 10
115.6656499999999
 20
235.785416
 30
0.0
 40
2.6496520000000001
 50
104.75589599999989
 51
178.65606699999989
  0
ARC
  5
202
  8
0
 62
     7
 10
115.664978
 20
235.9093499999999
 30
0.0
 40
2.6489709999999991
 50
181.33661199999989
 51
255.25526499999989
  0
ARC
  5
203
  8
0
 62
     7
 10
115.60306299999991
 20
235.87718099999989
 30
0.0
 40
3.8838319999999991
 50
234.67629700000001
 51
245.34223299999991
  0
ARC
  5
204
  8
0
 62
     7
 10
115.587271
 20
235.8490819999999
 30
0.0
 40
3.8483909999999999
 50
54.61453800000001
 51
65.380274999999997
  0
LINE
  5
205
  8
0
 62
     7
 10
117.81399999999989
 20
238.98599999999999
 30
0.0
 11
118.18299999999989
 21
238.34699999999989
 31
0.0
  0
LINE
  5
206
  8
0
 62
     7
 10
118.185
 20
233.34700000000001
 30
0.0
 11
117.816
 21
232.708
 31
0.0
  0
LINE
  5
207
  8
0
 62
     7
 10
111.7529999999999
 20
235.4859999999999
 30
0.0
 11
113.35599999999999
 21
232.708
 31
0.0
  0
LINE
  5
208
  8
0
 62
     7
 10
113.357
 20
238.98699999999999
 30
0.0
 11
111.7529999999999
 21
236.209
 31
0.0
  0
ARC
  5
209
  8
0
 62
     7
 10
115.57795400000001
 20
235.8636799999999
 30
0.0
 40
3.868312
 50
294.63632799999988
 51
305.34518199999991
  0
ARC
  5
20A
  8
0
 62
     7
 10
115.59813
 20
235.82799399999999
 30
0.0
 40
3.8726359999999991
 50
114.653503
 51
125.35164399999999
  0
LINE
  5
20B
  8
0
 62
     7
 10
113.9829999999999
 20
232.34699999999989
 30
0.0
 11
117.1899999999999
 21
232.34699999999989
 31
0.0
  0
LINE
  5
20C
  8
0
 62
     7
 10
113.9829999999999
 20
239.34700000000001
 30
0.0
 11
117.1899999999999
 21
239.34700000000001
 31
0.0
  0
LINE
  5
20D
  8
0
 62
     7
 10
62.490600000000001
 20
207.48099999999991
 30
0.0
 11
61.618499999999997
 21
207.48099999999991
 31
0.0
  0
ARC
  5
20E
  8
0
 62
     7
 10
61.415506000000008
 20
208.50664299999991
 30
0.0
 40
0.202831
 50
0.277703
 51
44.594838000000003
  0
ARC
  5
20F
  8
0
 62
     7
 10
61.417076999999999
 20
208.50410400000001
 30
0.0
 40
0.203516
 50
45.414557000000009
 51
89.642977999999999
  0
ARC
  5
210
  8
0
 62
     7
 10
58.452121999999989
 20
208.50672599999999
 30
0.0
 40
0.202207
 50
0.255257
 51
44.736478000000012
  0
ARC
  5
211
  8
0
 62
     7
 10
58.45373699999999
 20
208.506137
 30
0.0
 40
0.20148
 50
45.178732000000011
 51
89.780122000000006
  0
ARC
  5
212
  8
0
 62
     7
 10
59.291505000000008
 20
208.50508099999999
 30
0.0
 40
0.202537
 50
90.293424000000016
 51
134.6982909999999
  0
ARC
  5
213
  8
0
 62
     7
 10
59.294024999999998
 20
208.50616999999991
 30
0.0
 40
0.203551
 50
135.41815800000001
 51
179.590068
  0
LINE
  5
214
  8
0
 62
     7
 10
59.090699999999991
 20
207.48099999999991
 30
0.0
 11
58.654499999999999
 21
207.48099999999991
 31
0.0
  0
ARC
  5
215
  8
0
 62
     7
 10
60.354406000000012
 20
212.043229
 30
0.0
 40
4.7342570000000004
 50
254.51568099999989
 51
285.48433799999992
  0
LINE
  5
216
  8
0
 62
     7
 10
61.618499999999997
 20
207.48099999999991
 30
0.0
 11
61.618499999999997
 21
208.50800000000001
 31
0.0
  0
LINE
  5
217
  8
0
 62
     7
 10
59.090699999999991
 20
207.48099999999991
 30
0.0
 11
59.090699999999991
 21
208.50800000000001
 31
0.0
  0
LINE
  5
218
  8
0
 62
     7
 10
58.654499999999999
 20
207.30799999999999
 30
0.0
 11
58.654499999999999
 21
208.50800000000001
 31
0.0
  0
LINE
  5
219
  8
0
 62
     7
 10
65.454499999999996
 20
207.30799999999999
 30
0.0
 11
58.654499999999999
 21
207.30799999999999
 31
0.0
  0
LINE
  5
21A
  8
0
 62
     7
 10
66.754499999999993
 20
208.70799999999991
 30
0.0
 11
57.354500000000002
 21
208.70799999999991
 31
0.0
  0
ARC
  5
21B
  8
0
 62
     7
 10
62.691676999999999
 20
208.50463099999999
 30
0.0
 40
0.202988
 50
90.296397999999996
 51
134.646028
  0
ARC
  5
21C
  8
0
 62
     7
 10
62.692515
 20
208.507036
 30
0.0
 40
0.201878
 50
135.29500100000001
 51
179.8324179999999
  0
ARC
  5
21D
  8
0
 62
     7
 10
65.655497999999994
 20
208.50508099999999
 30
0.0
 40
0.202537
 50
90.293424000000016
 51
134.6982909999999
  0
ARC
  5
21E
  8
0
 62
     7
 10
65.656870999999995
 20
208.50664499999991
 30
0.0
 40
0.202401
 50
135.2859959999999
 51
179.72223
  0
ARC
  5
21F
  8
0
 62
     7
 10
64.815950000000001
 20
208.50665699999999
 30
0.0
 40
0.202372
 50
0.2743450000000001
 51
44.717390000000002
  0
ARC
  5
220
  8
0
 62
     7
 10
64.817683999999986
 20
208.50602399999991
 30
0.0
 40
0.201592
 50
45.19202700000001
 51
89.816218999999975
  0
LINE
  5
221
  8
0
 62
     7
 10
65.454499999999996
 20
207.48099999999991
 30
0.0
 11
65.018500000000003
 21
207.48099999999991
 31
0.0
  0
ARC
  5
222
  8
0
 62
     7
 10
63.754479000000011
 20
212.041674
 30
0.0
 40
4.732734999999999
 50
254.511661
 51
285.488359
  0
LINE
  5
223
  8
0
 62
     7
 10
62.490600000000001
 20
208.50800000000001
 30
0.0
 11
62.490600000000001
 21
207.48099999999991
 31
0.0
  0
LINE
  5
224
  8
0
 62
     7
 10
65.018500000000003
 20
208.50800000000001
 30
0.0
 11
65.018500000000003
 21
207.48099999999991
 31
0.0
  0
LINE
  5
225
  8
0
 62
     7
 10
65.454499999999996
 20
208.50800000000001
 30
0.0
 11
65.454499999999996
 21
207.30799999999999
 31
0.0
  0
ARC
  5
226
  8
0
 62
     7
 10
66.750608999999997
 20
208.8114009999999
 30
0.0
 40
0.103858
 50
272.13967400000001
 51
357.8603359999999
  0
ARC
  5
227
  8
0
 62
     7
 10
57.358098999999989
 20
208.81130999999999
 30
0.0
 40
0.103764
 50
182.0912919999999
 51
267.90873799999991
  0
LINE
  5
228
  8
0
 62
     7
 10
66.854600000000005
 20
209.0079999999999
 30
0.0
 11
57.254600000000003
 21
209.0079999999999
 31
0.0
  0
LINE
  5
229
  8
0
 62
     7
 10
57.254600000000003
 20
208.80799999999999
 30
0.0
 11
57.254600000000003
 21
209.0079999999999
 31
0.0
  0
LINE
  5
22A
  8
0
 62
     7
 10
66.854600000000005
 20
208.80799999999999
 30
0.0
 11
66.854600000000005
 21
209.0079999999999
 31
0.0
  0
LINE
  5
22B
  8
0
 62
     7
 10
67.254499999999993
 20
209.208
 30
0.0
 11
67.254499999999993
 21
209.0079999999999
 31
0.0
  0
LINE
  5
22C
  8
0
 62
     7
 10
56.854399999999991
 20
209.208
 30
0.0
 11
56.854399999999991
 21
209.0079999999999
 31
0.0
  0
LINE
  5
22D
  8
0
 62
     7
 10
56.854399999999991
 20
209.0079999999999
 30
0.0
 11
67.254499999999993
 21
209.0079999999999
 31
0.0
  0
LINE
  5
22E
  8
0
 62
     7
 10
106.0869999999999
 20
203.86799999999991
 30
0.0
 11
106.0869999999999
 21
188.9079999999999
 31
0.0
  0
LINE
  5
22F
  8
0
 62
     7
 10
101.087
 20
203.86799999999991
 30
0.0
 11
101.087
 21
188.9079999999999
 31
0.0
  0
ARC
  5
230
  8
0
 62
     7
 10
104.844168
 20
208.5063439999999
 30
0.0
 40
0.202285
 50
0.363106
 51
44.866708000000003
  0
ARC
  5
231
  8
0
 62
     7
 10
104.8450279999999
 20
208.50495699999999
 30
0.0
 40
0.202661
 50
45.316262000000002
 51
89.741272999999993
  0
ARC
  5
232
  8
0
 62
     7
 10
106.00239599999991
 20
208.5048459999999
 30
0.0
 40
0.202772
 50
90.271557999999999
 51
134.6708669999999
  0
ARC
  5
233
  8
0
 62
     7
 10
106.00297499999991
 20
208.50742500000001
 30
0.0
 40
0.201357
 50
135.3040189999999
 51
179.94269700000001
  0
ARC
  5
234
  8
0
 62
     7
 10
106.5442129999999
 20
209.01925
 30
0.0
 40
1.708288
 50
244.23371700000001
 51
295.766302
  0
LINE
  5
235
  8
0
 62
     7
 10
105.04600000000001
 20
207.48099999999991
 30
0.0
 11
105.80200000000001
 21
207.48099999999991
 31
0.0
  0
LINE
  5
236
  8
0
 62
     7
 10
105.04600000000001
 20
208.50800000000001
 30
0.0
 11
105.04600000000001
 21
207.48099999999991
 31
0.0
  0
LINE
  5
237
  8
0
 62
     7
 10
105.80200000000001
 20
208.50800000000001
 30
0.0
 11
105.80200000000001
 21
207.48099999999991
 31
0.0
  0
ARC
  5
238
  8
0
 62
     7
 10
107.4879439999999
 20
208.503973
 30
0.0
 40
0.203645
 50
90.274256000000022
 51
134.56989899999999
  0
ARC
  5
239
  8
0
 62
     7
 10
107.488165
 20
208.50742500000001
 30
0.0
 40
0.201357
 50
135.3040189999999
 51
179.94269700000001
  0
LINE
  5
23A
  8
0
 62
     7
 10
107.28699999999991
 20
208.50800000000001
 30
0.0
 11
107.28699999999991
 21
207.48099999999991
 31
0.0
  0
LINE
  5
23B
  8
0
 62
     7
 10
106.98699999999999
 20
207.30799999999999
 30
0.0
 11
107.28699999999991
 21
207.48099999999991
 31
0.0
  0
ARC
  5
23C
  8
0
 62
     7
 10
102.328262
 20
208.5046449999999
 30
0.0
 40
0.202973
 50
90.294739000000007
 51
134.64768699999999
  0
ARC
  5
23D
  8
0
 62
     7
 10
102.32875799999989
 20
208.50742500000001
 30
0.0
 40
0.201357
 50
135.3040189999999
 51
179.94269700000001
  0
ARC
  5
23E
  8
0
 62
     7
 10
101.169352
 20
208.50658899999999
 30
0.0
 40
0.202537
 50
0.293434
 51
44.698301000000001
  0
ARC
  5
23F
  8
0
 62
     7
 10
101.171603
 20
208.50687599999989
 30
0.0
 40
0.20074
 50
45.092071999999987
 51
89.866782000000001
  0
LINE
  5
240
  8
0
 62
     7
 10
100.187
 20
207.30799999999999
 30
0.0
 11
106.98699999999999
 21
207.30799999999999
 31
0.0
  0
ARC
  5
241
  8
0
 62
     7
 10
100.62929099999999
 20
209.017809
 30
0.0
 40
1.70699
 50
244.21269100000001
 51
295.787329
  0
ARC
  5
242
  8
0
 62
     7
 10
103.586752
 20
213.58173400000001
 30
0.0
 40
6.2730360000000003
 50
256.54753299999987
 51
283.45248700000002
  0
LINE
  5
243
  8
0
 62
     7
 10
101.372
 20
207.48099999999991
 30
0.0
 11
102.127
 21
207.48099999999991
 31
0.0
  0
LINE
  5
244
  8
0
 62
     7
 10
102.127
 20
207.48099999999991
 30
0.0
 11
102.127
 21
208.50800000000001
 31
0.0
  0
LINE
  5
245
  8
0
 62
     7
 10
101.372
 20
207.48099999999991
 30
0.0
 11
101.372
 21
208.50800000000001
 31
0.0
  0
ARC
  5
246
  8
0
 62
     7
 10
99.684162000000001
 20
208.50658899999999
 30
0.0
 40
0.202537
 50
0.293434
 51
44.698301000000001
  0
ARC
  5
247
  8
0
 62
     7
 10
99.68562
 20
208.50495699999999
 30
0.0
 40
0.202661
 50
45.316262000000002
 51
89.741272999999993
  0
LINE
  5
248
  8
0
 62
     7
 10
99.886700000000005
 20
207.48099999999991
 30
0.0
 11
99.886700000000005
 21
208.50800000000001
 31
0.0
  0
LINE
  5
249
  8
0
 62
     7
 10
99.886700000000005
 20
207.48099999999991
 30
0.0
 11
100.187
 21
207.30799999999999
 31
0.0
  0
ARC
  5
24A
  8
0
 62
     7
 10
98.890166000000008
 20
208.81129000000001
 30
0.0
 40
0.103736
 50
182.08043099999989
 51
268.0182999999999
  0
ARC
  5
24B
  8
0
 62
     7
 10
108.282906
 20
208.8111989999999
 30
0.0
 40
0.103648
 50
272.03186599999998
 51
357.96814399999988
  0
LINE
  5
24C
  8
0
 62
     7
 10
98.886600000000016
 20
208.70799999999991
 30
0.0
 11
108.28699999999991
 21
208.70799999999991
 31
0.0
  0
LINE
  5
24D
  8
0
 62
     7
 10
108.386
 20
208.80799999999999
 30
0.0
 11
108.386
 21
209.0079999999999
 31
0.0
  0
LINE
  5
24E
  8
0
 62
     7
 10
98.786500000000004
 20
208.80799999999999
 30
0.0
 11
98.786500000000004
 21
209.0079999999999
 31
0.0
  0
LINE
  5
24F
  8
0
  6
AIGENLINE001
 62
     7
 10
135.30199999999999
 20
235.8479999999999
 30
0.0
 11
96.408699999999996
 21
235.8479999999999
 31
0.0
  0
LINE
  5
250
  8
0
  6
AIGENLINE001
 62
     7
 10
103.586
 20
243.15299999999991
 30
0.0
 11
103.586
 21
227.7879999999999
 31
0.0
  0
LINE
  5
251
  8
0
 62
     7
 10
106.687
 20
210.40700000000001
 30
0.0
 11
108.78700000000001
 21
209.208
 31
0.0
  0
LINE
  5
252
  8
0
 62
     7
 10
108.786
 20
209.0079999999999
 30
0.0
 11
108.786
 21
209.208
 31
0.0
  0
LINE
  5
253
  8
0
 62
     7
 10
98.386700000000005
 20
209.208
 30
0.0
 11
100.486
 21
210.4079999999999
 31
0.0
  0
LINE
  5
254
  8
0
 62
     7
 10
100.486
 20
210.4079999999999
 30
0.0
 11
106.687
 21
210.4079999999999
 31
0.0
  0
LINE
  5
255
  8
0
 62
     7
 10
98.386700000000005
 20
209.208
 30
0.0
 11
108.786
 21
209.208
 31
0.0
  0
LINE
  5
256
  8
0
 62
     7
 10
98.386700000000005
 20
209.0079999999999
 30
0.0
 11
108.786
 21
209.0079999999999
 31
0.0
  0
LINE
  5
257
  8
0
 62
     7
 10
98.386700000000005
 20
209.208
 30
0.0
 11
98.386700000000005
 21
209.0079999999999
 31
0.0
  0
LINE
  5
258
  8
0
 62
     7
 10
65.154600000000002
 20
210.40700000000001
 30
0.0
 11
67.254499999999993
 21
209.208
 31
0.0
  0
LINE
  5
259
  8
0
 62
     7
 10
56.854599999999991
 20
209.208
 30
0.0
 11
58.954599999999992
 21
210.4079999999999
 31
0.0
  0
LINE
  5
25A
  8
0
 62
     7
 10
58.954599999999992
 20
210.4079999999999
 30
0.0
 11
65.154399999999995
 21
210.4079999999999
 31
0.0
  0
LINE
  5
25B
  8
0
 62
     7
 10
56.854399999999991
 20
209.208
 30
0.0
 11
67.254499999999993
 21
209.208
 31
0.0
  0
LINE
  5
25C
  8
0
 62
     7
 10
65.254499999999993
 20
206.26799999999989
 30
0.0
 11
65.254499999999993
 21
207.30799999999999
 31
0.0
  0
LINE
  5
25D
  8
0
 62
     7
 10
65.051199999999994
 20
206.26799999999989
 30
0.0
 11
65.051199999999994
 21
207.30799999999999
 31
0.0
  0
LINE
  5
25E
  8
0
 62
     7
 10
56.654400000000003
 20
213.10799999999989
 30
0.0
 11
56.654400000000003
 21
213.0679999999999
 31
0.0
  0
LINE
  5
25F
  8
0
 62
     7
 10
106.584
 20
206.26799999999989
 30
0.0
 11
106.584
 21
207.30799999999999
 31
0.0
  0
LINE
  5
260
  8
0
 62
     7
 10
100.387
 20
206.26799999999989
 30
0.0
 11
100.387
 21
207.30799999999999
 31
0.0
  0
LINE
  5
261
  8
0
 62
     7
 10
64.554400000000001
 20
203.86799999999991
 30
0.0
 11
64.554400000000001
 21
188.9079999999999
 31
0.0
  0
LINE
  5
262
  8
0
 62
     7
 10
59.554400000000001
 20
203.86799999999991
 30
0.0
 11
59.554400000000001
 21
188.9079999999999
 31
0.0
  0
LINE
  5
263
  8
0
 62
     7
 10
59.554400000000001
 20
61.306600000000003
 30
0.0
 11
59.554400000000001
 21
55.3065
 31
0.0
  0
LINE
  5
264
  8
0
 62
     7
 10
118.087
 20
183.30699999999999
 30
0.0
 11
118.087
 21
182.90700000000001
 31
0.0
  0
LINE
  5
265
  8
0
 62
     7
 10
113.087
 20
183.30699999999999
 30
0.0
 11
113.087
 21
182.90700000000001
 31
0.0
  0
LINE
  5
266
  8
0
 62
     7
 10
64.554400000000001
 20
180.23699999999991
 30
0.0
 11
64.554400000000001
 21
64.306600000000003
 31
0.0
  0
ARC
  5
267
  8
0
 62
     7
 10
121.5867139999999
 20
183.30753999999999
 30
0.0
 40
3.4999809999999991
 50
359.99860000000001
 51
89.998570000000001
  0
ARC
  5
268
  8
0
 62
     7
 10
121.5867159999999
 20
183.307368
 30
0.0
 40
3.5001540000000002
 50
89.998589999999993
 51
179.99856
  0
ARC
  5
269
  8
0
 62
     7
 10
121.5867999999999
 20
183.30745300000001
 30
0.0
 40
8.5001390000000008
 50
0.00001
 51
89.999980000000008
  0
ARC
  5
26A
  8
0
 62
     7
 10
121.5868029999999
 20
183.30745300000001
 30
0.0
 40
8.5001390000000008
 50
90.0
 51
179.99996999999991
  0
ARC
  5
26B
  8
0
  6
AIGENLINE001
 62
     7
 10
121.5867999999999
 20
183.30745400000001
 30
0.0
 40
6.0000169999999988
 50
0.00001
 51
89.999980000000008
  0
ARC
  5
26C
  8
0
  6
AIGENLINE001
 62
     7
 10
121.58680200000001
 20
183.30745400000001
 30
0.0
 40
6.0000169999999988
 50
90.0
 51
179.99996999999991
  0
LINE
  5
26D
  8
0
  6
AIGENLINE001
 62
     7
 10
62.05449999999999
 20
215.39899999999989
 30
0.0
 11
62.05449999999999
 21
51.306399999999989
 31
0.0
  0
LINE
  5
26E
  8
0
 62
     7
 10
64.554400000000001
 20
55.3065
 30
0.0
 11
59.554400000000001
 21
55.3065
 31
0.0
  0
ARC
  5
26F
  8
0
 62
     7
 10
101.6538649999999
 20
180.90893
 30
0.0
 40
0.7470710000000002
 50
180.1163159999999
 51
213.153144
  0
ARC
  5
270
  8
0
 62
     7
 10
105.5210159999999
 20
180.90932599999999
 30
0.0
 40
0.7456960000000001
 50
330.05197199999998
 51
359.8531089999999
  0
ARC
  5
271
  8
0
 62
     7
 10
106.689581
 20
180.236537
 30
0.0
 40
0.6027070000000001
 50
150.09063399999999
 51
179.98924899999989
  0
ARC
  5
272
  8
0
 62
     7
 10
100.522046
 20
180.168115
 30
0.0
 40
0.6056390000000002
 50
354.82492100000002
 51
33.271571000000002
  0
LINE
  5
273
  8
0
 62
     7
 10
106.0869999999999
 20
180.23699999999991
 30
0.0
 11
106.0869999999999
 21
179.30799999999991
 31
0.0
  0
ARC
  5
274
  8
0
 62
     7
 10
60.118062000000002
 20
180.908492
 30
0.0
 40
0.7437060000000001
 50
180.083046
 51
209.9622
  0
ARC
  5
275
  8
0
 62
     7
 10
63.989194999999988
 20
180.90890599999989
 30
0.0
 40
0.7452490000000001
 50
330.06946799999997
 51
359.88532599999991
  0
LINE
  5
276
  8
0
 62
     7
 10
106.267
 20
186.9079999999999
 30
0.0
 11
106.267
 21
180.90700000000001
 31
0.0
  0
LINE
  5
277
  8
0
 62
     7
 10
100.907
 20
186.9079999999999
 30
0.0
 11
100.907
 21
180.90700000000001
 31
0.0
  0
ARC
  5
278
  8
0
 62
     7
 10
65.15598
 20
180.23625000000001
 30
0.0
 40
0.601545
 50
149.9953899999999
 51
179.96187199999989
  0
LINE
  5
279
  8
0
 62
     7
 10
64.734399999999994
 20
186.9079999999999
 30
0.0
 11
64.734399999999994
 21
180.90700000000001
 31
0.0
  0
LINE
  5
27A
  8
0
 62
     7
 10
59.374400000000001
 20
186.9079999999999
 30
0.0
 11
59.374400000000001
 21
180.90700000000001
 31
0.0
  0
LINE
  5
27B
  8
0
  6
AIGENLINE001
 62
     7
 10
103.586
 20
215.39899999999989
 30
0.0
 11
103.586
 21
179.30799999999991
 31
0.0
  0
ARC
  5
27C
  8
0
 62
     7
 10
112.38704799999989
 20
178.58092999999991
 30
0.0
 40
0.6070409999999999
 50
345.74059399999999
 51
26.292151
  0
ARC
  5
27D
  8
0
 62
     7
 10
118.642287
 20
178.3514999999999
 30
0.0
 40
0.60614
 50
142.56635600000001
 51
173.78584299999989
  0
ARC
  5
27E
  8
0
 62
     7
 10
109.7060279999999
 20
179.41247499999989
 30
0.0
 40
3.620676
 50
181.66141399999989
 51
261.08771999999999
  0
ARC
  5
27F
  8
0
 62
     7
 10
109.497873
 20
179.43876299999991
 30
0.0
 40
3.620477999999999
 50
264.40841899999998
 51
343.844921
  0
ARC
  5
280
  8
0
 62
     7
 10
109.93969299999991
 20
179.59757099999999
 30
0.0
 40
8.8299070000000004
 50
176.650386
 51
262.1819549999999
  0
ARC
  5
281
  8
0
 62
     7
 10
109.2980639999999
 20
179.66181
 30
0.0
 40
8.8298140000000007
 50
266.36714499999988
 51
351.89628399999992
  0
ARC
  5
282
  8
0
  6
AIGENLINE001
 62
     7
 10
109.5864229999999
 20
179.30749999999989
 30
0.0
 40
6.0000150000000003
 50
179.99996999999991
 51
270.00002000000001
  0
ARC
  5
283
  8
0
  6
AIGENLINE001
 62
     7
 10
109.5865949999999
 20
179.3076749999999
 30
0.0
 40
6.000189999999999
 50
269.99837500000001
 51
359.99834499999997
  0
LINE
  5
284
  8
0
 62
     7
 10
118.327
 20
180.90700000000001
 30
0.0
 11
118.327
 21
179.208
 31
0.0
  0
LINE
  5
285
  8
0
 62
     7
 10
112.84699999999999
 20
180.90700000000001
 30
0.0
 11
112.84699999999999
 21
179.208
 31
0.0
  0
LINE
  5
286
  8
0
  6
AIGENLINE001
 62
     7
 10
115.5869999999999
 20
183.30699999999999
 30
0.0
 11
115.5869999999999
 21
179.30799999999991
 31
0.0
  0
ARC
  5
287
  8
0
 62
     7
 10
117.52159499999991
 20
179.2091879999999
 30
0.0
 40
0.805094
 50
322.57701600000001
 51
359.88651499999992
  0
ARC
  5
288
  8
0
 62
     7
 10
113.648185
 20
179.20856199999989
 30
0.0
 40
0.8016469999999999
 50
180.06924100000001
 51
206.5839829999999
  0
LINE
  5
289
  8
_________2
 62
     7
 10
205.30099999999999
 20
127.411
 30
0.0
 11
183.55000000000001
 21
127.411
 31
0.0
  0
LINE
  5
28A
  8
_________2
 62
     7
 10
100.2999999999999
 20
-4.0910799999999998
 30
0.0
 11
100.2999999999999
 21
-21.070699999999992
 31
0.0
  0
LINE
  5
28B
  8
_________2
 62
     7
 10
100.2999999999999
 20
275.93099999999993
 30
0.0
 11
100.2999999999999
 21
258.911
 31
0.0
  0
LINE
  5
28C
  8
_________2
 62
     7
 10
17.049199999999988
 20
127.411
 30
0.0
 11
-4.7008599999999987
 21
127.411
 31
0.0
  0
LINE
  5
28D
  8
_________2
 62
     7
 10
76.740700000000004
 20
29.8047
 30
0.0
 11
74.554400000000001
 21
29.8047
 31
0.0
  0
LINE
  5
28E
  8
_________2
 62
     7
 10
77.2333
 20
29.8047
 30
0.0
 11
76.981099999999984
 21
29.8047
 31
0.0
  0
LINE
  5
28F
  8
_________2
 62
     7
 10
77.725999999999999
 20
29.8047
 30
0.0
 11
80.650899999999993
 21
29.8047
 31
0.0
  0
LINE
  5
290
  8
_________2
 62
     7
 10
77.2333
 20
29.8047
 30
0.0
 11
77.485200000000006
 21
29.8047
 31
0.0
  0
LINE
  5
291
  8
_________2
 62
     7
 10
70.836799999999997
 20
29.8047
 30
0.0
 11
68.650199999999998
 21
29.8047
 31
0.0
  0
LINE
  5
292
  8
_________2
 62
     7
 10
71.329099999999997
 20
29.8047
 30
0.0
 11
71.077200000000005
 21
29.8047
 31
0.0
  0
LINE
  5
293
  8
_________2
 62
     7
 10
71.329099999999997
 20
30.2974
 30
0.0
 11
71.329099999999997
 21
32.484400000000001
 31
0.0
  0
LINE
  5
294
  8
_________2
 62
     7
 10
71.329099999999997
 20
29.8047
 30
0.0
 11
71.329099999999997
 21
30.057600000000001
 31
0.0
  0
LINE
  5
295
  8
_________2
 62
     7
 10
71.821700000000007
 20
29.8047
 30
0.0
 11
74.008700000000005
 21
29.8047
 31
0.0
  0
LINE
  5
296
  8
_________2
 62
     7
 10
71.329099999999997
 20
29.8047
 30
0.0
 11
71.581299999999985
 21
29.8047
 31
0.0
  0
LINE
  5
297
  8
_________2
 62
     7
 10
71.329099999999997
 20
29.312799999999999
 30
0.0
 11
71.329099999999997
 21
27.1265
 31
0.0
  0
LINE
  5
298
  8
_________2
 62
     7
 10
71.329099999999997
 20
29.8047
 30
0.0
 11
71.329099999999997
 21
29.5532
 31
0.0
  0
LINE
  5
299
  8
_________2
 62
     7
 10
75.040199999999999
 20
28.5852
 30
0.0
 11
80.218199999999996
 21
27.720400000000001
 31
0.0
  0
LINE
  5
29A
  8
_________2
 62
     7
 10
75.040199999999999
 20
31.024699999999999
 30
0.0
 11
80.218199999999996
 21
31.8904
 31
0.0
  0
LINE
  5
29B
  8
_________2
 62
     7
 10
80.218199999999996
 20
27.720400000000001
 30
0.0
 11
80.218199999999996
 21
31.8904
 31
0.0
  0
LINE
  5
29C
  8
_________2
 62
     7
 10
75.040199999999999
 20
28.5852
 30
0.0
 11
75.040199999999999
 21
31.024699999999999
 31
0.0
  0
ARC
  5
29D
  8
_________2
 62
     7
 10
71.282178000000002
 20
29.757835
 30
0.0
 40
1.267692
 50
2.1205620000000001
 51
87.879428000000004
  0
ARC
  5
29E
  8
_________2
 62
     7
 10
71.375640000000004
 20
29.758545999999999
 30
0.0
 40
1.2669680000000001
 50
92.105782999999988
 51
177.91037
  0
ARC
  5
29F
  8
_________2
 62
     7
 10
71.376013999999998
 20
29.851671
 30
0.0
 40
1.2673680000000001
 50
182.12203600000001
 51
267.877993
  0
ARC
  5
2A0
  8
_________2
 62
     7
 10
71.282186999999993
 20
29.851998999999989
 30
0.0
 40
1.267695999999999
 50
272.12015300000002
 51
357.863674
  0
ARC
  5
2A1
  8
_________2
 62
     7
 10
71.248367999999999
 20
29.724740999999991
 30
0.0
 40
2.1671800000000001
 50
2.1155650000000001
 51
87.865493000000015
  0
ARC
  5
2A2
  8
_________2
 62
     7
 10
71.408771000000002
 20
29.726130999999999
 30
0.0
 40
2.165753
 50
92.108563000000004
 51
177.91980699999999
  0
ARC
  5
2A3
  8
_________2
 62
     7
 10
71.408760999999984
 20
29.884775999999999
 30
0.0
 40
2.1657950000000001
 50
182.11776599999999
 51
267.89173399999999
  0
ARC
  5
2A4
  8
_________2
 62
     7
 10
71.249115000000003
 20
29.885429999999989
 30
0.0
 40
2.1664590000000001
 50
272.11546800000002
 51
357.86560400000002
  0
TEXT
  5
2A5
  8
_________2
 62
     7
 10
104.604
 20
1.6794899999999999
 30
0.0
 40
3.0923400000000001
  1
図番
 41
0.5
  0
LINE
  5
2A6
  8
_________2
 62
     7
 10
103.55
 20
5.9087199999999989
 30
0.0
 11
183.55099999999999
 21
5.9087199999999989
 31
0.0
  0
TEXT
  5
2A7
  8
_________2
 62
     7
 10
104.604
 20
11.679299999999991
 30
0.0
 40
3.0923400000000001
  1
品番
 41
0.5
  0
TEXT
  5
2A8
  8
_________2
 62
     7
 10
104.604
 20
31.8184
 30
0.0
 40
3.0923400000000001
  1
名称
 41
0.5
  0
TEXT
  5
2A9
  8
_________2
 62
     7
 10
91.844758333333345
 20
26.822299999999998
 30
0.0
 40
3.6545800000000002
  1
mm
 41
0.5
 72
     1
 11
93.367500000000007
 21
26.822299999999998
 31
0.0
  0
TEXT
  5
2AA
  8
_________2
 62
     7
 10
85.642899999999983
 20
31.8184
 30
0.0
 40
3.0923400000000001
  1
単位
 41
0.5
  0
TEXT
  5
2AB
  8
_________2
 62
     7
 10
85.642899999999983
 20
19.410799999999991
 30
0.0
 40
3.0923400000000001
  1
尺度
 41
0.5
  0
TEXT
  5
2AC
  8
_________2
 62
     7
 10
90.548458666666676
 20
13.218199999999991
 30
0.0
 40
3.6545800000000002
  1
1 ： 5
 41
0.5
 72
     1
 11
93.959400000000016
 21
13.218199999999991
 31
0.0
  0
TEXT
  5
2AD
  8
_________2
 62
     7
 10
135.5146125
 20
9.1082000000000001
 30
0.0
 40
3.9357000000000002
  1
CEM93000S
 41
0.5
 72
     1
 11
143.55000000000001
 21
9.1082000000000001
 31
0.0
  0
TEXT
  5
2AE
  8
_________2
 62
     7
 10
135.5146125
 20
-0.8926299999999999
 30
0.0
 40
3.9357000000000002
  1
CEM93000S
 41
0.5
 72
     1
 11
143.55000000000001
 21
-0.8926299999999999
 31
0.0
  0
TEXT
  5
2AF
  8
_________2
 62
     7
 10
109.179
 20
24.226400000000002
 30
0.0
 40
3.9357000000000002
  1
Sトラップ（25mm）
 41
0.5
  0
TEXT
  5
2B0
  8
_________2
 62
     7
 10
39.364090666666669
 20
13.603400000000001
 30
0.0
 40
3.6545800000000002
  1
高橋
 41
0.5
 72
     1
 11
41.313200000000002
 21
13.603400000000001
 31
0.0
  0
TEXT
  5
2B1
  8
_________2
 62
     7
 10
20.789690666666662
 20
13.603400000000001
 30
0.0
 40
3.6545800000000002
  1
石原
 41
0.5
 72
     1
 11
22.738800000000001
 21
13.603400000000001
 31
0.0
  0
TEXT
  5
2B2
  8
_________2
 62
     7
 10
67.7851
 20
13.218199999999991
 30
0.0
 40
3.6545800000000002
  1
07.10.30
 41
0.5
  0
TEXT
  5
2B3
  8
_________2
 62
     7
 10
66.592699999999994
 20
19.410799999999991
 30
0.0
 40
3.0923400000000001
  1
日付
 41
0.5
  0
TEXT
  5
2B4
  8
_________2
 62
     7
 10
29.638999999999999
 20
19.410799999999991
 30
0.0
 40
3.0923400000000001
  1
検図
 41
0.5
  0
TEXT
  5
2B5
  8
_________2
 62
     7
 10
18.020700000000001
 20
5.21143
 30
0.0
 40
3.0923400000000001
  1
備考
 41
0.5
  0
TEXT
  5
2B6
  8
_________2
 62
     7
 10
18.020700000000001
 20
19.410799999999991
 30
0.0
 40
3.0923400000000001
  1
製図
 41
0.5
  0
TEXT
  5
2B7
  8
_________2
 62
     7
 10
23.788165333333328
 20
27.936800000000002
 30
0.0
 40
4.4979399999999989
  1
セラトレーディング株式会社
 41
0.5
 72
     1
 11
41.180199999999999
 21
27.936800000000002
 31
0.0
  0
LINE
  5
2B8
  8
_________2
 62
     7
 10
183.55099999999999
 20
-4.0910799999999998
 30
0.0
 11
17.049199999999988
 21
-4.0910799999999998
 31
0.0
  0
LINE
  5
2B9
  8
_________2
 62
     7
 10
17.049199999999988
 20
-4.0910799999999998
 30
0.0
 11
17.049199999999988
 21
258.911
 31
0.0
  0
LINE
  5
2BA
  8
_________2
 62
     7
 10
17.049199999999988
 20
258.911
 30
0.0
 11
183.55099999999999
 21
258.911
 31
0.0
  0
LINE
  5
2BB
  8
_________2
 62
     7
 10
183.55099999999999
 20
258.911
 30
0.0
 11
183.55099999999999
 21
-4.0910799999999998
 31
0.0
  0
LINE
  5
2BC
  8
_________2
 62
     7
 10
65.549199999999999
 20
9.4096499999999992
 30
0.0
 11
65.549199999999999
 21
35.909500000000001
 31
0.0
  0
LINE
  5
2BD
  8
_________2
 62
     7
 10
84.549400000000006
 20
9.4096499999999992
 30
0.0
 11
84.549400000000006
 21
35.909500000000001
 31
0.0
  0
LINE
  5
2BE
  8
_________2
 62
     7
 10
103.55
 20
-4.0910799999999998
 30
0.0
 11
103.55
 21
35.909500000000001
 31
0.0
  0
LINE
  5
2BF
  8
_________2
 62
     7
 10
28.548999999999999
 20
9.4096499999999992
 30
0.0
 11
28.548999999999999
 21
23.409199999999998
 31
0.0
  0
LINE
  5
2C0
  8
_________2
 62
     7
 10
17.049199999999988
 20
9.4096499999999992
 30
0.0
 11
103.55
 21
9.4096499999999992
 31
0.0
  0
LINE
  5
2C1
  8
_________2
 62
     7
 10
17.049199999999988
 20
23.409199999999998
 30
0.0
 11
103.55
 21
23.409199999999998
 31
0.0
  0
LINE
  5
2C2
  8
_________2
 62
     7
 10
103.55
 20
15.9085
 30
0.0
 11
183.55099999999999
 21
15.9085
 31
0.0
  0
LINE
  5
2C3
  8
_________2
 62
     7
 10
17.049199999999988
 20
35.909500000000001
 30
0.0
 11
183.55099999999999
 21
35.909500000000001
 31
0.0
  0
ENDSEC
  0
EOF
