  0
SECTION
  2
HEADER
  9
$ACADVER
  1
AC1009
  9
$INSBASE
 10
0.0
 20
0.0
 30
0.0
  9
$EXTMIN
 10
-4.7010300000000003
 20
-21.071000000000002
 30
0.0
  9
$EXTMAX
 10
205.30099999999999
 20
275.93099999999998
 30
0.0
  9
$LIMMIN
 10
0.0
 20
0.0
  9
$LIMMAX
 10
12.0
 20
9.0
  9
$ORTHOMODE
 70
     0
  9
$REGENMODE
 70
     1
  9
$FILLMODE
 70
     1
  9
$QTEXTMODE
 70
     0
  9
$MIRRTEXT
 70
     1
  9
$DRAGMODE
 70
     2
  9
$LTSCALE
 40
1.0
  9
$OSMODE
 70
    37
  9
$ATTMODE
 70
     1
  9
$TEXTSIZE
 40
0.0
  9
$TRACEWID
 40
0.05
  9
$TEXTSTYLE
  7
STANDARD
  9
$CLAYER
  8
0
  9
$CELTYPE
  6
CONTINUOUS
  9
$CECOLOR
 62
   256
  9
$DIMSCALE
 40
1.0
  9
$DIMASZ
 40
0.18
  9
$DIMEXO
 40
0.0625
  9
$DIMDLI
 40
0.38
  9
$DIMRND
 40
0.0
  9
$DIMDLE
 40
0.0
  9
$DIMEXE
 40
0.18
  9
$DIMTP
 40
0.0
  9
$DIMTM
 40
0.0
  9
$DIMTXT
 40
0.18
  9
$DIMCEN
 40
0.09
  9
$DIMTSZ
 40
0.0
  9
$DIMTOL
 70
     0
  9
$DIMLIM
 70
     0
  9
$DIMTIH
 70
     1
  9
$DIMTOH
 70
     1
  9
$DIMSE1
 70
     0
  9
$DIMSE2
 70
     0
  9
$DIMTAD
 70
     0
  9
$DIMZIN
 70
     0
  9
$DIMBLK
  1

  9
$DIMASO
 70
     1
  9
$DIMSHO
 70
     1
  9
$DIMPOST
  1

  9
$DIMAPOST
  1

  9
$DIMALT
 70
     0
  9
$DIMALTD
 70
     2
  9
$DIMALTF
 40
25.399999999999999
  9
$DIMLFAC
 40
1.0
  9
$DIMTOFL
 70
     0
  9
$DIMTVP
 40
0.0
  9
$DIMTIX
 70
     0
  9
$DIMSOXD
 70
     0
  9
$DIMSAH
 70
     0
  9
$DIMBLK1
  1

  9
$DIMBLK2
  1

  9
$DIMSTYLE
  2
STANDARD
  9
$DIMCLRD
 70
     0
  9
$DIMCLRE
 70
     0
  9
$DIMCLRT
 70
     0
  9
$DIMTFAC
 40
1.0
  9
$DIMGAP
 40
0.09
  9
$LUNITS
 70
     2
  9
$LUPREC
 70
     4
  9
$SKETCHINC
 40
0.1
  9
$FILLETRAD
 40
0.0
  9
$AUNITS
 70
     0
  9
$AUPREC
 70
     0
  9
$MENU
  1
.
  9
$ELEVATION
 40
0.0
  9
$PELEVATION
 40
0.0
  9
$THICKNESS
 40
0.0
  9
$LIMCHECK
 70
     0
  9
$BLIPMODE
 70
     0
  9
$CHAMFERA
 40
0.0
  9
$CHAMFERB
 40
0.0
  9
$SKPOLY
 70
     0
  9
$TDCREATE
 40
2444972.375
  9
$TDUPDATE
 40
2458296.4151898259
  9
$TDINDWG
 40
0.0000256481
  9
$TDUSRTIMER
 40
0.0000256481
  9
$USRTIMER
 70
     1
  9
$ANGBASE
 50
0.0
  9
$ANGDIR
 70
     0
  9
$PDMODE
 70
     0
  9
$PDSIZE
 40
0.0
  9
$PLINEWID
 40
0.0
  9
$COORDS
 70
     1
  9
$SPLFRAME
 70
     0
  9
$SPLINETYPE
 70
     6
  9
$SPLINESEGS
 70
     8
  9
$ATTDIA
 70
     1
  9
$ATTREQ
 70
     1
  9
$HANDLING
 70
     1
  9
$HANDSEED
  5
191
  9
$SURFTAB1
 70
     6
  9
$SURFTAB2
 70
     6
  9
$SURFTYPE
 70
     6
  9
$SURFU
 70
     6
  9
$SURFV
 70
     6
  9
$UCSNAME
  2

  9
$UCSORG
 10
0.0
 20
0.0
 30
0.0
  9
$UCSXDIR
 10
1.0
 20
0.0
 30
0.0
  9
$UCSYDIR
 10
0.0
 20
1.0
 30
0.0
  9
$PUCSNAME
  2

  9
$PUCSORG
 10
0.0
 20
0.0
 30
0.0
  9
$PUCSXDIR
 10
1.0
 20
0.0
 30
0.0
  9
$PUCSYDIR
 10
0.0
 20
1.0
 30
0.0
  9
$USERI1
 70
     0
  9
$USERI2
 70
     0
  9
$USERI3
 70
     0
  9
$USERI4
 70
     0
  9
$USERI5
 70
     0
  9
$USERR1
 40
0.0
  9
$USERR2
 40
0.0
  9
$USERR3
 40
0.0
  9
$USERR4
 40
0.0
  9
$USERR5
 40
0.0
  9
$WORLDVIEW
 70
     1
  9
$SHADEDGE
 70
     3
  9
$SHADEDIF
 70
    70
  9
$TILEMODE
 70
     1
  9
$MAXACTVP
 70
    48
  9
$PLIMCHECK
 70
     0
  9
$PEXTMIN
 10
1.0000000000000000E+020
 20
1.0000000000000000E+020
 30
1.0000000000000000E+020
  9
$PEXTMAX
 10
-1.0000000000000000E+020
 20
-1.0000000000000000E+020
 30
-1.0000000000000000E+020
  9
$PLIMMIN
 10
0.0
 20
0.0
  9
$PLIMMAX
 10
12.0
 20
9.0
  9
$UNITMODE
 70
     0
  9
$VISRETAIN
 70
     1
  9
$PLINEGEN
 70
     0
  9
$PSLTSCALE
 70
     1
  0
ENDSEC
  0
SECTION
  2
TABLES
  0
TABLE
  2
VPORT
 70
     1
  0
VPORT
  2
*ACTIVE
 70
     0
 10
0.0
 20
0.0
 11
1.0
 21
1.0
 12
185.50599256844319
 22
127.42999999999989
 13
0.0
 23
0.0
 14
1.0
 24
1.0
 15
0.0
 25
0.0
 16
0.0
 26
0.0
 36
1.0
 17
0.0
 27
0.0
 37
0.0
 40
280.86044913119582
 41
2.298642533936651
 42
50.0
 43
0.0
 44
0.0
 50
0.0
 51
0.0
 71
     0
 72
   100
 73
     1
 74
     1
 75
     0
 76
     0
 77
     0
 78
     0
  0
ENDTAB
  0
TABLE
  2
LTYPE
 70
     2
  0
LTYPE
  2
CONTINUOUS
 70
     0
  3
Solid line
 72
    65
 73
     0
 40
0.0
  0
LTYPE
  2
AIGENLINE001
 70
     0
  3
generate AI->DXF Converter
 72
    65
 73
     4
 40
5.8561449999999988
 49
3.5278
 49
-0.776115
 49
0.776115
 49
-0.776115
  0
ENDTAB
  0
TABLE
  2
LAYER
 70
     2
  0
LAYER
  2
0
 70
     0
 62
     7
  6
CONTINUOUS
  0
LAYER
  2
_________2
 70
     0
 62
     7
  6
CONTINUOUS
  0
ENDTAB
  0
TABLE
  2
STYLE
 70
     1
  0
STYLE
  2
STANDARD
 70
     0
 40
0.0
 41
0.0
 50
0.0
 71
     0
 42
0.0
  3
TXT
  4
BIGFONT
  0
ENDTAB
  0
TABLE
  2
VIEW
 70
     0
  0
ENDTAB
  0
TABLE
  2
UCS
 70
     0
  0
ENDTAB
  0
TABLE
  2
APPID
 70
     3
  0
APPID
  2
ACAD
 70
     0
  0
APPID
  2
ACAD_NAV_VCDISPLAY
 70
     0
  0
APPID
  2
ACAD_MLEADERVER
 70
     0
  0
ENDTAB
  0
TABLE
  2
DIMSTYLE
 70
     1
  0
DIMSTYLE
  2
STANDARD
 70
     0
  3

  4

  5

  6

  7

 40
1.0
 41
0.18
 42
0.0625
 43
0.38
 44
0.18
 45
0.0
 46
0.0
 47
0.0
 48
0.0
140
0.18
141
0.09
142
0.0
143
25.399999999999999
144
1.0
145
0.0
146
1.0
147
0.09
 71
     0
 72
     0
 73
     1
 74
     1
 75
     0
 76
     0
 77
     0
 78
     0
170
     0
171
     2
172
     0
173
     0
174
     0
175
     0
176
     0
177
     0
178
     0
  0
ENDTAB
  0
ENDSEC
  0
SECTION
  2
BLOCKS
  0
BLOCK
  8
0
  2
$MODEL_SPACE
 70
     0
 10
0.0
 20
0.0
 30
0.0
  3
$MODEL_SPACE
  1

  0
ENDBLK
  5
1A
  8
0
  0
BLOCK
 67
     1
  8
0
  2
$PAPER_SPACE
 70
     0
 10
0.0
 20
0.0
 30
0.0
  3
$PAPER_SPACE
  1

  0
ENDBLK
  5
17
 67
     1
  8
0
  0
ENDSEC
  0
SECTION
  2
ENTITIES
  0
TEXT
  5
22
  8
0
 10
83.382332500000004
 20
78.293000000000006
 30
0.0
 40
3.9357000000000002
  1
・%%c5\U+00D720 SUSなべ頭＋タッピンねじ付
 41
0.5
 72
     1
 11
106.111
 21
78.293000000000006
 31
0.0
  0
TEXT
  5
23
  8
0
 10
104.604525
 20
148.39099999999999
 30
0.0
 40
3.0923400000000001
  1
35
 41
0.5
 72
     1
 11
105.893
 21
148.39099999999999
 31
0.0
  0
TEXT
  5
24
  8
0
 10
83.769067500000006
 20
148.39099999999999
 30
0.0
 40
3.0923400000000001
  1
10
 41
0.5
 72
     1
 11
84.671000000000006
 21
148.39099999999999
 31
0.0
  0
TEXT
  5
25
  8
0
 10
76.742710000000002
 20
148.39099999999999
 30
0.0
 40
3.0923400000000001
  1
5
 41
0.5
 72
     1
 11
77.258099999999999
 21
148.39099999999999
 31
0.0
  0
TEXT
  5
26
  8
0
 10
111.73061
 20
187.47
 30
0.0
 40
3.0923400000000001
  1
5
 41
0.5
 72
     1
 11
112.246
 21
187.47
 31
0.0
  0
TEXT
  5
27
  8
0
 10
115.82944000000001
 20
155.934
 30
0.0
 40
3.0923400000000001
  1
12.5
 41
0.5
 72
     1
 11
117.89100000000001
 21
155.934
 31
0.0
  0
TEXT
  5
28
  8
0
 10
89.383743999999979
 20
123.392
 30
0.0
 40
3.0923400000000001
  1
両面テープ付
 41
0.5
 72
     1
 11
94.743799999999993
 21
123.392
 31
0.0
  0
TEXT
  5
29
  8
0
 10
98.500772499999997
 20
140.982
 30
0.0
 40
3.0923400000000001
  1
50
 41
0.5
 72
     1
 11
99.660399999999996
 21
140.982
 31
0.0
  0
TEXT
  5
2A
  8
0
 10
131.47200000000001
 20
100.31552499999999
 30
0.0
 40
3.0923400000000001
  1
1.5
 50
90.0
 41
0.5
 72
     1
 11
131.47200000000001
 21
101.604
 31
0.0
  0
TEXT
  5
2B
  8
0
 10
66.080799999999996
 20
103.16222
 30
0.0
 40
3.0923400000000001
  1
19
 50
90.0
 41
0.5
 72
     1
 11
66.080799999999996
 21
104.193
 31
0.0
  0
TEXT
  5
2C
  8
0
 10
100.33
 20
176.67760999999999
 30
0.0
 40
3.0923400000000001
  1
6
 50
90.0
 41
0.5
 72
     1
 11
100.33
 21
177.19300000000001
 31
0.0
  0
TEXT
  5
2D
  8
0
 10
131.49199999999999
 20
176.03337250000001
 30
0.0
 40
3.0923400000000001
  1
30
 50
90.0
 41
0.5
 72
     1
 11
131.49199999999999
 21
177.19300000000001
 31
0.0
  0
ARC
  5
2E
  8
0
 10
114.647301
 20
177.19306
 30
0.0
 40
3.000008999999999
 50
0.00001
 51
89.999980000000008
  0
ARC
  5
2F
  8
0
 10
114.647301
 20
177.193061
 30
0.0
 40
3.000008999999999
 50
270.00002000000001
 51
359.99999000000003
  0
ARC
  5
30
  8
0
 10
109.647402
 20
177.19306
 30
0.0
 40
3.0000079999999998
 50
179.99996999999999
 51
270.00002000000001
  0
ARC
  5
31
  8
0
 10
109.647403
 20
177.19306
 30
0.0
 40
3.000008999999999
 50
90.0
 51
179.99996999999999
  0
LINE
  5
32
  8
0
  6
AIGENLINE001
 10
104.916
 20
177.19300000000001
 30
0.0
 11
119.38
 21
177.19300000000001
 31
0.0
  0
LINE
  5
33
  8
0
  6
AIGENLINE001
 10
112.148
 20
173.03899999999999
 30
0.0
 11
112.148
 21
181.399
 31
0.0
  0
LINE
  5
34
  8
0
 10
100.723
 20
180.19300000000001
 30
0.0
 11
107.539
 21
180.19300000000001
 31
0.0
  0
LINE
  5
35
  8
0
 10
100.723
 20
174.19300000000001
 30
0.0
 11
107.539
 21
174.19300000000001
 31
0.0
  0
LINE
  5
36
  8
0
 10
100.851
 20
177.98099999999999
 30
0.0
 11
101.443
 21
180.19300000000001
 31
0.0
  0
LINE
  5
37
  8
0
 10
101.443
 20
180.19300000000001
 30
0.0
 11
102.036
 21
177.98099999999999
 31
0.0
  0
LINE
  5
38
  8
0
 10
102.036
 20
177.98099999999999
 30
0.0
 11
100.851
 21
177.98099999999999
 31
0.0
  0
LINE
  5
39
  8
0
 10
102.021
 20
176.405
 30
0.0
 11
101.429
 21
174.19300000000001
 31
0.0
  0
LINE
  5
3A
  8
0
 10
101.429
 20
174.19300000000001
 30
0.0
 11
100.836
 21
176.405
 31
0.0
  0
LINE
  5
3B
  8
0
 10
100.836
 20
176.405
 30
0.0
 11
102.021
 21
176.405
 31
0.0
  0
LINE
  5
3C
  8
0
 10
101.429
 20
174.19300000000001
 30
0.0
 11
101.429
 21
180.19300000000001
 31
0.0
  0
LINE
  5
3D
  8
0
 10
114.64700000000001
 20
186.81800000000001
 30
0.0
 11
114.64700000000001
 21
182.53899999999999
 31
0.0
  0
LINE
  5
3E
  8
0
 10
109.64700000000001
 20
186.81800000000001
 30
0.0
 11
109.64700000000001
 21
182.53899999999999
 31
0.0
  0
LINE
  5
3F
  8
0
  6
AIGENLINE001
 10
114.64700000000001
 20
181.869
 30
0.0
 11
114.64700000000001
 21
172.30799999999999
 31
0.0
  0
LINE
  5
40
  8
0
  6
AIGENLINE001
 10
109.64700000000001
 20
181.869
 30
0.0
 11
109.64700000000001
 21
172.30799999999999
 31
0.0
  0
LINE
  5
41
  8
0
 10
114.64700000000001
 20
180.19300000000001
 30
0.0
 11
109.64700000000001
 21
180.19300000000001
 31
0.0
  0
LINE
  5
42
  8
0
 10
114.64700000000001
 20
174.19300000000001
 30
0.0
 11
109.64700000000001
 21
174.19300000000001
 31
0.0
  0
LINE
  5
43
  8
0
 10
89.647999999999996
 20
160.267
 30
0.0
 11
89.647999999999996
 21
147.041
 31
0.0
  0
LINE
  5
44
  8
0
 10
122.378
 20
148.08799999999999
 30
0.0
 11
124.59
 21
147.495
 31
0.0
  0
LINE
  5
45
  8
0
 10
124.59
 20
147.495
 30
0.0
 11
122.378
 21
146.90199999999999
 31
0.0
  0
LINE
  5
46
  8
0
 10
122.378
 20
146.90199999999999
 30
0.0
 11
122.378
 21
148.08799999999999
 31
0.0
  0
LINE
  5
47
  8
0
 10
91.923500000000004
 20
146.917
 30
0.0
 11
89.711699999999979
 21
147.5089999999999
 31
0.0
  0
LINE
  5
48
  8
0
 10
89.711699999999979
 20
147.5089999999999
 30
0.0
 11
91.923500000000004
 21
148.102
 31
0.0
  0
LINE
  5
49
  8
0
 10
91.923500000000004
 20
148.102
 30
0.0
 11
91.923500000000004
 21
146.917
 31
0.0
  0
LINE
  5
4A
  8
0
 10
124.648
 20
147.50200000000001
 30
0.0
 11
89.647999999999996
 21
147.50200000000001
 31
0.0
  0
LINE
  5
4B
  8
0
 10
87.377999999999986
 20
148.08799999999999
 30
0.0
 11
89.589799999999997
 21
147.495
 31
0.0
  0
LINE
  5
4C
  8
0
 10
89.589799999999997
 20
147.495
 30
0.0
 11
87.377999999999986
 21
146.90199999999999
 31
0.0
  0
LINE
  5
4D
  8
0
 10
87.377999999999986
 20
146.90199999999999
 30
0.0
 11
87.377999999999986
 21
148.08799999999999
 31
0.0
  0
LINE
  5
4E
  8
0
 10
81.923299999999998
 20
146.917
 30
0.0
 11
79.711600000000004
 21
147.5089999999999
 31
0.0
  0
LINE
  5
4F
  8
0
 10
79.711600000000004
 20
147.5089999999999
 30
0.0
 11
81.923299999999998
 21
148.102
 31
0.0
  0
LINE
  5
50
  8
0
 10
81.923299999999998
 20
148.102
 30
0.0
 11
81.923299999999998
 21
146.917
 31
0.0
  0
LINE
  5
51
  8
0
 10
89.647999999999996
 20
147.50200000000001
 30
0.0
 11
79.647800000000004
 21
147.50200000000001
 31
0.0
  0
LINE
  5
52
  8
0
 10
79.647800000000004
 20
160.267
 30
0.0
 11
79.647800000000004
 21
147.041
 31
0.0
  0
LINE
  5
53
  8
0
 10
77.377899999999997
 20
148.08799999999999
 30
0.0
 11
79.589600000000004
 21
147.495
 31
0.0
  0
LINE
  5
54
  8
0
 10
79.589600000000004
 20
147.495
 30
0.0
 11
77.377899999999997
 21
146.90199999999999
 31
0.0
  0
LINE
  5
55
  8
0
 10
77.377899999999997
 20
146.90199999999999
 30
0.0
 11
77.377899999999997
 21
148.08799999999999
 31
0.0
  0
LINE
  5
56
  8
0
 10
76.923299999999998
 20
146.917
 30
0.0
 11
74.711500000000001
 21
147.5089999999999
 31
0.0
  0
LINE
  5
57
  8
0
 10
74.711500000000001
 20
147.5089999999999
 30
0.0
 11
76.923299999999998
 21
148.102
 31
0.0
  0
LINE
  5
58
  8
0
 10
76.923299999999998
 20
148.102
 30
0.0
 11
76.923299999999998
 21
146.917
 31
0.0
  0
LINE
  5
59
  8
0
 10
79.647800000000004
 20
147.50200000000001
 30
0.0
 11
74.647800000000004
 21
147.50200000000001
 31
0.0
  0
LINE
  5
5A
  8
0
  6
AIGENLINE001
 10
112.148
 20
99.988299999999995
 30
0.0
 11
112.148
 21
91.340400000000002
 31
0.0
  0
LINE
  5
5B
  8
0
 10
89.647499999999994
 20
162.19300000000001
 30
0.0
 11
89.647499999999994
 21
192.19300000000001
 31
0.0
  0
LINE
  5
5C
  8
0
 10
79.646999999999991
 20
163.19300000000001
 30
0.0
 11
79.646999999999991
 21
191.19300000000001
 31
0.0
  0
LINE
  5
5D
  8
0
 10
126.532
 20
95.003200000000007
 30
0.0
 11
132.822
 21
95.003200000000007
 31
0.0
  0
LINE
  5
5E
  8
0
 10
126.532
 20
96.503200000000007
 30
0.0
 11
132.822
 21
96.503200000000007
 31
0.0
  0
LINE
  5
5F
  8
0
 10
132.36099999999999
 20
96.503200000000007
 30
0.0
 11
132.36099999999999
 21
95.003200000000007
 31
0.0
  0
LINE
  5
60
  8
0
 10
124.64700000000001
 20
192.19300000000001
 30
0.0
 11
74.647400000000005
 21
192.19300000000001
 31
0.0
  0
LINE
  5
61
  8
0
 10
74.647400000000005
 20
162.19300000000001
 30
0.0
 11
74.647400000000005
 21
192.19300000000001
 31
0.0
  0
LINE
  5
62
  8
0
 10
124.64700000000001
 20
162.19300000000001
 30
0.0
 11
74.647400000000005
 21
162.19300000000001
 31
0.0
  0
LINE
  5
63
  8
0
 10
124.64700000000001
 20
162.19300000000001
 30
0.0
 11
124.64700000000001
 21
192.19300000000001
 31
0.0
  0
LINE
  5
64
  8
0
 10
124.64700000000001
 20
95.003200000000007
 30
0.0
 11
89.936199999999985
 21
95.003200000000007
 31
0.0
  0
LINE
  5
65
  8
0
 10
88.203999999999994
 20
96.003399999999999
 30
0.0
 11
78.677499999999995
 21
112.503
 31
0.0
  0
ARC
  5
66
  8
0
 10
89.959148999999996
 20
97.043202000000008
 30
0.0
 40
2.040089
 50
210.64414600000001
 51
269.35446400000001
  0
LINE
  5
67
  8
0
 10
89.750799999999998
 20
96.503200000000007
 30
0.0
 11
80.224400000000017
 21
113.003
 31
0.0
  0
LINE
  5
68
  8
0
 10
78.492500000000007
 20
114.003
 30
0.0
 11
74.647400000000005
 21
114.003
 31
0.0
  0
ARC
  5
69
  8
0
 10
78.469640999999996
 20
111.964241
 30
0.0
 40
2.0392959999999989
 50
30.631474000000001
 51
89.357225999999997
  0
LINE
  5
6A
  8
0
 10
78.677499999999995
 20
112.503
 30
0.0
 11
74.647400000000005
 21
112.503
 31
0.0
  0
LINE
  5
6B
  8
0
 10
74.647400000000005
 20
112.503
 30
0.0
 11
74.647400000000005
 21
114.003
 31
0.0
  0
LINE
  5
6C
  8
0
 10
124.64700000000001
 20
96.503200000000007
 30
0.0
 11
89.750799999999998
 21
96.503200000000007
 31
0.0
  0
LINE
  5
6D
  8
0
 10
124.64700000000001
 20
95.003200000000007
 30
0.0
 11
124.64700000000001
 21
96.503200000000007
 31
0.0
  0
LINE
  5
6E
  8
0
 10
112.148
 20
172.333
 30
0.0
 11
112.14700000000001
 21
154.584
 31
0.0
  0
LINE
  5
6F
  8
0
 10
112.43600000000001
 20
186.691
 30
0.0
 11
114.64700000000001
 21
186.0979999999999
 31
0.0
  0
LINE
  5
70
  8
0
 10
114.64700000000001
 20
186.0979999999999
 30
0.0
 11
112.43600000000001
 21
185.505
 31
0.0
  0
LINE
  5
71
  8
0
 10
112.43600000000001
 20
185.505
 30
0.0
 11
112.43600000000001
 21
186.691
 31
0.0
  0
LINE
  5
72
  8
0
 10
111.85899999999999
 20
185.52000000000001
 30
0.0
 11
109.64700000000001
 21
186.11199999999999
 31
0.0
  0
LINE
  5
73
  8
0
 10
109.64700000000001
 20
186.11199999999999
 30
0.0
 11
111.85899999999999
 21
186.70500000000001
 31
0.0
  0
LINE
  5
74
  8
0
 10
111.85899999999999
 20
186.70500000000001
 30
0.0
 11
111.85899999999999
 21
185.52000000000001
 31
0.0
  0
LINE
  5
75
  8
0
 10
122.377
 20
155.631
 30
0.0
 11
124.589
 21
155.03800000000001
 31
0.0
  0
LINE
  5
76
  8
0
 10
124.589
 20
155.03800000000001
 30
0.0
 11
122.377
 21
154.44499999999999
 31
0.0
  0
LINE
  5
77
  8
0
 10
122.377
 20
154.44499999999999
 30
0.0
 11
122.377
 21
155.631
 31
0.0
  0
LINE
  5
78
  8
0
 10
114.423
 20
154.46000000000001
 30
0.0
 11
112.211
 21
155.05199999999999
 31
0.0
  0
LINE
  5
79
  8
0
 10
112.211
 20
155.05199999999999
 30
0.0
 11
114.423
 21
155.64500000000001
 31
0.0
  0
LINE
  5
7A
  8
0
 10
114.423
 20
155.64500000000001
 30
0.0
 11
114.423
 21
154.46000000000001
 31
0.0
  0
LINE
  5
7B
  8
0
 10
124.64700000000001
 20
155.04499999999999
 30
0.0
 11
112.148
 21
155.04499999999999
 31
0.0
  0
LINE
  5
7C
  8
0
 10
74.647400000000005
 20
160.267
 30
0.0
 11
74.647400000000005
 21
139.63300000000001
 31
0.0
  0
LINE
  5
7D
  8
0
 10
124.648
 20
160.267
 30
0.0
 11
124.648
 21
139.63300000000001
 31
0.0
  0
LINE
  5
7E
  8
0
 10
122.378
 20
140.679
 30
0.0
 11
124.59
 21
140.08699999999999
 31
0.0
  0
LINE
  5
7F
  8
0
 10
124.59
 20
140.08699999999999
 30
0.0
 11
122.378
 21
139.494
 31
0.0
  0
LINE
  5
80
  8
0
 10
122.378
 20
139.494
 30
0.0
 11
122.378
 21
140.679
 31
0.0
  0
LINE
  5
81
  8
0
 10
79.388400000000004
 20
115.149
 30
0.0
 11
77.405799999999999
 21
114.003
 31
0.0
  0
LINE
  5
82
  8
0
 10
77.405799999999999
 20
114.003
 30
0.0
 11
78.550200000000004
 21
115.98699999999999
 31
0.0
  0
LINE
  5
83
  8
0
 10
78.550200000000004
 20
115.98699999999999
 30
0.0
 11
79.388400000000004
 21
115.149
 31
0.0
  0
LINE
  5
84
  8
0
 10
85.632199999999983
 20
122.22
 30
0.0
 11
77.365799999999993
 21
113.953
 31
0.0
  0
LINE
  5
85
  8
0
 10
76.923299999999998
 20
139.50800000000001
 30
0.0
 11
74.711500000000001
 21
140.101
 31
0.0
  0
LINE
  5
86
  8
0
 10
74.711500000000001
 20
140.101
 30
0.0
 11
76.923299999999998
 21
140.69399999999999
 31
0.0
  0
LINE
  5
87
  8
0
 10
76.923299999999998
 20
140.69399999999999
 30
0.0
 11
76.923299999999998
 21
139.50800000000001
 31
0.0
  0
LINE
  5
88
  8
0
 10
103.19
 20
122.22
 30
0.0
 11
85.632199999999983
 21
122.22
 31
0.0
  0
LINE
  5
89
  8
0
 10
124.648
 20
140.09399999999999
 30
0.0
 11
74.647800000000004
 21
140.09399999999999
 31
0.0
  0
LINE
  5
8A
  8
0
 10
86.842399999999998
 20
95.003200000000007
 30
0.0
 11
66.509
 21
95.003200000000007
 31
0.0
  0
LINE
  5
8B
  8
0
 10
72.7988
 20
114.003
 30
0.0
 11
66.509
 21
114.003
 31
0.0
  0
LINE
  5
8C
  8
0
 10
67.555300000000003
 20
111.733
 30
0.0
 11
66.962699999999998
 21
113.94499999999999
 31
0.0
  0
LINE
  5
8D
  8
0
 10
66.962699999999998
 20
113.94499999999999
 30
0.0
 11
66.369799999999998
 21
111.733
 31
0.0
  0
LINE
  5
8E
  8
0
 10
66.369799999999998
 20
111.733
 30
0.0
 11
67.555300000000003
 21
111.733
 31
0.0
  0
LINE
  5
8F
  8
0
 10
66.384299999999996
 20
97.278700000000015
 30
0.0
 11
66.976900000000001
 21
95.066999999999993
 31
0.0
  0
LINE
  5
90
  8
0
 10
66.976900000000001
 20
95.066999999999993
 30
0.0
 11
67.569800000000001
 21
97.278700000000015
 31
0.0
  0
LINE
  5
91
  8
0
 10
67.569800000000001
 20
97.278700000000015
 30
0.0
 11
66.384299999999996
 21
97.278700000000015
 31
0.0
  0
LINE
  5
92
  8
0
 10
66.9696
 20
114.003
 30
0.0
 11
66.9696
 21
95.003600000000006
 31
0.0
  0
LINE
  5
93
  8
0
 10
126.532
 20
162.19300000000001
 30
0.0
 11
132.822
 21
162.19300000000001
 31
0.0
  0
LINE
  5
94
  8
0
 10
109.64700000000001
 20
186.11199999999999
 30
0.0
 11
114.64700000000001
 21
186.11199999999999
 31
0.0
  0
LINE
  5
95
  8
0
 10
126.532
 20
192.19300000000001
 30
0.0
 11
132.822
 21
192.19300000000001
 31
0.0
  0
LINE
  5
96
  8
0
 10
132.946
 20
92.791499999999985
 30
0.0
 11
132.35400000000001
 21
95.003200000000007
 31
0.0
  0
LINE
  5
97
  8
0
 10
132.35400000000001
 20
95.003200000000007
 30
0.0
 11
131.761
 21
92.791499999999985
 31
0.0
  0
LINE
  5
98
  8
0
 10
131.761
 20
92.791499999999985
 30
0.0
 11
132.946
 21
92.791499999999985
 31
0.0
  0
LINE
  5
99
  8
0
 10
132.36099999999999
 20
90.597999999999999
 30
0.0
 11
132.36099999999999
 21
95.066599999999994
 31
0.0
  0
LINE
  5
9A
  8
0
 10
132.946
 20
98.715000000000003
 30
0.0
 11
132.35400000000001
 21
96.503200000000007
 31
0.0
  0
LINE
  5
9B
  8
0
 10
132.35400000000001
 20
96.503200000000007
 30
0.0
 11
131.761
 21
98.715000000000003
 31
0.0
  0
LINE
  5
9C
  8
0
 10
131.761
 20
98.715000000000003
 30
0.0
 11
132.946
 21
98.715000000000003
 31
0.0
  0
LINE
  5
9D
  8
0
 10
132.36099999999999
 20
104.06999999999999
 30
0.0
 11
132.36099999999999
 21
96.439899999999994
 31
0.0
  0
LINE
  5
9E
  8
0
 10
131.77500000000001
 20
189.923
 30
0.0
 11
132.36799999999999
 21
192.13499999999999
 31
0.0
  0
LINE
  5
9F
  8
0
 10
132.36799999999999
 20
192.13499999999999
 30
0.0
 11
132.96100000000001
 21
189.923
 31
0.0
  0
LINE
  5
A0
  8
0
 10
132.96100000000001
 20
189.923
 30
0.0
 11
131.77500000000001
 21
189.923
 31
0.0
  0
LINE
  5
A1
  8
0
 10
132.946
 20
164.46899999999999
 30
0.0
 11
132.35400000000001
 21
162.25700000000001
 31
0.0
  0
LINE
  5
A2
  8
0
 10
132.35400000000001
 20
162.25700000000001
 30
0.0
 11
131.761
 21
164.46899999999999
 31
0.0
  0
LINE
  5
A3
  8
0
 10
131.761
 20
164.46899999999999
 30
0.0
 11
132.946
 21
164.46899999999999
 31
0.0
  0
LINE
  5
A4
  8
0
 10
132.36099999999999
 20
192.19300000000001
 30
0.0
 11
132.36099999999999
 21
162.19300000000001
 31
0.0
  0
LINE
  5
A5
  8
_________2
 10
205.30099999999999
 20
127.411
 30
0.0
 11
183.55099999999999
 21
127.411
 31
0.0
  0
LINE
  5
A6
  8
_________2
 10
100.3
 20
-4.0910799999999998
 30
0.0
 11
100.3
 21
-21.071000000000002
 31
0.0
  0
LINE
  5
A7
  8
_________2
 10
100.3
 20
275.93099999999998
 30
0.0
 11
100.3
 21
258.911
 31
0.0
  0
LINE
  5
A8
  8
_________2
 10
17.049399999999999
 20
127.411
 30
0.0
 11
-4.7010300000000003
 21
127.411
 31
0.0
  0
LINE
  5
A9
  8
_________2
 10
76.740799999999993
 20
29.8047
 30
0.0
 11
74.554599999999994
 21
29.8047
 31
0.0
  0
LINE
  5
AA
  8
_________2
 10
77.233500000000006
 20
29.8047
 30
0.0
 11
76.981300000000005
 21
29.8047
 31
0.0
  0
LINE
  5
AB
  8
_________2
 10
77.726200000000006
 20
29.8047
 30
0.0
 11
80.6511
 21
29.8047
 31
0.0
  0
LINE
  5
AC
  8
_________2
 10
77.233500000000006
 20
29.8047
 30
0.0
 11
77.485699999999994
 21
29.8047
 31
0.0
  0
LINE
  5
AD
  8
_________2
 10
70.837299999999999
 20
29.8047
 30
0.0
 11
68.650300000000001
 21
29.8047
 31
0.0
  0
LINE
  5
AE
  8
_________2
 10
71.329300000000003
 20
29.8047
 30
0.0
 11
71.077799999999996
 21
29.8047
 31
0.0
  0
LINE
  5
AF
  8
_________2
 10
71.329300000000003
 20
30.2974
 30
0.0
 11
71.329300000000003
 21
32.484400000000001
 31
0.0
  0
LINE
  5
B0
  8
_________2
 10
71.329300000000003
 20
29.8047
 30
0.0
 11
71.329300000000003
 21
30.057300000000001
 31
0.0
  0
LINE
  5
B1
  8
_________2
 10
71.821899999999999
 20
29.8047
 30
0.0
 11
74.008899999999997
 21
29.8047
 31
0.0
  0
LINE
  5
B2
  8
_________2
 10
71.329300000000003
 20
29.8047
 30
0.0
 11
71.581400000000002
 21
29.8047
 31
0.0
  0
LINE
  5
B3
  8
_________2
 10
71.329300000000003
 20
29.312799999999999
 30
0.0
 11
71.329300000000003
 21
27.126200000000001
 31
0.0
  0
LINE
  5
B4
  8
_________2
 10
71.329300000000003
 20
29.8047
 30
0.0
 11
71.329300000000003
 21
29.5532
 31
0.0
  0
LINE
  5
B5
  8
_________2
 10
75.040300000000002
 20
28.5852
 30
0.0
 11
80.218299999999985
 21
27.720400000000001
 31
0.0
  0
LINE
  5
B6
  8
_________2
 10
75.040300000000002
 20
31.024699999999999
 30
0.0
 11
80.218299999999985
 21
31.8901
 31
0.0
  0
LINE
  5
B7
  8
_________2
 10
80.218299999999985
 20
27.720400000000001
 30
0.0
 11
80.218299999999985
 21
31.8901
 31
0.0
  0
LINE
  5
B8
  8
_________2
 10
75.040300000000002
 20
28.5852
 30
0.0
 11
75.040300000000002
 21
31.024699999999999
 31
0.0
  0
ARC
  5
B9
  8
_________2
 10
71.282674
 20
29.757801000000001
 30
0.0
 40
1.267714
 50
2.1220840000000001
 51
87.894083999999992
  0
ARC
  5
BA
  8
_________2
 10
71.375812999999994
 20
29.758545999999999
 30
0.0
 40
1.2669680000000001
 50
92.105782999999988
 51
177.91037
  0
ARC
  5
BB
  8
_________2
 10
71.376186000000004
 20
29.851671
 30
0.0
 40
1.2673680000000001
 50
182.12203600000001
 51
267.877993
  0
ARC
  5
BC
  8
_________2
 10
71.282368999999989
 20
29.852347999999999
 30
0.0
 40
1.2680439999999991
 50
272.11916400000001
 51
357.84848499999998
  0
ARC
  5
BD
  8
_________2
 10
71.248890000000003
 20
29.724731999999999
 30
0.0
 40
2.1668310000000002
 50
2.1161439999999989
 51
87.874379000000005
  0
ARC
  5
BE
  8
_________2
 10
71.408928000000003
 20
29.726146
 30
0.0
 40
2.165392999999999
 50
92.108508999999998
 51
177.91986499999999
  0
ARC
  5
BF
  8
_________2
 10
71.409267
 20
29.884751999999999
 30
0.0
 40
2.1657829999999998
 50
182.117133
 51
267.88289700000001
  0
ARC
  5
C0
  8
_________2
 10
71.249286999999995
 20
29.885429999999999
 30
0.0
 40
2.1664590000000001
 50
272.11546800000002
 51
357.86560400000002
  0
TEXT
  5
C1
  8
_________2
 10
104.605
 20
1.6794899999999999
 30
0.0
 40
3.0923400000000001
  1
図番
 41
0.5
  0
LINE
  5
C2
  8
_________2
 10
103.55
 20
5.9087199999999989
 30
0.0
 11
183.55099999999999
 21
5.9087199999999989
 31
0.0
  0
TEXT
  5
C3
  8
_________2
 10
104.605
 20
11.6793
 30
0.0
 40
3.0923400000000001
  1
品番
 41
0.5
  0
TEXT
  5
C4
  8
_________2
 10
104.605
 20
31.8184
 30
0.0
 40
3.0923400000000001
  1
名称
 41
0.5
  0
TEXT
  5
C5
  8
_________2
 10
91.844958333333338
 20
26.822299999999998
 30
0.0
 40
3.6545800000000002
  1
mm
 41
0.5
 72
     1
 11
93.367699999999985
 21
26.822299999999998
 31
0.0
  0
TEXT
  5
C6
  8
_________2
 10
85.642999999999986
 20
31.8184
 30
0.0
 40
3.0923400000000001
  1
単位
 41
0.5
  0
TEXT
  5
C7
  8
_________2
 10
85.642999999999986
 20
19.410799999999998
 30
0.0
 40
3.0923400000000001
  1
尺度
 41
0.5
  0
TEXT
  5
C8
  8
_________2
 10
90.853106999999994
 20
13.2182
 30
0.0
 40
3.6545800000000002
  1
1 ： 1
 41
0.5
 72
     1
 11
93.959500000000006
 21
13.2182
 31
0.0
  0
TEXT
  5
C9
  8
_________2
 10
137.31847500000001
 20
9.1082000000000001
 30
0.0
 40
3.9357000000000002
  1
CET007R
 41
0.5
 72
     1
 11
143.55000000000001
 21
9.1082000000000001
 31
0.0
  0
TEXT
  5
CA
  8
_________2
 10
137.31847500000001
 20
-0.8926299999999999
 30
0.0
 40
3.9357000000000002
  1
CET007R
 41
0.5
 72
     1
 11
143.55000000000001
 21
-0.8926299999999999
 31
0.0
  0
TEXT
  5
CB
  8
_________2
 10
24.586600000000001
 20
0.707627
 30
0.0
 40
3.9357000000000002
  1
材質：SUS　2個入り
 41
0.5
  0
TEXT
  5
CC
  8
_________2
 10
109.179
 20
24.226099999999999
 30
0.0
 40
3.9357000000000002
  1
固定金具
 41
0.5
  0
TEXT
  5
CD
  8
_________2
 10
39.425100333333333
 20
13.603400000000001
 30
0.0
 40
3.6545800000000002
  1
福田
 41
0.5
 72
     1
 11
41.313299999999998
 21
13.603400000000001
 31
0.0
  0
TEXT
  5
CE
  8
_________2
 10
20.790190666666671
 20
13.603400000000001
 30
0.0
 40
3.6545800000000002
  1
石原
 41
0.5
 72
     1
 11
22.7393
 21
13.603400000000001
 31
0.0
  0
TEXT
  5
CF
  8
_________2
 10
67.785600000000002
 20
13.2182
 30
0.0
 40
3.6545800000000002
  1
05.07.20
 41
0.5
  0
TEXT
  5
D0
  8
_________2
 10
66.5929
 20
19.410799999999998
 30
0.0
 40
3.0923400000000001
  1
日付
 41
0.5
  0
TEXT
  5
D1
  8
_________2
 10
29.639199999999999
 20
19.410799999999998
 30
0.0
 40
3.0923400000000001
  1
検図
 41
0.5
  0
TEXT
  5
D2
  8
_________2
 10
18.020900000000001
 20
5.21143
 30
0.0
 40
3.0923400000000001
  1
備考
 41
0.5
  0
TEXT
  5
D3
  8
_________2
 10
18.020900000000001
 20
19.410799999999998
 30
0.0
 40
3.0923400000000001
  1
製図
 41
0.5
  0
TEXT
  5
D4
  8
_________2
 10
23.863230999999999
 20
27.936800000000002
 30
0.0
 40
4.4979399999999989
  1
セラトレーディング株式会社
 41
0.5
 72
     1
 11
41.180300000000003
 21
27.936800000000002
 31
0.0
  0
LINE
  5
D5
  8
_________2
 10
183.55099999999999
 20
-4.0910799999999998
 30
0.0
 11
17.049399999999999
 21
-4.0910799999999998
 31
0.0
  0
LINE
  5
D6
  8
_________2
 10
17.049399999999999
 20
-4.0910799999999998
 30
0.0
 11
17.049399999999999
 21
258.911
 31
0.0
  0
LINE
  5
D7
  8
_________2
 10
17.049399999999999
 20
258.911
 30
0.0
 11
183.55099999999999
 21
258.911
 31
0.0
  0
LINE
  5
D8
  8
_________2
 10
183.55099999999999
 20
258.911
 30
0.0
 11
183.55099999999999
 21
-4.0910799999999998
 31
0.0
  0
LINE
  5
D9
  8
_________2
 10
65.549700000000001
 20
9.4092999999999982
 30
0.0
 11
65.549700000000001
 21
35.909100000000002
 31
0.0
  0
LINE
  5
DA
  8
_________2
 10
84.549599999999984
 20
9.4092999999999982
 30
0.0
 11
84.549599999999984
 21
35.909100000000002
 31
0.0
  0
LINE
  5
DB
  8
_________2
 10
103.55
 20
-4.0910799999999998
 30
0.0
 11
103.55
 21
35.909100000000002
 31
0.0
  0
LINE
  5
DC
  8
_________2
 10
28.549199999999999
 20
9.4092999999999982
 30
0.0
 11
28.549199999999999
 21
23.409199999999998
 31
0.0
  0
LINE
  5
DD
  8
_________2
 10
17.049399999999999
 20
9.4092999999999982
 30
0.0
 11
103.55
 21
9.4092999999999982
 31
0.0
  0
LINE
  5
DE
  8
_________2
 10
17.049399999999999
 20
23.409199999999998
 30
0.0
 11
103.55
 21
23.409199999999998
 31
0.0
  0
LINE
  5
DF
  8
_________2
 10
103.55
 20
15.9085
 30
0.0
 11
183.55099999999999
 21
15.9085
 31
0.0
  0
LINE
  5
E0
  8
_________2
 10
17.049399999999999
 20
35.909100000000002
 30
0.0
 11
183.55099999999999
 21
35.909100000000002
 31
0.0
  0
ENDSEC
  0
EOF
