  0
SECTION
  2
HEADER
  9
$ACADVER
  1
AC1009
  9
$INSBASE
 10
0.0
 20
0.0
 30
0.0
  9
$EXTMIN
 10
-4.7010300000000003
 20
-21.070999999999991
 30
0.0
  9
$EXTMAX
 10
205.30099999999999
 20
275.93099999999993
 30
0.0
  9
$LIMMIN
 10
0.0
 20
0.0
  9
$LIMMAX
 10
12.0
 20
9.0
  9
$ORTHOMODE
 70
     0
  9
$REGENMODE
 70
     1
  9
$FILLMODE
 70
     1
  9
$QTEXTMODE
 70
     0
  9
$MIRRTEXT
 70
     1
  9
$DRAGMODE
 70
     2
  9
$LTSCALE
 40
1.0
  9
$OSMODE
 70
    37
  9
$ATTMODE
 70
     1
  9
$TEXTSIZE
 40
0.0
  9
$TRACEWID
 40
0.05
  9
$TEXTSTYLE
  7
STANDARD
  9
$CLAYER
  8
0
  9
$CELTYPE
  6
CONTINUOUS
  9
$CECOLOR
 62
   256
  9
$DIMSCALE
 40
1.0
  9
$DIMASZ
 40
0.18
  9
$DIMEXO
 40
0.0625
  9
$DIMDLI
 40
0.38
  9
$DIMRND
 40
0.0
  9
$DIMDLE
 40
0.0
  9
$DIMEXE
 40
0.18
  9
$DIMTP
 40
0.0
  9
$DIMTM
 40
0.0
  9
$DIMTXT
 40
0.18
  9
$DIMCEN
 40
0.09
  9
$DIMTSZ
 40
0.0
  9
$DIMTOL
 70
     0
  9
$DIMLIM
 70
     0
  9
$DIMTIH
 70
     1
  9
$DIMTOH
 70
     1
  9
$DIMSE1
 70
     0
  9
$DIMSE2
 70
     0
  9
$DIMTAD
 70
     0
  9
$DIMZIN
 70
     0
  9
$DIMBLK
  1

  9
$DIMASO
 70
     1
  9
$DIMSHO
 70
     1
  9
$DIMPOST
  1

  9
$DIMAPOST
  1

  9
$DIMALT
 70
     0
  9
$DIMALTD
 70
     2
  9
$DIMALTF
 40
25.399999999999999
  9
$DIMLFAC
 40
1.0
  9
$DIMTOFL
 70
     0
  9
$DIMTVP
 40
0.0
  9
$DIMTIX
 70
     0
  9
$DIMSOXD
 70
     0
  9
$DIMSAH
 70
     0
  9
$DIMBLK1
  1

  9
$DIMBLK2
  1

  9
$DIMSTYLE
  2
STANDARD
  9
$DIMCLRD
 70
     0
  9
$DIMCLRE
 70
     0
  9
$DIMCLRT
 70
     0
  9
$DIMTFAC
 40
1.0
  9
$DIMGAP
 40
0.09
  9
$LUNITS
 70
     2
  9
$LUPREC
 70
     4
  9
$SKETCHINC
 40
0.1
  9
$FILLETRAD
 40
0.0
  9
$AUNITS
 70
     0
  9
$AUPREC
 70
     0
  9
$MENU
  1
.
  9
$ELEVATION
 40
0.0
  9
$PELEVATION
 40
0.0
  9
$THICKNESS
 40
0.0
  9
$LIMCHECK
 70
     0
  9
$BLIPMODE
 70
     0
  9
$CHAMFERA
 40
0.0
  9
$CHAMFERB
 40
0.0
  9
$SKPOLY
 70
     0
  9
$TDCREATE
 40
2444972.375
  9
$TDUPDATE
 40
2453693.2538389699
  9
$TDINDWG
 40
0.0000103819
  9
$TDUSRTIMER
 40
0.0000103819
  9
$USRTIMER
 70
     1
  9
$ANGBASE
 50
0.0
  9
$ANGDIR
 70
     0
  9
$PDMODE
 70
     0
  9
$PDSIZE
 40
0.0
  9
$PLINEWID
 40
0.0
  9
$COORDS
 70
     1
  9
$SPLFRAME
 70
     0
  9
$SPLINETYPE
 70
     6
  9
$SPLINESEGS
 70
     8
  9
$ATTDIA
 70
     0
  9
$ATTREQ
 70
     1
  9
$HANDLING
 70
     1
  9
$HANDSEED
  5
E0
  9
$SURFTAB1
 70
     6
  9
$SURFTAB2
 70
     6
  9
$SURFTYPE
 70
     6
  9
$SURFU
 70
     6
  9
$SURFV
 70
     6
  9
$UCSNAME
  2

  9
$UCSORG
 10
0.0
 20
0.0
 30
0.0
  9
$UCSXDIR
 10
1.0
 20
0.0
 30
0.0
  9
$UCSYDIR
 10
0.0
 20
1.0
 30
0.0
  9
$PUCSNAME
  2

  9
$PUCSORG
 10
0.0
 20
0.0
 30
0.0
  9
$PUCSXDIR
 10
1.0
 20
0.0
 30
0.0
  9
$PUCSYDIR
 10
0.0
 20
1.0
 30
0.0
  9
$USERI1
 70
     0
  9
$USERI2
 70
     0
  9
$USERI3
 70
     0
  9
$USERI4
 70
     0
  9
$USERI5
 70
     0
  9
$USERR1
 40
0.0
  9
$USERR2
 40
0.0
  9
$USERR3
 40
0.0
  9
$USERR4
 40
0.0
  9
$USERR5
 40
0.0
  9
$WORLDVIEW
 70
     1
  9
$SHADEDGE
 70
     3
  9
$SHADEDIF
 70
    70
  9
$TILEMODE
 70
     1
  9
$MAXACTVP
 70
    48
  9
$PLIMCHECK
 70
     0
  9
$PEXTMIN
 10
1.0000000000000000E+020
 20
1.0000000000000000E+020
 30
1.0000000000000000E+020
  9
$PEXTMAX
 10
-1.0000000000000000E+020
 20
-1.0000000000000000E+020
 30
-1.0000000000000000E+020
  9
$PLIMMIN
 10
0.0
 20
0.0
  9
$PLIMMAX
 10
12.0
 20
9.0
  9
$UNITMODE
 70
     0
  9
$VISRETAIN
 70
     1
  9
$PLINEGEN
 70
     0
  9
$PSLTSCALE
 70
     1
  0
ENDSEC
  0
SECTION
  2
TABLES
  0
TABLE
  2
VPORT
 70
     2
  0
VPORT
  2
*ACTIVE
 70
     0
 10
0.0
 20
0.0
 11
1.0
 21
1.0
 12
189.5604812987321
 22
127.42999999999989
 13
0.0
 23
0.0
 14
1.0
 24
1.0
 15
0.0
 25
0.0
 16
0.0
 26
0.0
 36
1.0
 17
0.0
 27
0.0
 37
0.0
 40
299.24634760705283
 41
2.1842105263157889
 42
50.0
 43
0.0
 44
0.0
 50
0.0
 51
0.0
 71
     0
 72
   100
 73
     1
 74
     1
 75
     0
 76
     0
 77
     0
 78
     0
  0
ENDTAB
  0
TABLE
  2
LTYPE
 70
     2
  0
LTYPE
  2
CONTINUOUS
 70
     0
  3
Solid line
 72
    65
 73
     0
 40
0.0
  0
LTYPE
  2
AIGENLINE001
 70
     0
  3
generate AI->DXF Converter
 72
    65
 73
     4
 40
5.8561449999999988
 49
3.5278
 49
-0.776115
 49
0.776115
 49
-0.776115
  0
ENDTAB
  0
TABLE
  2
LAYER
 70
     2
  0
LAYER
  2
0
 70
     0
 62
     7
  6
CONTINUOUS
  0
LAYER
  2
_________2
 70
     0
 62
     7
  6
CONTINUOUS
  0
ENDTAB
  0
TABLE
  2
STYLE
 70
     1
  0
STYLE
  2
STANDARD
 70
     0
 40
0.0
 41
0.0
 50
0.0
 71
     0
 42
0.0
  3
TXT
  4
EXTFONT.SHX
  0
ENDTAB
  0
TABLE
  2
VIEW
 70
     0
  0
ENDTAB
  0
TABLE
  2
UCS
 70
     0
  0
ENDTAB
  0
TABLE
  2
APPID
 70
     1
  0
APPID
  2
ACAD
 70
     0
  0
ENDTAB
  0
TABLE
  2
DIMSTYLE
 70
     1
  0
DIMSTYLE
  2
STANDARD
 70
     0
  3

  4

  5

  6

  7

 40
1.0
 41
0.18
 42
0.0625
 43
0.38
 44
0.18
 45
0.0
 46
0.0
 47
0.0
 48
0.0
140
0.18
141
0.09
142
0.0
143
25.399999999999999
144
1.0
145
0.0
146
1.0
147
0.09
 71
     0
 72
     0
 73
     1
 74
     1
 75
     0
 76
     0
 77
     0
 78
     0
170
     0
171
     2
172
     0
173
     0
174
     0
175
     0
176
     0
177
     0
178
     0
  0
ENDTAB
  0
ENDSEC
  0
SECTION
  2
BLOCKS
  0
BLOCK
  8
0
  2
$MODEL_SPACE
 70
     0
 10
0.0
 20
0.0
 30
0.0
  3
$MODEL_SPACE
  1

  0
ENDBLK
  5
1A
  8
0
  0
BLOCK
 67
     1
  8
0
  2
$PAPER_SPACE
 70
     0
 10
0.0
 20
0.0
 30
0.0
  3
$PAPER_SPACE
  1

  0
ENDBLK
  5
17
 67
     1
  8
0
  0
ENDSEC
  0
SECTION
  2
ENTITIES
  0
TEXT
  5
22
  8
0
 62
     7
 10
138.60334800000001
 20
71.426599999999993
 30
0.0
 40
3.0923400000000001
  1
パッキン
 41
0.5
 72
     1
 11
142.108
 21
71.426599999999993
 31
0.0
  0
TEXT
  5
23
  8
0
 62
     7
 10
94.218140000000005
 20
78.884600000000006
 30
0.0
 40
3.0923400000000001
  1
%%c53
 41
0.5
 72
     1
 11
96.279700000000005
 21
78.884600000000006
 31
0.0
  0
TEXT
  5
24
  8
0
 62
     7
 10
93.757440000000003
 20
123.867
 30
0.0
 40
3.0923400000000001
  1
%%c65
 41
0.5
 72
     1
 11
95.819000000000003
 21
123.867
 31
0.0
  0
TEXT
  5
25
  8
0
 62
     7
 10
138.30199999999999
 20
84.815725
 30
0.0
 40
3.0923400000000001
  1
1.5
 50
90.0
 41
0.5
 72
     1
 11
138.30199999999999
 21
86.104200000000006
 31
0.0
  0
TEXT
  5
26
  8
0
 62
     7
 10
138.30199999999999
 20
99.675219999999996
 30
0.0
 40
3.0923400000000001
  1
16
 50
90.0
 41
0.5
 72
     1
 11
138.30199999999999
 21
100.706
 31
0.0
  0
TEXT
  5
27
  8
0
 62
     7
 10
145.63200000000001
 20
97.814840000000004
 30
0.0
 40
3.0923400000000001
  1
17.5
 50
90.0
 41
0.5
 72
     1
 11
145.63200000000001
 21
99.876400000000004
 31
0.0
  0
LINE
  5
28
  8
0
 62
     7
 10
70.577399999999983
 20
90.366799999999998
 30
0.0
 11
70.577399999999983
 21
77.027000000000001
 31
0.0
  0
LINE
  5
29
  8
0
 62
     7
 10
121.30799999999989
 20
78.0732
 30
0.0
 11
123.52
 21
77.480699999999999
 31
0.0
  0
LINE
  5
2A
  8
0
 62
     7
 10
123.52
 20
77.480699999999999
 30
0.0
 11
121.30799999999989
 21
76.887799999999999
 31
0.0
  0
LINE
  5
2B
  8
0
 62
     7
 10
121.30799999999989
 20
76.887799999999999
 30
0.0
 11
121.30799999999989
 21
78.0732
 31
0.0
  0
LINE
  5
2C
  8
0
 62
     7
 10
72.853200000000001
 20
76.902299999999997
 30
0.0
 11
70.641400000000004
 21
77.494799999999998
 31
0.0
  0
LINE
  5
2D
  8
0
 62
     7
 10
70.641400000000004
 20
77.494799999999998
 30
0.0
 11
72.853200000000001
 21
78.087699999999984
 31
0.0
  0
LINE
  5
2E
  8
0
 62
     7
 10
72.853200000000001
 20
78.087699999999984
 30
0.0
 11
72.853200000000001
 21
76.902299999999997
 31
0.0
  0
LINE
  5
2F
  8
0
 62
     7
 10
123.5779999999999
 20
77.4876
 30
0.0
 11
70.577399999999983
 21
77.4876
 31
0.0
  0
LINE
  5
30
  8
0
 62
     7
 10
123.52
 20
90.811599999999999
 30
0.0
 11
123.52
 21
77.020099999999999
 31
0.0
  0
LINE
  5
31
  8
0
 62
     7
 10
64.536999999999992
 20
123.29299999999991
 30
0.0
 11
64.536999999999992
 21
110.34999999999989
 31
0.0
  0
LINE
  5
32
  8
0
 62
     7
 10
129.53700000000001
 20
123.29299999999991
 30
0.0
 11
129.53700000000001
 21
110.34999999999989
 31
0.0
  0
LINE
  5
33
  8
0
 62
     7
 10
127.267
 20
123.056
 30
0.0
 11
129.4789999999999
 21
122.46299999999989
 31
0.0
  0
LINE
  5
34
  8
0
 62
     7
 10
129.4789999999999
 20
122.46299999999989
 30
0.0
 11
127.267
 21
121.87
 31
0.0
  0
LINE
  5
35
  8
0
 62
     7
 10
127.267
 20
121.87
 30
0.0
 11
127.267
 21
123.056
 31
0.0
  0
LINE
  5
36
  8
0
 62
     7
 10
66.812399999999997
 20
121.88499999999991
 30
0.0
 11
64.6006
 21
122.477
 31
0.0
  0
LINE
  5
37
  8
0
 62
     7
 10
64.6006
 20
122.477
 30
0.0
 11
66.812399999999997
 21
123.06999999999989
 31
0.0
  0
LINE
  5
38
  8
0
 62
     7
 10
66.812399999999997
 20
123.06999999999989
 30
0.0
 11
66.812399999999997
 21
121.88499999999991
 31
0.0
  0
LINE
  5
39
  8
0
 62
     7
 10
129.53700000000001
 20
122.47
 30
0.0
 11
64.537199999999999
 21
122.47
 31
0.0
  0
LINE
  5
3A
  8
0
 62
     7
 10
129.53700000000001
 20
106.89699999999991
 30
0.0
 11
128.5379999999999
 21
107.89699999999991
 31
0.0
  0
LINE
  5
3B
  8
0
 62
     7
 10
129.53700000000001
 20
104.89700000000001
 30
0.0
 11
127.871
 21
106.5629999999999
 31
0.0
  0
LINE
  5
3C
  8
0
 62
     7
 10
129.53700000000001
 20
102.896
 30
0.0
 11
127.20399999999999
 21
105.23
 31
0.0
  0
LINE
  5
3D
  8
0
 62
     7
 10
129.53700000000001
 20
100.896
 30
0.0
 11
126.53700000000001
 21
103.89700000000001
 31
0.0
  0
LINE
  5
3E
  8
0
 62
     7
 10
129.53700000000001
 20
98.896600000000007
 30
0.0
 11
125.87
 21
102.5629999999999
 31
0.0
  0
LINE
  5
3F
  8
0
 62
     7
 10
129.53700000000001
 20
96.896300000000011
 30
0.0
 11
125.20399999999999
 21
101.2299999999999
 31
0.0
  0
LINE
  5
40
  8
0
 62
     7
 10
129.53700000000001
 20
94.896100000000004
 30
0.0
 11
124.53700000000001
 21
99.896299999999997
 31
0.0
  0
LINE
  5
41
  8
0
 62
     7
 10
125.03699999999991
 20
91.396500000000003
 30
0.0
 11
123.55799999999989
 21
92.875200000000007
 31
0.0
  0
LINE
  5
42
  8
0
 62
     7
 10
126.52499999999991
 20
91.909199999999998
 30
0.0
 11
123.53700000000001
 21
94.896100000000004
 31
0.0
  0
LINE
  5
43
  8
0
 62
     7
 10
127.53700000000001
 20
92.896600000000007
 30
0.0
 11
123.53700000000001
 21
96.896300000000011
 31
0.0
  0
LINE
  5
44
  8
0
 62
     7
 10
129.53700000000001
 20
92.896600000000007
 30
0.0
 11
123.871
 21
98.563100000000006
 31
0.0
  0
LINE
  5
45
  8
0
 62
     7
 10
113.03700000000001
 20
98.896600000000007
 30
0.0
 11
113.66200000000001
 21
99.521500000000003
 31
0.0
  0
LINE
  5
46
  8
0
 62
     7
 10
113.03700000000001
 20
96.896300000000011
 30
0.0
 11
114.91200000000001
 21
98.771199999999993
 31
0.0
  0
LINE
  5
47
  8
0
 62
     7
 10
113.03700000000001
 20
94.896100000000004
 30
0.0
 11
116.16200000000001
 21
98.021500000000003
 31
0.0
  0
LINE
  5
48
  8
0
 62
     7
 10
113.03700000000001
 20
92.896600000000007
 30
0.0
 11
117.41200000000001
 21
97.271199999999993
 31
0.0
  0
LINE
  5
49
  8
0
 62
     7
 10
115.0379999999999
 20
92.896600000000007
 30
0.0
 11
118.663
 21
96.521500000000003
 31
0.0
  0
LINE
  5
4A
  8
0
 62
     7
 10
117.03700000000001
 20
92.896600000000007
 30
0.0
 11
119.91200000000001
 21
95.771199999999979
 31
0.0
  0
LINE
  5
4B
  8
0
 62
     7
 10
119.03700000000001
 20
92.896600000000007
 30
0.0
 11
121.16200000000001
 21
95.021500000000003
 31
0.0
  0
LINE
  5
4C
  8
0
 62
     7
 10
121.038
 20
92.896600000000007
 30
0.0
 11
122.41200000000001
 21
94.271199999999993
 31
0.0
  0
LINE
  5
4D
  8
0
 62
     7
 10
116.371
 20
97.896100000000004
 30
0.0
 11
123.53700000000001
 21
97.896100000000004
 31
0.0
  0
LINE
  5
4E
  8
0
 62
     7
 10
113.03700000000001
 20
99.896299999999997
 30
0.0
 11
123.03700000000001
 21
93.896299999999997
 31
0.0
  0
LINE
  5
4F
  8
0
 62
     7
 10
113.03700000000001
 20
99.896299999999997
 30
0.0
 11
113.03700000000001
 21
92.896600000000007
 31
0.0
  0
LINE
  5
50
  8
0
 62
     7
 10
97.037099999999995
 20
99.896299999999997
 30
0.0
 11
113.03700000000001
 21
99.896299999999997
 31
0.0
  0
LINE
  5
51
  8
0
 62
     7
 10
123.03700000000001
 20
92.896600000000007
 30
0.0
 11
123.03700000000001
 21
93.896299999999997
 31
0.0
  0
LINE
  5
52
  8
0
 62
     7
 10
97.037099999999995
 20
92.896600000000007
 30
0.0
 11
123.03700000000001
 21
92.896600000000007
 31
0.0
  0
LINE
  5
53
  8
0
 62
     7
 10
129.03700000000001
 20
108.8959999999999
 30
0.0
 11
123.53700000000001
 21
97.896100000000004
 31
0.0
  0
LINE
  5
54
  8
0
 62
     7
 10
123.53700000000001
 20
93.146699999999996
 30
0.0
 11
123.53700000000001
 21
97.896100000000004
 31
0.0
  0
LINE
  5
55
  8
0
 62
     7
 10
68.787099999999995
 20
91.396500000000003
 30
0.0
 11
125.2879999999999
 21
91.396500000000003
 31
0.0
  0
ARC
  5
56
  8
0
 62
     7
 10
125.28754600000001
 20
93.146668999999974
 30
0.0
 40
1.7501189999999991
 50
179.99996999999991
 51
270.00002000000001
  0
ARC
  5
57
  8
0
 62
     7
 10
125.236571
 20
93.205593000000007
 30
0.0
 40
1.8097609999999991
 50
271.6140529999999
 51
350.16785399999992
  0
ARC
  5
58
  8
0
 62
     7
 10
68.838728000000003
 20
93.205352000000005
 30
0.0
 40
1.809539
 50
189.27255899999989
 51
268.36529000000002
  0
LINE
  5
59
  8
0
 62
     7
 10
127.01899999999991
 20
92.896600000000007
 30
0.0
 11
129.53700000000001
 21
92.896600000000007
 31
0.0
  0
LINE
  5
5A
  8
0
 62
     7
 10
64.537199999999999
 20
92.896600000000007
 30
0.0
 11
97.037099999999995
 21
92.896600000000007
 31
0.0
  0
LINE
  5
5B
  8
0
 62
     7
 10
64.537199999999999
 20
108.8959999999999
 30
0.0
 11
64.537199999999999
 21
92.896600000000007
 31
0.0
  0
LINE
  5
5C
  8
0
 62
     7
 10
129.53700000000001
 20
108.8959999999999
 30
0.0
 11
129.53700000000001
 21
92.896600000000007
 31
0.0
  0
LINE
  5
5D
  8
0
  6
AIGENLINE001
 62
     7
 10
97.037099999999995
 20
112.029
 30
0.0
 11
97.037099999999995
 21
88.989099999999979
 31
0.0
  0
LINE
  5
5E
  8
0
  6
AIGENLINE001
 62
     7
 10
61.813499999999998
 20
181.1629999999999
 30
0.0
 11
132.15199999999999
 21
181.1629999999999
 31
0.0
  0
LINE
  5
5F
  8
0
  6
AIGENLINE001
 62
     7
 10
97.037099999999995
 20
215.83499999999989
 30
0.0
 11
97.037099999999995
 21
146.49100000000001
 31
0.0
  0
LINE
  5
60
  8
0
 62
     7
 10
64.537199999999999
 20
108.8959999999999
 30
0.0
 11
129.53700000000001
 21
108.8959999999999
 31
0.0
  0
ARC
  5
61
  8
0
 62
     7
 10
97.037150999999994
 20
180.93523099999999
 30
0.0
 40
16.000247000000002
 50
0.000318
 51
90.000288999999981
  0
ARC
  5
62
  8
0
 62
     7
 10
97.037243000000004
 20
180.9354889999999
 30
0.0
 40
15.999988999999999
 50
90.000617000000005
 51
180.00062700000001
  0
ARC
  5
63
  8
0
 62
     7
 10
97.037237000000005
 20
180.93514400000001
 30
0.0
 40
15.999983
 50
179.99935300000001
 51
269.99940299999992
  0
ARC
  5
64
  8
0
 62
     7
 10
97.037150999999994
 20
180.935408
 30
0.0
 40
16.000247000000002
 50
269.99971099999988
 51
359.99968200000001
  0
ARC
  5
65
  8
0
 62
     7
 10
97.036977000000007
 20
180.93540100000001
 30
0.0
 40
26.000218
 50
359.99981999999989
 51
89.999790000000004
  0
ARC
  5
66
  8
0
 62
     7
 10
97.037244000000001
 20
180.93548699999999
 30
0.0
 40
26.000132000000001
 50
90.000380000000007
 51
180.0003899999999
  0
ARC
  5
67
  8
0
 62
     7
 10
97.037234999999995
 20
180.9351429999999
 30
0.0
 40
26.000122999999999
 50
179.9995909999999
 51
269.99963999999989
  0
ARC
  5
68
  8
0
 62
     7
 10
97.036977000000007
 20
180.93523799999991
 30
0.0
 40
26.000218
 50
270.00020999999992
 51
0.00018
  0
ARC
  5
69
  8
0
 62
     7
 10
97.037149000000014
 20
180.93522899999991
 30
0.0
 40
26.500277000000001
 50
0.000196
 51
90.000165999999993
  0
ARC
  5
6A
  8
0
 62
     7
 10
97.037244999999984
 20
180.93548699999999
 30
0.0
 40
26.500019000000002
 50
90.000372000000013
 51
180.00038199999989
  0
ARC
  5
6B
  8
0
 62
     7
 10
97.037234999999995
 20
180.9351429999999
 30
0.0
 40
26.500009999999989
 50
179.99959799999999
 51
269.99964699999998
  0
ARC
  5
6C
  8
0
 62
     7
 10
97.037149000000014
 20
180.93540999999999
 30
0.0
 40
26.500277000000001
 50
269.99983399999991
 51
359.99980399999998
  0
ARC
  5
6D
  8
0
 62
     7
 10
97.036975999999996
 20
180.9353999999999
 30
0.0
 40
32.000236000000001
 50
359.99985600000002
 51
89.999825999999999
  0
ARC
  5
6E
  8
0
 62
     7
 10
97.037244999999984
 20
180.935486
 30
0.0
 40
32.000149999999998
 50
90.000308000000004
 51
180.00031799999999
  0
ARC
  5
6F
  8
0
 62
     7
 10
97.037234000000012
 20
180.9351419999999
 30
0.0
 40
32.000138
 50
179.99966199999989
 51
269.99971099999988
  0
ARC
  5
70
  8
0
 62
     7
 10
97.036975999999996
 20
180.93523899999991
 30
0.0
 40
32.000236000000001
 50
270.00017400000002
 51
0.000144
  0
ARC
  5
71
  8
0
 62
     7
 10
97.037148000000002
 20
180.93522799999991
 30
0.0
 40
32.50029399999999
 50
0.000162
 51
90.000131999999994
  0
ARC
  5
72
  8
0
 62
     7
 10
97.03724600000001
 20
180.935486
 30
0.0
 40
32.500036000000001
 50
90.000304000000014
 51
180.000314
  0
ARC
  5
73
  8
0
 62
     7
 10
97.037234000000012
 20
180.9351419999999
 30
0.0
 40
32.500025000000001
 50
179.9996669999999
 51
269.99971599999998
  0
ARC
  5
74
  8
0
 62
     7
 10
97.037148000000002
 20
180.93541099999999
 30
0.0
 40
32.50029399999999
 50
269.99986799999988
 51
359.99983800000001
  0
LINE
  5
75
  8
0
 62
     7
 10
132.684
 20
70.540499999999994
 30
0.0
 11
149.66099999999989
 21
70.540499999999994
 31
0.0
  0
LINE
  5
76
  8
0
 62
     7
 10
131.04900000000001
 20
92.896199999999993
 30
0.0
 11
139.65199999999999
 21
92.896199999999993
 31
0.0
  0
LINE
  5
77
  8
0
 62
     7
 10
138.60499999999999
 20
89.126199999999997
 30
0.0
 11
139.19799999999989
 21
91.337999999999994
 31
0.0
  0
LINE
  5
78
  8
0
 62
     7
 10
139.19799999999989
 20
91.337999999999994
 30
0.0
 11
139.79099999999991
 21
89.126199999999997
 31
0.0
  0
LINE
  5
79
  8
0
 62
     7
 10
139.79099999999991
 20
89.126199999999997
 30
0.0
 11
138.60499999999999
 21
89.126199999999997
 31
0.0
  0
LINE
  5
7A
  8
0
 62
     7
 10
139.19099999999989
 20
91.396199999999979
 30
0.0
 11
139.19099999999989
 21
83.664000000000001
 31
0.0
  0
LINE
  5
7B
  8
0
 62
     7
 10
138.60499999999999
 20
106.62599999999991
 30
0.0
 11
139.19799999999989
 21
108.83799999999989
 31
0.0
  0
LINE
  5
7C
  8
0
 62
     7
 10
139.19799999999989
 20
108.83799999999989
 30
0.0
 11
139.79099999999991
 21
106.62599999999991
 31
0.0
  0
LINE
  5
7D
  8
0
 62
     7
 10
139.79099999999991
 20
106.62599999999991
 30
0.0
 11
138.60499999999999
 21
106.62599999999991
 31
0.0
  0
LINE
  5
7E
  8
0
 62
     7
 10
139.77600000000001
 20
95.1721
 30
0.0
 11
139.18399999999991
 21
92.960300000000004
 31
0.0
  0
LINE
  5
7F
  8
0
 62
     7
 10
139.18399999999991
 20
92.960300000000004
 30
0.0
 11
138.59100000000001
 21
95.1721
 31
0.0
  0
LINE
  5
80
  8
0
 62
     7
 10
138.59100000000001
 20
95.1721
 30
0.0
 11
139.77600000000001
 21
95.1721
 31
0.0
  0
LINE
  5
81
  8
0
 62
     7
 10
139.19099999999989
 20
92.896199999999993
 30
0.0
 11
139.19099999999989
 21
91.396199999999979
 31
0.0
  0
LINE
  5
82
  8
0
 62
     7
 10
139.19099999999989
 20
108.8959999999999
 30
0.0
 11
139.19099999999989
 21
92.896199999999993
 31
0.0
  0
LINE
  5
83
  8
0
 62
     7
 10
127.824
 20
91.396199999999979
 30
0.0
 11
146.98099999999999
 21
91.396199999999979
 31
0.0
  0
LINE
  5
84
  8
0
 62
     7
 10
130.953
 20
108.8959999999999
 30
0.0
 11
146.98099999999999
 21
108.8959999999999
 31
0.0
  0
LINE
  5
85
  8
0
 62
     7
 10
145.935
 20
106.62599999999991
 30
0.0
 11
146.52799999999991
 21
108.83799999999989
 31
0.0
  0
LINE
  5
86
  8
0
 62
     7
 10
146.52799999999991
 20
108.83799999999989
 30
0.0
 11
147.12100000000001
 21
106.62599999999991
 31
0.0
  0
LINE
  5
87
  8
0
 62
     7
 10
147.12100000000001
 20
106.62599999999991
 30
0.0
 11
145.935
 21
106.62599999999991
 31
0.0
  0
LINE
  5
88
  8
0
 62
     7
 10
118.03399999999991
 20
91.965699999999984
 30
0.0
 11
117.337
 21
94.146799999999999
 31
0.0
  0
LINE
  5
89
  8
0
 62
     7
 10
117.337
 20
94.146799999999999
 30
0.0
 11
119.032
 21
92.606499999999997
 31
0.0
  0
LINE
  5
8A
  8
0
 62
     7
 10
119.032
 20
92.606499999999997
 30
0.0
 11
118.03399999999991
 21
91.965699999999984
 31
0.0
  0
LINE
  5
8B
  8
0
 62
     7
 10
132.684
 20
70.540499999999994
 30
0.0
 11
117.29600000000001
 21
94.197100000000006
 31
0.0
  0
LINE
  5
8C
  8
0
 62
     7
 10
147.10599999999999
 20
93.672000000000025
 30
0.0
 11
146.51400000000001
 21
91.460300000000004
 31
0.0
  0
LINE
  5
8D
  8
0
 62
     7
 10
146.51400000000001
 20
91.460300000000004
 30
0.0
 11
145.92099999999991
 21
93.672000000000025
 31
0.0
  0
LINE
  5
8E
  8
0
 62
     7
 10
145.92099999999991
 20
93.672000000000025
 30
0.0
 11
147.10599999999999
 21
93.672000000000025
 31
0.0
  0
LINE
  5
8F
  8
0
 62
     7
 10
146.52099999999999
 20
108.8959999999999
 30
0.0
 11
146.52099999999999
 21
91.396199999999979
 31
0.0
  0
LINE
  5
90
  8
_________2
 62
     7
 10
205.30099999999999
 20
127.411
 30
0.0
 11
183.55099999999999
 21
127.411
 31
0.0
  0
LINE
  5
91
  8
_________2
 62
     7
 10
100.2999999999999
 20
-4.0910799999999998
 30
0.0
 11
100.2999999999999
 21
-21.070999999999991
 31
0.0
  0
LINE
  5
92
  8
_________2
 62
     7
 10
100.2999999999999
 20
275.93099999999993
 30
0.0
 11
100.2999999999999
 21
258.911
 31
0.0
  0
LINE
  5
93
  8
_________2
 62
     7
 10
17.049399999999991
 20
127.411
 30
0.0
 11
-4.7010300000000003
 21
127.411
 31
0.0
  0
LINE
  5
94
  8
_________2
 62
     7
 10
76.740799999999993
 20
29.8047
 30
0.0
 11
74.554599999999994
 21
29.8047
 31
0.0
  0
LINE
  5
95
  8
_________2
 62
     7
 10
77.233500000000006
 20
29.8047
 30
0.0
 11
76.981300000000005
 21
29.8047
 31
0.0
  0
LINE
  5
96
  8
_________2
 62
     7
 10
77.726200000000006
 20
29.8047
 30
0.0
 11
80.6511
 21
29.8047
 31
0.0
  0
LINE
  5
97
  8
_________2
 62
     7
 10
77.233500000000006
 20
29.8047
 30
0.0
 11
77.485699999999994
 21
29.8047
 31
0.0
  0
LINE
  5
98
  8
_________2
 62
     7
 10
70.837299999999999
 20
29.8047
 30
0.0
 11
68.650300000000001
 21
29.8047
 31
0.0
  0
LINE
  5
99
  8
_________2
 62
     7
 10
71.329300000000003
 20
29.8047
 30
0.0
 11
71.077799999999996
 21
29.8047
 31
0.0
  0
LINE
  5
9A
  8
_________2
 62
     7
 10
71.329300000000003
 20
30.2974
 30
0.0
 11
71.329300000000003
 21
32.484400000000001
 31
0.0
  0
LINE
  5
9B
  8
_________2
 62
     7
 10
71.329300000000003
 20
29.8047
 30
0.0
 11
71.329300000000003
 21
30.057300000000001
 31
0.0
  0
LINE
  5
9C
  8
_________2
 62
     7
 10
71.821899999999999
 20
29.8047
 30
0.0
 11
74.008899999999997
 21
29.8047
 31
0.0
  0
LINE
  5
9D
  8
_________2
 62
     7
 10
71.329300000000003
 20
29.8047
 30
0.0
 11
71.581400000000002
 21
29.8047
 31
0.0
  0
LINE
  5
9E
  8
_________2
 62
     7
 10
71.329300000000003
 20
29.312799999999999
 30
0.0
 11
71.329300000000003
 21
27.126200000000001
 31
0.0
  0
LINE
  5
9F
  8
_________2
 62
     7
 10
71.329300000000003
 20
29.8047
 30
0.0
 11
71.329300000000003
 21
29.5532
 31
0.0
  0
LINE
  5
A0
  8
_________2
 62
     7
 10
75.040300000000002
 20
28.5852
 30
0.0
 11
80.218299999999985
 21
27.720400000000001
 31
0.0
  0
LINE
  5
A1
  8
_________2
 62
     7
 10
75.040300000000002
 20
31.024699999999999
 30
0.0
 11
80.218299999999985
 21
31.8901
 31
0.0
  0
LINE
  5
A2
  8
_________2
 62
     7
 10
80.218299999999985
 20
27.720400000000001
 30
0.0
 11
80.218299999999985
 21
31.8901
 31
0.0
  0
LINE
  5
A3
  8
_________2
 62
     7
 10
75.040300000000002
 20
28.5852
 30
0.0
 11
75.040300000000002
 21
31.024699999999999
 31
0.0
  0
ARC
  5
A4
  8
_________2
 62
     7
 10
71.282674
 20
29.757801000000001
 30
0.0
 40
1.267714
 50
2.1220840000000001
 51
87.894083999999992
  0
ARC
  5
A5
  8
_________2
 62
     7
 10
71.375812999999994
 20
29.758545999999999
 30
0.0
 40
1.2669680000000001
 50
92.105782999999988
 51
177.91037
  0
ARC
  5
A6
  8
_________2
 62
     7
 10
71.376186000000004
 20
29.851671
 30
0.0
 40
1.2673680000000001
 50
182.12203600000001
 51
267.877993
  0
ARC
  5
A7
  8
_________2
 62
     7
 10
71.282368999999989
 20
29.852347999999999
 30
0.0
 40
1.2680439999999991
 50
272.11916400000001
 51
357.84848499999993
  0
ARC
  5
A8
  8
_________2
 62
     7
 10
71.248890000000003
 20
29.724731999999989
 30
0.0
 40
2.1668310000000002
 50
2.1161439999999989
 51
87.874379000000005
  0
ARC
  5
A9
  8
_________2
 62
     7
 10
71.408928000000003
 20
29.726146
 30
0.0
 40
2.165392999999999
 50
92.108508999999998
 51
177.91986499999999
  0
ARC
  5
AA
  8
_________2
 62
     7
 10
71.409267
 20
29.884751999999999
 30
0.0
 40
2.1657829999999998
 50
182.117133
 51
267.88289700000001
  0
ARC
  5
AB
  8
_________2
 62
     7
 10
71.249286999999995
 20
29.885429999999989
 30
0.0
 40
2.1664590000000001
 50
272.11546800000002
 51
357.86560400000002
  0
TEXT
  5
AC
  8
_________2
 62
     7
 10
104.605
 20
1.6794899999999999
 30
0.0
 40
3.0923400000000001
  1
図番
 41
0.5
  0
LINE
  5
AD
  8
_________2
 62
     7
 10
103.55
 20
5.9087199999999989
 30
0.0
 11
183.55099999999999
 21
5.9087199999999989
 31
0.0
  0
TEXT
  5
AE
  8
_________2
 62
     7
 10
104.605
 20
11.679299999999991
 30
0.0
 40
3.0923400000000001
  1
品番
 41
0.5
  0
TEXT
  5
AF
  8
_________2
 62
     7
 10
104.605
 20
31.8184
 30
0.0
 40
3.0923400000000001
  1
名称
 41
0.5
  0
TEXT
  5
B0
  8
_________2
 62
     7
 10
91.844958333333338
 20
26.822299999999998
 30
0.0
 40
3.6545800000000002
  1
mm
 41
0.5
 72
     1
 11
93.367699999999985
 21
26.822299999999998
 31
0.0
  0
TEXT
  5
B1
  8
_________2
 62
     7
 10
85.642999999999986
 20
31.8184
 30
0.0
 40
3.0923400000000001
  1
単位
 41
0.5
  0
TEXT
  5
B2
  8
_________2
 62
     7
 10
85.642999999999986
 20
19.410799999999991
 30
0.0
 40
3.0923400000000001
  1
尺度
 41
0.5
  0
TEXT
  5
B3
  8
_________2
 62
     7
 10
90.853106999999994
 20
13.218199999999991
 30
0.0
 40
3.6545800000000002
  1
1 ： 1
 41
0.5
 72
     1
 11
93.959500000000006
 21
13.218199999999991
 31
0.0
  0
TEXT
  5
B4
  8
_________2
 62
     7
 10
138.30240000000001
 20
9.1082000000000001
 30
0.0
 40
3.9357000000000002
  1
CET008
 41
0.5
 72
     1
 11
143.55000000000001
 21
9.1082000000000001
 31
0.0
  0
TEXT
  5
B5
  8
_________2
 62
     7
 10
138.30240000000001
 20
-0.8926299999999999
 30
0.0
 40
3.9357000000000002
  1
CET008
 41
0.5
 72
     1
 11
143.55000000000001
 21
-0.8926299999999999
 31
0.0
  0
TEXT
  5
B6
  8
_________2
 62
     7
 10
24.586600000000001
 20
0.707627
 30
0.0
 40
3.9357000000000002
  1
CEL300・310用
 41
0.5
  0
TEXT
  5
B7
  8
_________2
 62
     7
 10
109.179
 20
24.226099999999999
 30
0.0
 40
3.9357000000000002
  1
スペーサー
 41
0.5
  0
TEXT
  5
B8
  8
_________2
 62
     7
 10
39.425100333333333
 20
13.603400000000001
 30
0.0
 40
3.6545800000000002
  1
福田
 41
0.5
 72
     1
 11
41.313299999999998
 21
13.603400000000001
 31
0.0
  0
TEXT
  5
B9
  8
_________2
 62
     7
 10
20.790190666666671
 20
13.603400000000001
 30
0.0
 40
3.6545800000000002
  1
石原
 41
0.5
 72
     1
 11
22.7393
 21
13.603400000000001
 31
0.0
  0
TEXT
  5
BA
  8
_________2
 62
     7
 10
67.785600000000002
 20
13.218199999999991
 30
0.0
 40
3.6545800000000002
  1
04.03.08
 41
0.5
  0
TEXT
  5
BB
  8
_________2
 62
     7
 10
66.5929
 20
19.410799999999991
 30
0.0
 40
3.0923400000000001
  1
日付
 41
0.5
  0
TEXT
  5
BC
  8
_________2
 62
     7
 10
29.639199999999992
 20
19.410799999999991
 30
0.0
 40
3.0923400000000001
  1
検図
 41
0.5
  0
TEXT
  5
BD
  8
_________2
 62
     7
 10
18.020900000000001
 20
5.21143
 30
0.0
 40
3.0923400000000001
  1
備考
 41
0.5
  0
TEXT
  5
BE
  8
_________2
 62
     7
 10
18.020900000000001
 20
19.410799999999991
 30
0.0
 40
3.0923400000000001
  1
製図
 41
0.5
  0
TEXT
  5
BF
  8
_________2
 62
     7
 10
23.788265333333339
 20
27.936800000000002
 30
0.0
 40
4.4979399999999989
  1
セラトレーディング株式会社
 41
0.5
 72
     1
 11
41.180300000000003
 21
27.936800000000002
 31
0.0
  0
LINE
  5
C0
  8
_________2
 62
     7
 10
183.55099999999999
 20
-4.0910799999999998
 30
0.0
 11
17.049399999999991
 21
-4.0910799999999998
 31
0.0
  0
LINE
  5
C1
  8
_________2
 62
     7
 10
17.049399999999991
 20
-4.0910799999999998
 30
0.0
 11
17.049399999999991
 21
258.911
 31
0.0
  0
LINE
  5
C2
  8
_________2
 62
     7
 10
17.049399999999991
 20
258.911
 30
0.0
 11
183.55099999999999
 21
258.911
 31
0.0
  0
LINE
  5
C3
  8
_________2
 62
     7
 10
183.55099999999999
 20
258.911
 30
0.0
 11
183.55099999999999
 21
-4.0910799999999998
 31
0.0
  0
LINE
  5
C4
  8
_________2
 62
     7
 10
65.549700000000001
 20
9.4092999999999982
 30
0.0
 11
65.549700000000001
 21
35.909100000000002
 31
0.0
  0
LINE
  5
C5
  8
_________2
 62
     7
 10
84.549599999999984
 20
9.4092999999999982
 30
0.0
 11
84.549599999999984
 21
35.909100000000002
 31
0.0
  0
LINE
  5
C6
  8
_________2
 62
     7
 10
103.55
 20
-4.0910799999999998
 30
0.0
 11
103.55
 21
35.909100000000002
 31
0.0
  0
LINE
  5
C7
  8
_________2
 62
     7
 10
28.549199999999988
 20
9.4092999999999982
 30
0.0
 11
28.549199999999988
 21
23.409199999999998
 31
0.0
  0
LINE
  5
C8
  8
_________2
 62
     7
 10
17.049399999999991
 20
9.4092999999999982
 30
0.0
 11
103.55
 21
9.4092999999999982
 31
0.0
  0
LINE
  5
C9
  8
_________2
 62
     7
 10
17.049399999999991
 20
23.409199999999998
 30
0.0
 11
103.55
 21
23.409199999999998
 31
0.0
  0
LINE
  5
CA
  8
_________2
 62
     7
 10
103.55
 20
15.9085
 30
0.0
 11
183.55099999999999
 21
15.9085
 31
0.0
  0
LINE
  5
CB
  8
_________2
 62
     7
 10
17.049399999999991
 20
35.909100000000002
 30
0.0
 11
183.55099999999999
 21
35.909100000000002
 31
0.0
  0
ENDSEC
  0
EOF
