  0
SECTION
  2
HEADER
  9
$ACADVER
  1
AC1009
  9
$INSBASE
 10
0.0
 20
0.0
 30
0.0
  9
$EXTMIN
 10
-4.70052
 20
-21.071400000000001
 30
0.0
  9
$EXTMAX
 10
205.30099999999999
 20
275.93099999999993
 30
0.0
  9
$LIMMIN
 10
0.0
 20
0.0
  9
$LIMMAX
 10
12.0
 20
9.0
  9
$ORTHOMODE
 70
     0
  9
$REGENMODE
 70
     1
  9
$FILLMODE
 70
     1
  9
$QTEXTMODE
 70
     0
  9
$MIRRTEXT
 70
     1
  9
$DRAGMODE
 70
     2
  9
$LTSCALE
 40
1.0
  9
$OSMODE
 70
    37
  9
$ATTMODE
 70
     1
  9
$TEXTSIZE
 40
0.0
  9
$TRACEWID
 40
0.05
  9
$TEXTSTYLE
  7
STANDARD
  9
$CLAYER
  8
0
  9
$CELTYPE
  6
CONTINUOUS
  9
$CECOLOR
 62
   256
  9
$DIMSCALE
 40
1.0
  9
$DIMASZ
 40
0.18
  9
$DIMEXO
 40
0.0625
  9
$DIMDLI
 40
0.38
  9
$DIMRND
 40
0.0
  9
$DIMDLE
 40
0.0
  9
$DIMEXE
 40
0.18
  9
$DIMTP
 40
0.0
  9
$DIMTM
 40
0.0
  9
$DIMTXT
 40
0.18
  9
$DIMCEN
 40
0.09
  9
$DIMTSZ
 40
0.0
  9
$DIMTOL
 70
     0
  9
$DIMLIM
 70
     0
  9
$DIMTIH
 70
     1
  9
$DIMTOH
 70
     1
  9
$DIMSE1
 70
     0
  9
$DIMSE2
 70
     0
  9
$DIMTAD
 70
     0
  9
$DIMZIN
 70
     0
  9
$DIMBLK
  1

  9
$DIMASO
 70
     1
  9
$DIMSHO
 70
     1
  9
$DIMPOST
  1

  9
$DIMAPOST
  1

  9
$DIMALT
 70
     0
  9
$DIMALTD
 70
     2
  9
$DIMALTF
 40
25.399999999999999
  9
$DIMLFAC
 40
1.0
  9
$DIMTOFL
 70
     0
  9
$DIMTVP
 40
0.0
  9
$DIMTIX
 70
     0
  9
$DIMSOXD
 70
     0
  9
$DIMSAH
 70
     0
  9
$DIMBLK1
  1

  9
$DIMBLK2
  1

  9
$DIMSTYLE
  2
STANDARD
  9
$DIMCLRD
 70
     0
  9
$DIMCLRE
 70
     0
  9
$DIMCLRT
 70
     0
  9
$DIMTFAC
 40
1.0
  9
$DIMGAP
 40
0.09
  9
$LUNITS
 70
     2
  9
$LUPREC
 70
     4
  9
$SKETCHINC
 40
0.1
  9
$FILLETRAD
 40
0.0
  9
$AUNITS
 70
     0
  9
$AUPREC
 70
     0
  9
$MENU
  1
.
  9
$ELEVATION
 40
0.0
  9
$PELEVATION
 40
0.0
  9
$THICKNESS
 40
0.0
  9
$LIMCHECK
 70
     0
  9
$BLIPMODE
 70
     0
  9
$CHAMFERA
 40
0.0
  9
$CHAMFERB
 40
0.0
  9
$SKPOLY
 70
     0
  9
$TDCREATE
 40
2444972.375
  9
$TDUPDATE
 40
2453648.257926608
  9
$TDINDWG
 40
0.000016412
  9
$TDUSRTIMER
 40
0.000016412
  9
$USRTIMER
 70
     1
  9
$ANGBASE
 50
0.0
  9
$ANGDIR
 70
     0
  9
$PDMODE
 70
     0
  9
$PDSIZE
 40
0.0
  9
$PLINEWID
 40
0.0
  9
$COORDS
 70
     1
  9
$SPLFRAME
 70
     0
  9
$SPLINETYPE
 70
     6
  9
$SPLINESEGS
 70
     8
  9
$ATTDIA
 70
     0
  9
$ATTREQ
 70
     1
  9
$HANDLING
 70
 22529
  9
$HANDSEED
  5
230
  9
$SURFTAB1
 70
     6
  9
$SURFTAB2
 70
     6
  9
$SURFTYPE
 70
     6
  9
$SURFU
 70
     6
  9
$SURFV
 70
     6
  9
$UCSNAME
  2

  9
$UCSORG
 10
0.0
 20
0.0
 30
0.0
  9
$UCSXDIR
 10
1.0
 20
0.0
 30
0.0
  9
$UCSYDIR
 10
0.0
 20
1.0
 30
0.0
  9
$PUCSNAME
  2

  9
$PUCSORG
 10
0.0
 20
0.0
 30
0.0
  9
$PUCSXDIR
 10
1.0
 20
0.0
 30
0.0
  9
$PUCSYDIR
 10
0.0
 20
1.0
 30
0.0
  9
$USERI1
 70
     0
  9
$USERI2
 70
     0
  9
$USERI3
 70
     0
  9
$USERI4
 70
     0
  9
$USERI5
 70
     0
  9
$USERR1
 40
0.0
  9
$USERR2
 40
0.0
  9
$USERR3
 40
0.0
  9
$USERR4
 40
0.0
  9
$USERR5
 40
0.0
  9
$WORLDVIEW
 70
     1
  9
$SHADEDGE
 70
     3
  9
$SHADEDIF
 70
    70
  9
$TILEMODE
 70
     1
  9
$MAXACTVP
 70
    48
  9
$PLIMCHECK
 70
     0
  9
$PEXTMIN
 10
1.0000000000000000E+020
 20
1.0000000000000000E+020
 30
1.0000000000000000E+020
  9
$PEXTMAX
 10
-1.0000000000000000E+020
 20
-1.0000000000000000E+020
 30
-1.0000000000000000E+020
  9
$PLIMMIN
 10
0.0
 20
0.0
  9
$PLIMMAX
 10
12.0
 20
9.0
  9
$UNITMODE
 70
     0
  9
$VISRETAIN
 70
     1
  9
$PLINEGEN
 70
     0
  9
$PSLTSCALE
 70
     1
  0
ENDSEC
  0
SECTION
  2
TABLES
  0
TABLE
  2
VPORT
 70
     2
  0
VPORT
  2
*ACTIVE
 70
     0
 10
0.0
 20
0.0
 11
1.0
 21
1.0
 12
189.56085651407921
 22
127.4297999999999
 13
0.0
 23
0.0
 14
1.0
 24
1.0
 15
0.0
 25
0.0
 16
0.0
 26
0.0
 36
1.0
 17
0.0
 27
0.0
 37
0.0
 40
299.2467506297229
 41
2.1842105263157889
 42
50.0
 43
0.0
 44
0.0
 50
0.0
 51
0.0
 71
     0
 72
   100
 73
     1
 74
     1
 75
     0
 76
     0
 77
     0
 78
     0
  0
ENDTAB
  0
TABLE
  2
LTYPE
 70
     2
  0
LTYPE
  2
CONTINUOUS
 70
     0
  3
Solid line
 72
    65
 73
     0
 40
0.0
  0
LTYPE
  2
AIGENLINE001
 70
     0
  3
generate AI->DXF Converter
 72
    65
 73
     4
 40
5.8561449999999988
 49
3.5278
 49
-0.776115
 49
0.776115
 49
-0.776115
  0
ENDTAB
  0
TABLE
  2
LAYER
 70
     2
  0
LAYER
  2
0
 70
     0
 62
     7
  6
CONTINUOUS
  0
LAYER
  2
_________2
 70
     0
 62
     7
  6
CONTINUOUS
  0
ENDTAB
  0
TABLE
  2
STYLE
 70
     1
  0
STYLE
  2
STANDARD
 70
     0
 40
0.0
 41
0.0
 50
0.0
 71
     0
 42
0.0
  3
TXT
  4
EXTFONT.SHX
  0
ENDTAB
  0
TABLE
  2
VIEW
 70
     0
  0
ENDTAB
  0
TABLE
  2
UCS
 70
     0
  0
ENDTAB
  0
TABLE
  2
APPID
 70
     1
  0
APPID
  2
ACAD
 70
     0
  0
ENDTAB
  0
TABLE
  2
DIMSTYLE
 70
     1
  0
DIMSTYLE
  2
STANDARD
 70
     0
  3

  4

  5

  6

  7

 40
1.0
 41
0.18
 42
0.0625
 43
0.38
 44
0.18
 45
0.0
 46
0.0
 47
0.0
 48
0.0
140
0.18
141
0.09
142
0.0
143
25.399999999999999
144
1.0
145
0.0
146
1.0
147
0.09
 71
     0
 72
     0
 73
     1
 74
     1
 75
     0
 76
     0
 77
     0
 78
     0
170
     0
171
     2
172
     0
173
     0
174
     0
175
     0
176
     0
177
     0
178
     0
  0
ENDTAB
  0
ENDSEC
  0
SECTION
  2
BLOCKS
  0
BLOCK
  8
0
  2
$MODEL_SPACE
 70
     0
 10
0.0
 20
0.0
 30
0.0
  3
$MODEL_SPACE
  1

  0
ENDBLK
  5
1A
  8
0
  0
BLOCK
 67
     1
  8
0
  2
$PAPER_SPACE
 70
     0
 10
0.0
 20
0.0
 30
0.0
  3
$PAPER_SPACE
  1

  0
ENDBLK
  5
17
 67
     1
  8
0
  0
ENDSEC
  0
SECTION
  2
ENTITIES
  0
TEXT
  5
22
  8
0
 62
     7
 10
88.781700000000001
 20
119.976525
 30
0.0
 40
3.0923400000000001
  1
111
 50
90.0
 41
0.5
 72
     1
 11
88.781700000000001
 21
121.265
 31
0.0
  0
TEXT
  5
23
  8
0
 62
     7
 10
140.85921999999999
 20
121.5119999999999
 30
0.0
 40
3.0923400000000001
  1
16
 41
0.5
 72
     1
 11
141.8899999999999
 21
121.5119999999999
 31
0.0
  0
TEXT
  5
24
  8
0
 62
     7
 10
69.966700000000003
 20
127.7160255
 30
0.0
 40
3.0923400000000001
  1
160～225
 50
90.0
 41
0.5
 72
     1
 11
69.966700000000003
 21
132.63800000000001
 31
0.0
  0
TEXT
  5
25
  8
0
 62
     7
 10
126.29313500000001
 20
97.176100000000005
 30
0.0
 40
3.0923400000000001
  1
300
 41
0.5
 72
     1
 11
128.09700000000001
 21
97.176100000000005
 31
0.0
  0
TEXT
  5
26
  8
0
 62
     7
 10
126.187
 20
139.20944
 30
0.0
 40
3.0923400000000001
  1
%%c38
 50
90.0
 41
0.5
 72
     1
 11
126.187
 21
141.27099999999999
 31
0.0
  0
TEXT
  5
27
  8
0
 62
     7
 10
169.78599999999989
 20
130.30343999999999
 30
0.0
 40
3.0923400000000001
  1
%%c72
 50
90.0
 41
0.5
 72
     1
 11
169.78599999999989
 21
132.36500000000001
 31
0.0
  0
TEXT
  5
28
  8
0
 62
     7
 10
88.407224999999997
 20
97.161600000000021
 30
0.0
 40
3.0923400000000001
  1
84
 41
0.5
 72
     1
 11
89.695700000000002
 21
97.161600000000021
 31
0.0
  0
TEXT
  5
29
  8
0
 62
     7
 10
77.739309000000006
 20
159.90199999999999
 30
0.0
 40
3.0923400000000001
  1
G1 1/2
 41
0.5
 72
     1
 11
81.295500000000004
 21
159.90199999999999
 31
0.0
  0
ARC
  5
2A
  8
0
 62
     7
 10
40.715084999999988
 20
132.33975599999991
 30
0.0
 40
7.2343039999999981
 50
50.670668999999997
 51
58.087221
  0
ARC
  5
2B
  8
0
 62
     7
 10
40.680359000000003
 20
132.34320099999991
 30
0.0
 40
7.2586509999999986
 50
0.16681
 51
40.064633999999998
  0
ARC
  5
2C
  8
0
 62
     7
 10
40.599907000000002
 20
132.44055
 30
0.0
 40
7.3394679999999992
 50
302.45922000000002
 51
359.40500400000002
  0
ARC
  5
2D
  8
0
 62
     7
 10
40.889119000000001
 20
132.446505
 30
0.0
 40
7.3508449999999987
 50
180.64051499999999
 51
237.48790500000001
  0
ARC
  5
2E
  8
0
 62
     7
 10
40.80854699999999
 20
132.338821
 30
0.0
 40
7.2698580000000002
 50
139.97161199999999
 51
179.79890700000001
  0
ARC
  5
2F
  8
0
 62
     7
 10
40.765352999999998
 20
132.339022
 30
0.0
 40
7.2366599999999996
 50
121.92656100000001
 51
129.3472129999999
  0
ARC
  5
30
  8
0
 62
     7
 10
96.593493000000024
 20
121.422704
 30
0.0
 40
0.9625969999999998
 50
333.43200999999988
 51
359.67840100000001
  0
ARC
  5
31
  8
0
 62
     7
 10
96.30630699999999
 20
121.5699759999999
 30
0.0
 40
1.285329999999999
 50
311.57175499999988
 51
333.28609799999992
  0
ARC
  5
32
  8
0
 62
     7
 10
95.889882999999998
 20
122.02377799999999
 30
0.0
 40
1.901179999999999
 50
295.19692400000002
 51
311.885583
  0
ARC
  5
33
  8
0
 62
     7
 10
95.576763999999997
 20
122.67624499999999
 30
0.0
 40
2.6248759999999991
 50
281.93972899999989
 51
295.31807500000002
  0
ARC
  5
34
  8
0
 62
     7
 10
95.480266
 20
123.1186639999999
 30
0.0
 40
3.0776880000000002
 50
269.95103799999993
 51
281.99338499999988
  0
ARC
  5
35
  8
0
 62
     7
 10
95.476429999999993
 20
123.13557400000001
 30
0.0
 40
3.0945969999999998
 50
258.03964500000001
 51
270.0223299999999
  0
ARC
  5
36
  8
0
 62
     7
 10
95.390979999999999
 20
122.7122669999999
 30
0.0
 40
2.662774999999999
 50
244.7707959999999
 51
257.950806
  0
ARC
  5
37
  8
0
 62
     7
 10
95.079042000000001
 20
122.0443759999999
 30
0.0
 40
1.9256349999999991
 50
228.22114999999991
 51
244.696382
  0
ARC
  5
38
  8
0
 62
     7
 10
94.677676000000005
 20
121.59206399999989
 30
0.0
 40
1.320924999999999
 50
207.00989799999999
 51
228.13228899999999
  0
ARC
  5
39
  8
0
 62
     7
 10
94.368864999999985
 20
121.425185
 30
0.0
 40
0.9700450000000001
 50
180.46565000000001
 51
206.5118039999999
  0
ARC
  5
3A
  8
0
 62
     7
 10
94.361106000000007
 20
121.41162799999999
 30
0.0
 40
0.9622719999999999
 50
153.38139599999991
 51
179.66219699999991
  0
ARC
  5
3B
  8
0
 62
     7
 10
94.640384999999995
 20
121.27157099999989
 30
0.0
 40
1.274702
 50
131.480098
 51
153.37771499999991
  0
ARC
  5
3C
  8
0
 62
     7
 10
95.061882999999995
 20
120.8145159999999
 30
0.0
 40
1.8963490000000001
 50
115.148573
 51
131.874244
  0
ARC
  5
3D
  8
0
 62
     7
 10
95.372321999999997
 20
120.1821379999999
 30
0.0
 40
2.600738999999999
 50
101.920654
 51
115.418938
  0
ARC
  5
3E
  8
0
 62
     7
 10
95.472522999999995
 20
119.736735
 30
0.0
 40
3.057239
 50
89.904185999999996
 51
102.033838
  0
ARC
  5
3F
  8
0
 62
     7
 10
95.477743999999987
 20
119.692179
 30
0.0
 40
3.1017909999999991
 50
78.053574999999995
 51
90.002002000000005
  0
ARC
  5
40
  8
0
 62
     7
 10
95.584018
 20
120.184359
 30
0.0
 40
2.5982739999999991
 50
64.581316000000001
 51
78.099715000000003
  0
ARC
  5
41
  8
0
 62
     7
 10
95.881187999999995
 20
120.796093
 30
0.0
 40
1.9182129999999999
 50
48.221730000000001
 51
64.755413000000004
  0
ARC
  5
42
  8
0
 62
     7
 10
96.292012
 20
121.2539739999999
 30
0.0
 40
1.303046999999999
 50
26.863278000000001
 51
48.278867999999989
  0
ARC
  5
43
  8
0
 62
     7
 10
96.581566000000009
 20
121.4093979999999
 30
0.0
 40
0.9745409999999999
 50
0.4646600000000001
 51
26.403946000000001
  0
ARC
  5
44
  8
0
 62
     7
 10
101.83789899999989
 20
121.4209979999999
 30
0.0
 40
0.95545
 50
333.33208400000001
 51
359.77832699999988
  0
ARC
  5
45
  8
0
 62
     7
 10
101.54357400000001
 20
121.5699759999999
 30
0.0
 40
1.285329999999999
 50
311.57175499999988
 51
333.28609799999992
  0
ARC
  5
46
  8
0
 62
     7
 10
101.1290739999999
 20
122.0199629999999
 30
0.0
 40
1.897057
 50
295.20281599999998
 51
311.91924299999999
  0
ARC
  5
47
  8
0
 62
     7
 10
100.817532
 20
122.667835
 30
0.0
 40
2.6159240000000001
 50
281.902827
 51
295.33436499999988
  0
ARC
  5
48
  8
0
 62
     7
 10
100.7178109999999
 20
123.11600799999999
 30
0.0
 40
3.0750319999999989
 50
269.94581799999997
 51
281.99860399999989
  0
ARC
  5
49
  8
0
 62
     7
 10
100.7139599999999
 20
123.1348
 30
0.0
 40
3.0938229999999991
 50
258.03815200000003
 51
270.01746600000001
  0
ARC
  5
4A
  8
0
 62
     7
 10
100.627032
 20
122.7096439999999
 30
0.0
 40
2.659883999999999
 50
244.77037899999991
 51
257.97185599999989
  0
ARC
  5
4B
  8
0
 62
     7
 10
100.31631
 20
122.0443759999999
 30
0.0
 40
1.9256349999999991
 50
228.22114999999991
 51
244.696382
  0
ARC
  5
4C
  8
0
 62
     7
 10
99.904207000000014
 20
121.583805
 30
0.0
 40
1.3076110000000001
 50
206.90111399999989
 51
228.241073
  0
ARC
  5
4D
  8
0
 62
     7
 10
99.609603000000007
 20
121.4252279999999
 30
0.0
 40
0.9731719999999999
 50
180.466735
 51
206.42289400000001
  0
ARC
  5
4E
  8
0
 62
     7
 10
99.595314999999999
 20
121.4131379999999
 30
0.0
 40
0.958861
 50
153.380156
 51
179.7511989999999
  0
ARC
  5
4F
  8
0
 62
     7
 10
99.882893999999993
 20
121.2675389999999
 30
0.0
 40
1.2811950000000001
 50
131.53627199999991
 51
153.32154199999991
  0
ARC
  5
50
  8
0
 62
     7
 10
100.29915
 20
120.8145159999999
 30
0.0
 40
1.8963490000000001
 50
115.148573
 51
131.874244
  0
ARC
  5
51
  8
0
 62
     7
 10
100.608777
 20
120.183598
 30
0.0
 40
2.599070999999999
 50
101.9023479999999
 51
115.41658200000001
  0
ARC
  5
52
  8
0
 62
     7
 10
100.709788
 20
119.74002400000001
 30
0.0
 40
3.0539509999999992
 50
89.904042999999987
 51
102.0403399999999
  0
ARC
  5
53
  8
0
 62
     7
 10
100.7159179999999
 20
119.7008399999999
 30
0.0
 40
3.093129999999999
 50
78.036785999999992
 51
90.018791000000007
  0
ARC
  5
54
  8
0
 62
     7
 10
100.81818199999989
 20
120.17319999999999
 30
0.0
 40
2.6098330000000001
 50
64.618104000000002
 51
78.083567000000002
  0
ARC
  5
55
  8
0
 62
     7
 10
101.11602999999999
 20
120.793357
 30
0.0
 40
1.9218689999999989
 50
48.222124999999998
 51
64.715485000000001
  0
ARC
  5
56
  8
0
 62
     7
 10
101.518629
 20
121.24578099999999
 30
0.0
 40
1.3162529999999999
 50
26.971958999999998
 51
48.170186999999999
  0
ARC
  5
57
  8
0
 62
     7
 10
101.818833
 20
121.4093979999999
 30
0.0
 40
0.9745409999999999
 50
0.4646600000000001
 51
26.403946000000001
  0
ARC
  5
58
  8
0
 62
     7
 10
102.120402
 20
120.8920549999999
 30
0.0
 40
1.077246999999999
 50
273.96682399999997
 51
356.01344499999999
  0
LINE
  5
59
  8
0
 62
     7
 10
98.096299999999999
 20
119.818
 30
0.0
 11
102.19499999999989
 21
119.818
 31
0.0
  0
ARC
  5
5A
  8
0
 62
     7
 10
102.15628
 20
121.978796
 30
0.0
 40
1.039480999999999
 50
2.1305990000000001
 51
87.869391000000007
  0
LINE
  5
5B
  8
0
 62
     7
 10
103.19499999999989
 20
120.818
 30
0.0
 11
103.19499999999989
 21
122.017
 31
0.0
  0
LINE
  5
5C
  8
0
 62
     7
 10
93.994900000000001
 20
123.0179999999999
 30
0.0
 11
102.19499999999989
 21
123.0179999999999
 31
0.0
  0
ARC
  5
5D
  8
0
 62
     7
 10
94.069373999999996
 20
120.891679
 30
0.0
 40
1.0768719999999989
 50
183.9679349999999
 51
266.03209399999992
  0
LINE
  5
5E
  8
0
 62
     7
 10
98.096299999999999
 20
119.818
 30
0.0
 11
93.994900000000001
 21
119.818
 31
0.0
  0
ARC
  5
5F
  8
0
 62
     7
 10
94.033534999999986
 20
121.979133
 30
0.0
 40
1.0391449999999991
 50
92.133097000000006
 51
177.90634700000001
  0
LINE
  5
60
  8
0
 62
     7
 10
92.995099999999994
 20
120.818
 30
0.0
 11
92.995099999999994
 21
122.017
 31
0.0
  0
ARC
  5
61
  8
0
 62
     7
 10
79.791468999999992
 20
136.3420669999999
 30
0.0
 40
0.9638149999999999
 50
333.49526200000003
 51
359.7030069999999
  0
ARC
  5
62
  8
0
 62
     7
 10
79.497906
 20
136.49585500000001
 30
0.0
 40
1.2951719999999991
 50
311.65524900000003
 51
333.20260400000001
  0
ARC
  5
63
  8
0
 62
     7
 10
79.086588000000006
 20
136.94977600000001
 30
0.0
 40
1.907711999999999
 50
295.19876099999999
 51
311.824095
  0
ARC
  5
64
  8
0
 62
     7
 10
78.778767000000002
 20
137.5845469999999
 30
0.0
 40
2.6131470000000001
 50
281.93893500000001
 51
295.38003399999991
  0
ARC
  5
65
  8
0
 62
     7
 10
78.679818000000012
 20
138.038331
 30
0.0
 40
3.0775860000000002
 50
269.95083699999998
 51
281.99358499999988
  0
ARC
  5
66
  8
0
 62
     7
 10
78.676011000000003
 20
138.055725
 30
0.0
 40
3.094978999999999
 50
258.04038700000001
 51
270.02158899999989
  0
ARC
  5
67
  8
0
 62
     7
 10
78.583151999999984
 20
137.6079729999999
 30
0.0
 40
2.6377039999999998
 50
244.68283899999989
 51
257.99823099999998
  0
ARC
  5
68
  8
0
 62
     7
 10
78.292103999999995
 20
136.987053
 30
0.0
 40
1.9519619999999991
 50
228.36565300000001
 51
244.6115299999999
  0
ARC
  5
69
  8
0
 62
     7
 10
77.871402000000003
 20
136.50657299999989
 30
0.0
 40
1.3133559999999991
 50
206.9206639999999
 51
228.15687399999999
  0
ARC
  5
6A
  8
0
 62
     7
 10
77.567075000000003
 20
136.34463500000001
 30
0.0
 40
0.9687120000000001
 50
180.44740899999999
 51
206.53004499999989
  0
ARC
  5
6B
  8
0
 62
     7
 10
77.552369999999996
 20
136.333382
 30
0.0
 40
0.9539839999999999
 50
153.2651699999999
 51
179.77842299999989
  0
ARC
  5
6C
  8
0
 62
     7
 10
77.850477999999995
 20
136.18485399999989
 30
0.0
 40
1.287042
 50
131.642079
 51
153.3300539999999
  0
ARC
  5
6D
  8
0
 62
     7
 10
78.279943000000003
 20
135.70614199999989
 30
0.0
 40
1.9301589999999991
 50
115.296086
 51
131.726731
  0
ARC
  5
6E
  8
0
 62
     7
 10
78.573109000000002
 20
135.0920999999999
 30
0.0
 40
2.610590999999999
 50
101.9029399999999
 51
115.35482499999991
  0
ARC
  5
6F
  8
0
 62
     7
 10
78.672060999999999
 20
134.6565379999999
 30
0.0
 40
3.0572059999999999
 50
89.904120000000006
 51
102.03390400000001
  0
ARC
  5
70
  8
0
 62
     7
 10
78.681618
 20
134.6533639999999
 30
0.0
 40
3.0603790000000002
 50
77.972432999999995
 51
90.083144999999988
  0
ARC
  5
71
  8
0
 62
     7
 10
78.768297000000004
 20
135.0547139999999
 30
0.0
 40
2.6497779999999991
 50
64.745070999999996
 51
77.997124999999997
  0
ARC
  5
72
  8
0
 62
     7
 10
79.068543000000005
 20
135.69780299999999
 30
0.0
 40
1.9400589999999991
 50
48.315458
 51
64.661686000000003
  0
ARC
  5
73
  8
0
 62
     7
 10
79.477436999999995
 20
136.16376699999989
 30
0.0
 40
1.320149999999999
 50
26.972740000000002
 51
48.119721999999989
  0
ARC
  5
74
  8
0
 62
     7
 10
79.788539999999998
 20
136.331726
 30
0.0
 40
0.9667459999999998
 50
0.316772
 51
26.464039
  0
ARC
  5
75
  8
0
 62
     7
 10
85.030619000000002
 20
136.34309500000001
 30
0.0
 40
0.962283
 50
333.38128699999999
 51
359.64129800000001
  0
ARC
  5
76
  8
0
 62
     7
 10
84.743028000000024
 20
136.4895469999999
 30
0.0
 40
1.2850109999999999
 50
311.56903
 51
333.28882299999998
  0
ARC
  5
77
  8
0
 62
     7
 10
84.331641000000005
 20
136.936589
 30
0.0
 40
1.8924659999999991
 50
295.15547299999992
 51
311.90691699999991
  0
ARC
  5
78
  8
0
 62
     7
 10
84.018854000000005
 20
137.57619899999989
 30
0.0
 40
2.6043970000000001
 50
281.91624999999999
 51
295.40271899999999
  0
ARC
  5
79
  8
0
 62
     7
 10
83.91682800000001
 20
138.040786
 30
0.0
 40
3.0800399999999999
 50
269.95565299999993
 51
281.98876899999988
  0
ARC
  5
7A
  8
0
 62
     7
 10
83.913278000000005
 20
138.055725
 30
0.0
 40
3.094978999999999
 50
258.04038700000001
 51
270.02158899999989
  0
ARC
  5
7B
  8
0
 62
     7
 10
83.820419000000001
 20
137.6079729999999
 30
0.0
 40
2.6377039999999998
 50
244.68283899999989
 51
257.99823099999998
  0
ARC
  5
7C
  8
0
 62
     7
 10
83.514545999999996
 20
136.96321399999991
 30
0.0
 40
1.924070999999999
 50
228.231649
 51
244.70599999999999
  0
ARC
  5
7D
  8
0
 62
     7
 10
83.105602000000005
 20
136.50499999999991
 30
0.0
 40
1.3099099999999999
 50
206.92005599999999
 51
228.22212999999991
  0
ARC
  5
7E
  8
0
 62
     7
 10
82.813737000000003
 20
136.34688799999989
 30
0.0
 40
0.9781259999999999
 50
180.57510799999989
 51
206.40234699999991
  0
ARC
  5
7F
  8
0
 62
     7
 10
82.797914999999989
 20
136.33139800000001
 30
0.0
 40
0.9622719999999999
 50
153.38139599999991
 51
179.66219699999991
  0
ARC
  5
80
  8
0
 62
     7
 10
83.083099000000004
 20
136.187658
 30
0.0
 40
1.281631999999999
 50
131.55865199999991
 51
153.34884600000001
  0
ARC
  5
81
  8
0
 62
     7
 10
83.514731000000012
 20
135.7113379999999
 30
0.0
 40
1.9244019999999991
 50
115.29542499999999
 51
131.76692499999999
  0
ARC
  5
82
  8
0
 62
     7
 10
83.812693999999979
 20
135.08522400000001
 30
0.0
 40
2.6177980000000001
 50
101.92153999999989
 51
115.336224
  0
ARC
  5
83
  8
0
 62
     7
 10
83.909327999999988
 20
134.6565379999999
 30
0.0
 40
3.0572059999999999
 50
89.904120000000006
 51
102.03390400000001
  0
ARC
  5
84
  8
0
 62
     7
 10
83.918885000000003
 20
134.6533639999999
 30
0.0
 40
3.0603790000000002
 50
77.972432999999995
 51
90.083144999999988
  0
ARC
  5
85
  8
0
 62
     7
 10
84.011409999999998
 20
135.072057
 30
0.0
 40
2.631599
 50
64.699091999999993
 51
78.043103000000002
  0
ARC
  5
86
  8
0
 62
     7
 10
84.304556000000005
 20
135.6973689999999
 30
0.0
 40
1.9409879999999999
 50
48.303913000000001
 51
64.633696
  0
ARC
  5
87
  8
0
 62
     7
 10
84.725070999999986
 20
136.171999
 30
0.0
 40
1.306872
 50
26.864055
 51
48.228406999999997
  0
ARC
  5
88
  8
0
 62
     7
 10
85.023099999999985
 20
136.3295929999999
 30
0.0
 40
0.9698120000000001
 50
0.441758
 51
26.514609
  0
ARC
  5
89
  8
0
 62
     7
 10
85.319928000000004
 20
135.8114699999999
 30
0.0
 40
1.076894
 50
273.96897899999988
 51
356.03103099999993
  0
LINE
  5
8A
  8
0
 62
     7
 10
81.295500000000004
 20
134.738
 30
0.0
 11
85.394499999999994
 21
134.738
 31
0.0
  0
ARC
  5
8B
  8
0
 62
     7
 10
85.355879999999999
 20
136.89898199999999
 30
0.0
 40
1.039062999999999
 50
2.1084629999999991
 51
87.871786999999998
  0
LINE
  5
8C
  8
0
 62
     7
 10
86.394199999999984
 20
135.73699999999991
 30
0.0
 11
86.394199999999984
 21
136.93700000000001
 31
0.0
  0
LINE
  5
8D
  8
0
 62
     7
 10
77.194400000000002
 20
137.93700000000001
 30
0.0
 11
85.394499999999994
 21
137.93700000000001
 31
0.0
  0
ARC
  5
8E
  8
0
 62
     7
 10
77.268482999999989
 20
135.811016
 30
0.0
 40
1.076411
 50
183.9465809999999
 51
266.05344899999989
  0
LINE
  5
8F
  8
0
 62
     7
 10
81.295500000000004
 20
134.738
 30
0.0
 11
77.194400000000002
 21
134.738
 31
0.0
  0
ARC
  5
90
  8
0
 62
     7
 10
77.233032999999992
 20
136.89857499999999
 30
0.0
 40
1.0394709999999989
 50
92.130042000000003
 51
177.86992799999999
  0
LINE
  5
91
  8
0
 62
     7
 10
76.194599999999994
 20
135.73699999999991
 30
0.0
 11
76.194599999999994
 21
136.93700000000001
 31
0.0
  0
ARC
  5
92
  8
0
 62
     7
 10
79.791475000000005
 20
155.169972
 30
0.0
 40
0.9638069999999999
 50
333.49539099999998
 51
359.72379799999999
  0
ARC
  5
93
  8
0
 62
     7
 10
79.504331999999991
 20
155.31968599999999
 30
0.0
 40
1.287596999999999
 50
311.57242200000002
 51
333.23569099999997
  0
ARC
  5
94
  8
0
 62
     7
 10
79.089425000000006
 20
155.77180200000001
 30
0.0
 40
1.901179999999999
 50
295.19692400000002
 51
311.885583
  0
ARC
  5
95
  8
0
 62
     7
 10
78.777019999999993
 20
156.42214899999991
 30
0.0
 40
2.6226529999999988
 50
281.93403499999999
 51
295.32376899999991
  0
ARC
  5
96
  8
0
 62
     7
 10
78.675562999999997
 20
156.8913499999999
 30
0.0
 40
3.102692999999999
 50
270.02981099999988
 51
281.97541799999988
  0
ARC
  5
97
  8
0
 62
     7
 10
78.679556000000005
 20
156.90192300000001
 30
0.0
 40
3.1132680000000001
 50
258.04498699999988
 51
269.95621299999988
  0
ARC
  5
98
  8
0
 62
     7
 10
78.577562999999998
 20
156.42385400000001
 30
0.0
 40
2.6244399999999999
 50
244.68082899999999
 51
258.06140599999998
  0
ARC
  5
99
  8
0
 62
     7
 10
78.285756000000006
 20
155.80373899999989
 30
0.0
 40
1.9391
 50
228.27874199999999
 51
244.63878999999989
  0
ARC
  5
9A
  8
0
 62
     7
 10
77.871697999999995
 20
155.33558999999991
 30
0.0
 40
1.314120999999999
 50
206.957842
 51
228.169422
  0
ARC
  5
9B
  8
0
 62
     7
 10
77.568438999999984
 20
155.172866
 30
0.0
 40
0.9700760000000001
 50
180.4453839999999
 51
206.51102299999999
  0
ARC
  5
9C
  8
0
 62
     7
 10
77.552369999999996
 20
155.16163700000001
 30
0.0
 40
0.9539839999999999
 50
153.2651699999999
 51
179.77842299999989
  0
ARC
  5
9D
  8
0
 62
     7
 10
77.843205000000012
 20
155.01783399999999
 30
0.0
 40
1.2784219999999991
 50
131.54946599999991
 51
153.372996
  0
ARC
  5
9E
  8
0
 62
     7
 10
78.267131000000006
 20
154.55340100000001
 30
0.0
 40
1.9071939999999989
 50
115.1964679999999
 51
131.82634899999991
  0
ARC
  5
9F
  8
0
 62
     7
 10
78.562573
 20
153.9512639999999
 30
0.0
 40
2.5778400000000001
 50
101.81708399999999
 51
115.440681
  0
ARC
  5
A0
  8
0
 62
     7
 10
78.672053000000005
 20
153.50012100000001
 30
0.0
 40
3.0418769999999991
 50
89.903490000000005
 51
102.09531
  0
ARC
  5
A1
  8
0
 62
     7
 10
78.678341000000003
 20
153.46572800000001
 30
0.0
 40
3.0762669999999992
 50
77.973084
 51
90.021687
  0
ARC
  5
A2
  8
0
 62
     7
 10
78.783176999999995
 20
153.92676499999999
 30
0.0
 40
2.6035129999999991
 50
64.626784999999984
 51
78.115410999999995
  0
ARC
  5
A3
  8
0
 62
     7
 10
79.068543000000005
 20
154.52571299999991
 30
0.0
 40
1.9400589999999991
 50
48.315458
 51
64.661686000000003
  0
ARC
  5
A4
  8
0
 62
     7
 10
79.480902999999998
 20
154.99380500000001
 30
0.0
 40
1.3162529999999999
 50
26.971958999999998
 51
48.170186999999999
  0
ARC
  5
A5
  8
0
 62
     7
 10
79.788301000000004
 20
155.1599239999999
 30
0.0
 40
0.966985
 50
0.320068
 51
26.46074299999999
  0
ARC
  5
A6
  8
0
 62
     7
 10
85.030627999999993
 20
155.170998
 30
0.0
 40
0.9622719999999999
 50
333.381416
 51
359.66221699999988
  0
ARC
  5
A7
  8
0
 62
     7
 10
84.749358000000001
 20
155.313447
 30
0.0
 40
1.2775549999999991
 50
311.48623399999991
 51
333.32187900000002
  0
ARC
  5
A8
  8
0
 62
     7
 10
84.334427000000005
 20
155.75870699999999
 30
0.0
 40
1.886039
 50
295.15363600000001
 51
311.96842199999998
  0
ARC
  5
A9
  8
0
 62
     7
 10
84.017121000000003
 20
156.4137429999999
 30
0.0
 40
2.6138430000000001
 50
281.91136699999993
 51
295.34643799999992
  0
ARC
  5
AA
  8
0
 62
     7
 10
83.912565999999998
 20
156.893857
 30
0.0
 40
3.1052009999999992
 50
270.034651
 51
281.97057799999988
  0
ARC
  5
AB
  8
0
 62
     7
 10
83.916824000000005
 20
156.90192300000001
 30
0.0
 40
3.1132680000000001
 50
258.04498699999988
 51
269.95621299999988
  0
ARC
  5
AC
  8
0
 62
     7
 10
83.814830000000015
 20
156.42385400000001
 30
0.0
 40
2.6244399999999999
 50
244.68082899999999
 51
258.06140599999998
  0
ARC
  5
AD
  8
0
 62
     7
 10
83.508382999999995
 20
155.78021299999989
 30
0.0
 40
1.9115729999999991
 50
228.14469600000001
 51
244.733285
  0
ARC
  5
AE
  8
0
 62
     7
 10
83.105893000000009
 20
155.334012
 30
0.0
 40
1.3106679999999991
 50
206.957234
 51
228.23469299999999
  0
ARC
  5
AF
  8
0
 62
     7
 10
82.815102999999993
 20
155.175118
 30
0.0
 40
0.9794920000000001
 50
180.57285399999989
 51
206.383554
  0
ARC
  5
B0
  8
0
 62
     7
 10
82.797914999999989
 20
155.15965299999991
 30
0.0
 40
0.9622719999999999
 50
153.38139599999991
 51
179.66219699999991
  0
ARC
  5
B1
  8
0
 62
     7
 10
83.075893000000008
 20
155.0205959999999
 30
0.0
 40
1.2730909999999991
 50
131.46607399999991
 51
153.39173999999991
  0
ARC
  5
B2
  8
0
 62
     7
 10
83.501981000000001
 20
154.55848700000001
 30
0.0
 40
1.9015629999999999
 50
115.1958089999999
 51
131.8665419999999
  0
ARC
  5
B3
  8
0
 62
     7
 10
83.802086000000017
 20
153.944603
 30
0.0
 40
2.5848200000000001
 50
101.8355649999999
 51
115.4222
  0
ARC
  5
B4
  8
0
 62
     7
 10
83.909319999999994
 20
153.50012100000001
 30
0.0
 40
3.0418769999999991
 50
89.903490000000005
 51
102.09531
  0
ARC
  5
B5
  8
0
 62
     7
 10
83.915608999999989
 20
153.46572800000001
 30
0.0
 40
3.0762669999999992
 50
77.973084
 51
90.021687
  0
ARC
  5
B6
  8
0
 62
     7
 10
84.026105999999999
 20
153.94356199999999
 30
0.0
 40
2.585910999999999
 50
64.580660999999992
 51
78.161535000000001
  0
ARC
  5
B7
  8
0
 62
     7
 10
84.304556000000005
 20
154.52527900000001
 30
0.0
 40
1.9409879999999999
 50
48.303913000000001
 51
64.633696
  0
ARC
  5
B8
  8
0
 62
     7
 10
84.728475999999986
 20
155.00199900000001
 30
0.0
 40
1.303046999999999
 50
26.863278000000001
 51
48.278867999999989
  0
ARC
  5
B9
  8
0
 62
     7
 10
85.022836999999996
 20
155.15778499999999
 30
0.0
 40
0.9700760000000001
 50
0.445365
 51
26.511002999999999
  0
ARC
  5
BA
  8
0
 62
     7
 10
85.319928000000004
 20
154.639725
 30
0.0
 40
1.076894
 50
273.96897899999988
 51
356.03103099999993
  0
LINE
  5
BB
  8
0
 62
     7
 10
81.295500000000004
 20
153.56499999999991
 30
0.0
 11
85.394499999999994
 21
153.56499999999991
 31
0.0
  0
ARC
  5
BC
  8
0
 62
     7
 10
85.355879999999999
 20
155.72723599999989
 30
0.0
 40
1.039062999999999
 50
2.1084629999999991
 51
87.871786999999998
  0
LINE
  5
BD
  8
0
 62
     7
 10
86.394199999999984
 20
154.56599999999989
 30
0.0
 11
86.394199999999984
 21
155.7649999999999
 31
0.0
  0
LINE
  5
BE
  8
0
 62
     7
 10
77.194400000000002
 20
156.76599999999999
 30
0.0
 11
85.394499999999994
 21
156.76599999999999
 31
0.0
  0
ARC
  5
BF
  8
0
 62
     7
 10
77.268482999999989
 20
154.63927100000001
 30
0.0
 40
1.076411
 50
183.9465809999999
 51
266.05344899999989
  0
LINE
  5
C0
  8
0
 62
     7
 10
81.295500000000004
 20
153.56499999999991
 30
0.0
 11
77.194400000000002
 21
153.56499999999991
 31
0.0
  0
ARC
  5
C1
  8
0
 62
     7
 10
77.233056999999988
 20
155.72681900000001
 30
0.0
 40
1.039482
 50
92.131343000000001
 51
177.88836000000001
  0
LINE
  5
C2
  8
0
 62
     7
 10
76.194599999999994
 20
154.56599999999989
 30
0.0
 11
76.194599999999994
 21
155.7649999999999
 31
0.0
  0
ARC
  5
C3
  8
0
 62
     7
 10
36.596323999999989
 20
121.201312
 30
0.0
 40
1.1596509999999991
 50
245.054879
 51
269.83590199999992
  0
ARC
  5
C4
  8
0
 62
     7
 10
36.588057999999997
 20
121.623259
 30
0.0
 40
1.171756
 50
72.577914000000007
 51
89.758250999999987
  0
ARC
  5
C5
  8
0
 62
     7
 10
36.842634999999987
 20
121.454386
 30
0.0
 40
1.4975439999999991
 50
181.37945899999991
 51
240.58926899999989
  0
ARC
  5
C6
  8
0
 62
     7
 10
36.819564
 20
121.42433799999991
 30
0.0
 40
1.474051
 50
146.93217799999999
 51
180.23336
  0
ARC
  5
C7
  8
0
 62
     7
 10
36.619700000000002
 20
121.56598
 30
0.0
 40
1.229314
 50
91.244435999999993
 51
147.3818159999999
  0
ARC
  5
C8
  8
0
 62
     7
 10
36.577409000000003
 20
121.2572959999999
 30
0.0
 40
1.2157299999999991
 50
270.734892
 51
287.28077400000001
  0
LINE
  5
C9
  8
0
 62
     7
 10
44.538800000000002
 20
137.93700000000001
 30
0.0
 11
44.538800000000002
 21
153.56499999999991
 31
0.0
  0
LINE
  5
CA
  8
0
 62
     7
 10
36.93889999999999
 20
137.93700000000001
 30
0.0
 11
36.93889999999999
 21
153.56499999999991
 31
0.0
  0
ARC
  5
CB
  8
0
 62
     7
 10
39.234155999999999
 20
155.14779300000001
 30
0.0
 40
0.895678
 50
149.20877300000001
 51
178.90039899999991
  0
ARC
  5
CC
  8
0
 62
     7
 10
39.712628000000002
 20
154.81433699999999
 30
0.0
 40
1.477986
 50
125.679666
 51
147.599132
  0
ARC
  5
CD
  8
0
 62
     7
 10
40.347028000000002
 20
153.87023300000001
 30
0.0
 40
2.615127999999999
 50
108.4606159999999
 51
124.90548799999991
  0
ARC
  5
CE
  8
0
 62
     7
 10
40.744157000000001
 20
152.51367400000001
 30
0.0
 40
4.0279790000000002
 50
90.075387000000006
 51
107.7086139999999
  0
ARC
  5
CF
  8
0
 62
     7
 10
40.765884
 20
152.6936
 30
0.0
 40
3.8481469999999991
 50
74.731243000000006
 51
90.407544999999999
  0
ARC
  5
D0
  8
0
 62
     7
 10
41.101653999999989
 20
153.80578899999989
 30
0.0
 40
2.6869730000000001
 50
58.742941000000002
 51
75.392842999999999
  0
ARC
  5
D1
  8
0
 62
     7
 10
41.710042999999992
 20
154.75617099999999
 30
0.0
 40
1.5590930000000001
 50
38.717708999999992
 51
59.733311999999998
  0
ARC
  5
D2
  8
0
 62
     7
 10
42.25586599999999
 20
155.15747400000001
 30
0.0
 40
0.882891
 50
0.4871710000000001
 51
40.571466999999991
  0
ARC
  5
D3
  8
0
 62
     7
 10
42.243211000000002
 20
155.1821689999999
 30
0.0
 40
0.895678
 50
329.20879300000001
 51
358.900419
  0
ARC
  5
D4
  8
0
 62
     7
 10
41.76411199999999
 20
155.5162169999999
 30
0.0
 40
1.4788339999999991
 50
305.68604599999998
 51
327.59279199999992
  0
ARC
  5
D5
  8
0
 62
     7
 10
41.132432999999992
 20
156.4555639999999
 30
0.0
 40
2.6105149999999999
 50
288.44600400000002
 51
304.92014
  0
ARC
  5
D6
  8
0
 62
     7
 10
40.710822999999991
 20
157.63170699999989
 30
0.0
 40
3.8431499999999992
 50
254.72114500000001
 51
270.41281700000002
  0
ARC
  5
D7
  8
0
 62
     7
 10
40.36571
 20
156.5026419999999
 30
0.0
 40
2.6631979999999991
 50
238.692937
 51
255.48962299999999
  0
ARC
  5
D8
  8
0
 62
     7
 10
39.773608000000003
 20
155.582212
 30
0.0
 40
1.5695330000000001
 50
218.80622500000001
 51
239.69015399999989
  0
ARC
  5
D9
  8
0
 62
     7
 10
39.221641999999989
 20
155.172481
 30
0.0
 40
0.8830309999999998
 50
180.486694
 51
220.53373999999991
  0
ARC
  5
DA
  8
0
 62
     7
 10
44.887410000000003
 20
154.94860600000001
 30
0.0
 40
1.1599539999999999
 50
245.05816699999991
 51
269.83261499999992
  0
ARC
  5
DB
  8
0
 62
     7
 10
45.13239699999999
 20
155.2010379999999
 30
0.0
 40
1.4966319999999991
 50
181.3805119999999
 51
240.62482900000001
  0
ARC
  5
DC
  8
0
 62
     7
 10
45.107393999999999
 20
155.17129800000001
 30
0.0
 40
1.4712080000000001
 50
146.87466099999989
 51
180.2460529999999
  0
ARC
  5
DD
  8
0
 62
     7
 10
44.910719
 20
155.31262599999991
 30
0.0
 40
1.229314
 50
91.244435999999993
 51
147.3818159999999
  0
ARC
  5
DE
  8
0
 62
     7
 10
44.880860999999989
 20
155.38272799999999
 30
0.0
 40
1.1589259999999999
 50
65.046984999999992
 51
89.843756999999997
  0
ARC
  5
DF
  8
0
 62
     7
 10
44.635406000000003
 20
155.1295409999999
 30
0.0
 40
1.4965120000000001
 50
1.3569850000000001
 51
60.611704000000003
  0
ARC
  5
E0
  8
0
 62
     7
 10
44.658486000000003
 20
155.15865699999989
 30
0.0
 40
1.473015999999999
 50
326.92085100000003
 51
359.87075199999998
  0
ARC
  5
E1
  8
0
 62
     7
 10
44.858685999999992
 20
155.01565500000001
 30
0.0
 40
1.22726
 50
271.18287700000002
 51
327.41365500000001
  0
ARC
  5
E2
  8
0
 62
     7
 10
45.16433
 20
154.63937999999999
 30
0.0
 40
1.076894
 50
273.96897899999988
 51
356.03103099999993
  0
LINE
  5
E3
  8
0
 62
     7
 10
40.738900000000001
 20
153.56499999999991
 30
0.0
 11
45.238900000000001
 21
153.56499999999991
 31
0.0
  0
ARC
  5
E4
  8
0
 62
     7
 10
45.200282000000001
 20
155.72689199999999
 30
0.0
 40
1.039062999999999
 50
2.1084629999999991
 51
87.871786999999998
  0
LINE
  5
E5
  8
0
 62
     7
 10
46.238599999999991
 20
154.565
 30
0.0
 11
46.238599999999991
 21
155.7649999999999
 31
0.0
  0
LINE
  5
E6
  8
0
 62
     7
 10
36.238799999999991
 20
156.7649999999999
 30
0.0
 11
45.238900000000001
 21
156.7649999999999
 31
0.0
  0
ARC
  5
E7
  8
0
 62
     7
 10
36.596139000000001
 20
154.94437400000001
 30
0.0
 40
1.1557209999999991
 50
245.011976
 51
269.86155000000002
  0
ARC
  5
E8
  8
0
 62
     7
 10
36.842067
 20
155.2010379999999
 30
0.0
 40
1.4966319999999991
 50
181.3805119999999
 51
240.62482900000001
  0
ARC
  5
E9
  8
0
 62
     7
 10
36.817064000000002
 20
155.17129800000001
 30
0.0
 40
1.4712080000000001
 50
146.87466099999989
 51
180.2460529999999
  0
ARC
  5
EA
  8
0
 62
     7
 10
36.618685999999997
 20
155.315675
 30
0.0
 40
1.226237
 50
91.184044000000014
 51
147.45892000000001
  0
ARC
  5
EB
  8
0
 62
     7
 10
36.589025999999997
 20
155.37637000000001
 30
0.0
 40
1.165287999999999
 50
64.361669999999989
 51
89.787544999999994
  0
ARC
  5
EC
  8
0
 62
     7
 10
36.344276000000001
 20
155.13041499999991
 30
0.0
 40
1.497290999999999
 50
1.3228109999999991
 51
59.986235000000001
  0
ARC
  5
ED
  8
0
 62
     7
 10
36.368147
 20
155.158659
 30
0.0
 40
1.473023999999999
 50
326.92099000000002
 51
359.8841109999999
  0
ARC
  5
EE
  8
0
 62
     7
 10
36.56803699999999
 20
155.01561000000001
 30
0.0
 40
1.227214
 50
271.18175099999991
 51
327.414781
  0
ARC
  5
EF
  8
0
 62
     7
 10
36.313445999999999
 20
154.63981399999989
 30
0.0
 40
1.077331
 50
183.99049899999989
 51
266.02926999999988
  0
LINE
  5
F0
  8
0
 62
     7
 10
40.738900000000001
 20
153.56499999999991
 30
0.0
 11
36.238799999999991
 21
153.56499999999991
 31
0.0
  0
ARC
  5
F1
  8
0
 62
     7
 10
36.239015999999992
 20
155.764948
 30
0.0
 40
1.000289999999999
 50
90.009867000000014
 51
180.0098769999999
  0
LINE
  5
F2
  8
0
 62
     7
 10
35.238700000000001
 20
154.565
 30
0.0
 11
35.238700000000001
 21
155.7649999999999
 31
0.0
  0
ARC
  5
F3
  8
0
 62
     7
 10
39.234124000000001
 20
136.3202499999999
 30
0.0
 40
0.8956389999999999
 50
149.208946
 51
178.92383799999999
  0
ARC
  5
F4
  8
0
 62
     7
 10
39.712628000000002
 20
135.986771
 30
0.0
 40
1.477986
 50
125.679666
 51
147.599132
  0
ARC
  5
F5
  8
0
 62
     7
 10
40.347028000000002
 20
135.04232300000001
 30
0.0
 40
2.615127999999999
 50
108.4606159999999
 51
124.90548799999991
  0
ARC
  5
F6
  8
0
 62
     7
 10
40.739674999999998
 20
133.71441200000001
 30
0.0
 40
3.9993269999999992
 50
90.011714999999995
 51
107.77228599999999
  0
ARC
  5
F7
  8
0
 62
     7
 10
40.765884
 20
133.86568999999989
 30
0.0
 40
3.8481469999999991
 50
74.731243000000006
 51
90.407544999999999
  0
ARC
  5
F8
  8
0
 62
     7
 10
41.101653999999989
 20
134.977878
 30
0.0
 40
2.6869730000000001
 50
58.742941000000002
 51
75.392842999999999
  0
ARC
  5
F9
  8
0
 62
     7
 10
41.715741999999999
 20
135.93486799999991
 30
0.0
 40
1.5505139999999991
 50
38.658903000000002
 51
59.792118000000002
  0
ARC
  5
FA
  8
0
 62
     7
 10
42.256825999999997
 20
136.32957400000001
 30
0.0
 40
0.8819299999999998
 50
0.4870070000000001
 51
40.594521999999991
  0
ARC
  5
FB
  8
0
 62
     7
 10
42.246969
 20
136.35318499999991
 30
0.0
 40
0.8919020000000001
 50
329.144474
 51
358.96473800000001
  0
ARC
  5
FC
  8
0
 62
     7
 10
41.770169000000003
 20
136.68359699999991
 30
0.0
 40
1.471196999999999
 50
305.60931899999991
 51
327.62126699999999
  0
ARC
  5
FD
  8
0
 62
     7
 10
41.134818000000003
 20
137.62071900000001
 30
0.0
 40
2.603181999999999
 50
288.44449199999991
 51
304.96879899999999
  0
ARC
  5
FE
  8
0
 62
     7
 10
40.738031999999997
 20
138.9647939999999
 30
0.0
 40
4.0040480000000001
 50
270.01181000000003
 51
287.74557599999991
  0
ARC
  5
FF
  8
0
 62
     7
 10
40.710822999999991
 20
138.803797
 30
0.0
 40
3.8431499999999992
 50
254.72114500000001
 51
270.41281700000002
  0
ARC
  5
100
  8
0
 62
     7
 10
40.374706000000003
 20
137.696021
 30
0.0
 40
2.686064
 50
238.76494099999999
 51
255.417619
  0
ARC
  5
101
  8
0
 62
     7
 10
39.773608000000003
 20
136.754301
 30
0.0
 40
1.5695330000000001
 50
218.80622500000001
 51
239.69015399999989
  0
ARC
  5
102
  8
0
 62
     7
 10
39.221641999999989
 20
136.344571
 30
0.0
 40
0.8830309999999998
 50
180.486694
 51
220.53373999999991
  0
ARC
  5
103
  8
0
 62
     7
 10
44.885522999999999
 20
136.11222000000001
 30
0.0
 40
1.151475
 50
244.965484
 51
269.92529699999989
  0
ARC
  5
104
  8
0
 62
     7
 10
45.13456699999999
 20
136.37443099999999
 30
0.0
 40
1.4988319999999991
 50
181.428336
 51
240.57700399999999
  0
ARC
  5
105
  8
0
 62
     7
 10
45.105288000000002
 20
136.344009
 30
0.0
 40
1.469104999999999
 50
146.85007400000001
 51
180.2706399999999
  0
ARC
  5
106
  8
0
 62
     7
 10
44.910719
 20
136.48471499999991
 30
0.0
 40
1.229314
 50
91.244435999999993
 51
147.3818159999999
  0
ARC
  5
107
  8
0
 62
     7
 10
44.880860999999989
 20
136.5548179999999
 30
0.0
 40
1.1589259999999999
 50
65.046984999999992
 51
89.843756999999997
  0
ARC
  5
108
  8
0
 62
     7
 10
44.635406000000003
 20
136.30163099999999
 30
0.0
 40
1.4965120000000001
 50
1.3569850000000001
 51
60.611704000000003
  0
ARC
  5
109
  8
0
 62
     7
 10
44.658486000000003
 20
136.330747
 30
0.0
 40
1.473015999999999
 50
326.92085100000003
 51
359.87075199999998
  0
ARC
  5
10A
  8
0
 62
     7
 10
44.858685999999992
 20
136.1877439999999
 30
0.0
 40
1.22726
 50
271.18287700000002
 51
327.41365500000001
  0
ARC
  5
10B
  8
0
 62
     7
 10
45.200243999999991
 20
135.77555599999991
 30
0.0
 40
1.039115999999999
 50
272.13022399999988
 51
357.86978599999992
  0
LINE
  5
10C
  8
0
 62
     7
 10
40.738900000000001
 20
134.73699999999991
 30
0.0
 11
45.238900000000001
 21
134.73699999999991
 31
0.0
  0
ARC
  5
10D
  8
0
 62
     7
 10
45.200282000000001
 20
136.89898199999999
 30
0.0
 40
1.039062999999999
 50
2.1084629999999991
 51
87.871786999999998
  0
LINE
  5
10E
  8
0
 62
     7
 10
46.238599999999991
 20
135.73699999999991
 30
0.0
 11
46.238599999999991
 21
136.93700000000001
 31
0.0
  0
LINE
  5
10F
  8
0
 62
     7
 10
36.238799999999991
 20
137.93700000000001
 30
0.0
 11
45.238900000000001
 21
137.93700000000001
 31
0.0
  0
ARC
  5
110
  8
0
 62
     7
 10
36.594260999999989
 20
136.10803399999989
 30
0.0
 40
1.147287999999999
 50
244.91917699999999
 51
269.95434899999998
  0
ARC
  5
111
  8
0
 62
     7
 10
36.842110999999989
 20
136.373154
 30
0.0
 40
1.4966759999999999
 50
181.381483
 51
240.62385800000001
  0
ARC
  5
112
  8
0
 62
     7
 10
36.814957999999997
 20
136.344009
 30
0.0
 40
1.469104999999999
 50
146.85007400000001
 51
180.2706399999999
  0
ARC
  5
113
  8
0
 62
     7
 10
36.620376
 20
136.48473899999991
 30
0.0
 40
1.2292899999999991
 50
91.243838999999994
 51
147.3824129999999
  0
ARC
  5
114
  8
0
 62
     7
 10
36.589025999999997
 20
136.54845900000001
 30
0.0
 40
1.165287999999999
 50
64.361669999999989
 51
89.787544999999994
  0
ARC
  5
115
  8
0
 62
     7
 10
36.344276000000001
 20
136.302505
 30
0.0
 40
1.497290999999999
 50
1.3228109999999991
 51
59.986235000000001
  0
ARC
  5
116
  8
0
 62
     7
 10
36.371056000000003
 20
136.330411
 30
0.0
 40
1.4701150000000001
 50
326.86280899999991
 51
359.89703100000003
  0
ARC
  5
117
  8
0
 62
     7
 10
36.56803699999999
 20
136.18770000000001
 30
0.0
 40
1.227214
 50
271.18175099999991
 51
327.414781
  0
ARC
  5
118
  8
0
 62
     7
 10
36.276747999999991
 20
135.775193
 30
0.0
 40
1.038726
 50
182.11099300000001
 51
267.90877699999987
  0
LINE
  5
119
  8
0
 62
     7
 10
40.738900000000001
 20
134.73699999999991
 30
0.0
 11
36.238799999999991
 21
134.73699999999991
 31
0.0
  0
ARC
  5
11A
  8
0
 62
     7
 10
36.238844
 20
136.93720999999999
 30
0.0
 40
1.0001180000000001
 50
90.0
 51
179.99996999999991
  0
LINE
  5
11B
  8
0
 62
     7
 10
35.238700000000001
 20
135.73699999999991
 30
0.0
 11
35.238700000000001
 21
136.93700000000001
 31
0.0
  0
LINE
  5
11C
  8
0
 62
     7
 10
40.738900000000001
 20
134.53700000000001
 30
0.0
 11
45.238900000000001
 21
134.53700000000001
 31
0.0
  0
LINE
  5
11D
  8
0
 62
     7
 10
40.738900000000001
 20
134.53700000000001
 30
0.0
 11
36.238799999999991
 21
134.53700000000001
 31
0.0
  0
LINE
  5
11E
  8
0
 62
     7
 10
36.238799999999991
 20
134.73699999999991
 30
0.0
 11
36.238799999999991
 21
134.53700000000001
 31
0.0
  0
LINE
  5
11F
  8
0
 62
     7
 10
45.238900000000001
 20
134.73699999999991
 30
0.0
 11
45.238900000000001
 21
134.53700000000001
 31
0.0
  0
LINE
  5
120
  8
0
 62
     7
 10
44.440300000000001
 20
126.53700000000001
 30
0.0
 11
37.118400000000001
 21
126.53700000000001
 31
0.0
  0
LINE
  5
121
  8
0
 62
     7
 10
36.688800000000001
 20
134.53700000000001
 30
0.0
 11
36.688800000000001
 21
126.53700000000001
 31
0.0
  0
LINE
  5
122
  8
0
 62
     7
 10
44.788899999999991
 20
134.53700000000001
 30
0.0
 11
44.788899999999991
 21
126.53700000000001
 31
0.0
  0
LINE
  5
123
  8
0
 62
     7
 10
44.788899999999991
 20
126.53700000000001
 30
0.0
 11
44.538800000000002
 21
126.28700000000001
 31
0.0
  0
LINE
  5
124
  8
0
 62
     7
 10
36.688800000000001
 20
126.53700000000001
 30
0.0
 11
36.93889999999999
 21
126.28700000000001
 31
0.0
  0
LINE
  5
125
  8
0
 62
     7
 10
44.538800000000002
 20
110.1639999999999
 30
0.0
 11
44.538800000000002
 21
126.28700000000001
 31
0.0
  0
ARC
  5
126
  8
0
 62
     7
 10
44.88589799999999
 20
121.1985
 30
0.0
 40
1.1568359999999991
 50
252.52315999999999
 51
269.89001799999988
  0
ARC
  5
127
  8
0
 62
     7
 10
44.897978000000002
 20
121.584774
 30
0.0
 40
1.210313999999999
 50
90.677018000000004
 51
107.26233499999989
  0
ARC
  5
128
  8
0
 62
     7
 10
44.880634000000001
 20
121.63992399999989
 30
0.0
 40
1.1550839999999989
 50
64.207883999999993
 51
89.849043999999992
  0
ARC
  5
129
  8
0
 62
     7
 10
44.635212000000003
 20
121.3837739999999
 30
0.0
 40
1.496685
 50
1.3231580000000001
 51
59.999611999999999
  0
ARC
  5
12A
  8
0
 62
     7
 10
44.661385999999993
 20
121.41133000000001
 30
0.0
 40
1.4701150000000001
 50
326.86280899999991
 51
359.89703100000003
  0
ARC
  5
12B
  8
0
 62
     7
 10
44.858367000000001
 20
121.268619
 30
0.0
 40
1.227214
 50
271.18175099999991
 51
327.414781
  0
ARC
  5
12C
  8
0
 62
     7
 10
45.199899000000002
 20
120.8568199999999
 30
0.0
 40
1.039115999999999
 50
272.13022399999988
 51
357.86978599999992
  0
ARC
  5
12D
  8
0
 62
     7
 10
45.200285999999991
 20
121.980237
 30
0.0
 40
1.0387150000000001
 50
2.1096710000000001
 51
87.890318999999991
  0
LINE
  5
12E
  8
0
 62
     7
 10
46.238599999999991
 20
120.819
 30
0.0
 11
46.238599999999991
 21
122.0179999999999
 31
0.0
  0
LINE
  5
12F
  8
0
 62
     7
 10
44.538800000000002
 20
123.0179999999999
 30
0.0
 11
45.238500000000002
 21
123.0179999999999
 31
0.0
  0
ARC
  5
130
  8
0
 62
     7
 10
36.276392000000001
 20
120.856433
 30
0.0
 40
1.038713999999999
 50
182.10967400000001
 51
267.890356
  0
ARC
  5
131
  8
0
 62
     7
 10
36.276789999999998
 20
121.9798389999999
 30
0.0
 40
1.0391259999999991
 50
92.130750999999989
 51
177.8692189999999
  0
LINE
  5
132
  8
0
 62
     7
 10
35.238399999999992
 20
120.819
 30
0.0
 11
35.238399999999992
 21
122.0179999999999
 31
0.0
  0
ARC
  5
133
  8
0
 62
     7
 10
44.953657999999997
 20
119.40325300000001
 30
0.0
 40
0.415448
 50
92.097318000000001
 51
177.95198099999999
  0
LINE
  5
134
  8
0
 62
     7
 10
44.538800000000002
 20
118.565
 30
0.0
 11
44.538800000000002
 21
119.41800000000001
 31
0.0
  0
LINE
  5
135
  8
0
 62
     7
 10
44.938499999999998
 20
119.818
 30
0.0
 11
45.238500000000002
 21
119.818
 31
0.0
  0
ARC
  5
136
  8
0
 62
     7
 10
36.508961999999997
 20
119.3934009999999
 30
0.0
 40
0.430295
 50
3.2905649999999991
 51
81.020756000000006
  0
LINE
  5
137
  8
0
 62
     7
 10
36.575800000000001
 20
119.818
 30
0.0
 11
36.238500000000002
 21
119.818
 31
0.0
  0
LINE
  5
138
  8
0
 62
     7
 10
36.93889999999999
 20
110.1639999999999
 30
0.0
 11
36.93889999999999
 21
126.28700000000001
 31
0.0
  0
LINE
  5
139
  8
0
 62
     7
 10
44.538800000000002
 20
119.818
 30
0.0
 11
44.938499999999998
 21
119.818
 31
0.0
  0
LINE
  5
13A
  8
0
 62
     7
 10
36.575800000000001
 20
119.818
 30
0.0
 11
36.93889999999999
 21
119.818
 31
0.0
  0
ARC
  5
13B
  8
0
 62
     7
 10
40.738031999999997
 20
157.79270399999999
 30
0.0
 40
4.0040480000000001
 50
270.01181000000003
 51
287.74557599999991
  0
LINE
  5
13C
  8
0
 62
     7
 10
84.912800000000004
 20
195.00899999999999
 30
0.0
 11
94.476100000000002
 21
195.00899999999999
 31
0.0
  0
LINE
  5
13D
  8
0
 62
     7
 10
84.912800000000004
 20
187.41
 30
0.0
 11
94.476100000000002
 21
187.41
 31
0.0
  0
LINE
  5
13E
  8
0
  6
AIGENLINE001
 62
     7
 10
98.0959
 20
185.297
 30
0.0
 11
98.0959
 21
197.11500000000001
 31
0.0
  0
ARC
  5
13F
  8
0
 62
     7
 10
98.094378000000006
 20
191.20968899999991
 30
0.0
 40
3.7999469999999991
 50
89.488369999999989
 51
179.488257
  0
ARC
  5
140
  8
0
 62
     7
 10
98.095033000000015
 20
191.21000099999989
 30
0.0
 40
3.8005989999999992
 50
179.4930469999999
 51
269.48369200000002
  0
LINE
  5
141
  8
0
 62
     7
 10
98.060800000000015
 20
187.41
 30
0.0
 11
98.094499999999996
 21
187.41
 31
0.0
  0
ARC
  5
142
  8
0
 62
     7
 10
98.094334000000003
 20
191.209948
 30
0.0
 40
4.6998300000000004
 50
53.958196999999998
 51
143.96264099999991
  0
ARC
  5
143
  8
0
 62
     7
 10
98.094982000000002
 20
191.20978799999989
 30
0.0
 40
4.7004469999999996
 50
143.9657159999999
 51
233.95514199999991
  0
ARC
  5
144
  8
0
 62
     7
 10
98.107934999999998
 20
191.25144199999991
 30
0.0
 40
4.7417699999999989
 50
234.12474499999999
 51
269.83822900000001
  0
ARC
  5
145
  8
0
 62
     7
 10
98.081046000000001
 20
191.25203500000001
 30
0.0
 40
4.7423619999999991
 50
270.163115
 51
305.88716699999992
  0
LINE
  5
146
  8
0
 62
     7
 10
92.994399999999999
 20
192.69900000000001
 30
0.0
 11
92.994399999999999
 21
189.71999999999991
 31
0.0
  0
LINE
  5
147
  8
0
 62
     7
 10
94.254599999999996
 20
187.5379999999999
 30
0.0
 11
96.834300000000013
 21
186.048
 31
0.0
  0
ARC
  5
148
  8
0
 62
     7
 10
95.56451899999999
 20
189.74917500000001
 30
0.0
 40
2.5702910000000001
 50
180.65370300000001
 51
239.360758
  0
LINE
  5
149
  8
0
 62
     7
 10
94.254599999999996
 20
194.88199999999989
 30
0.0
 11
96.834300000000013
 21
196.3709999999999
 31
0.0
  0
ARC
  5
14A
  8
0
 62
     7
 10
95.564282999999975
 20
192.67035100000001
 30
0.0
 40
2.5700500000000002
 50
120.6363139999999
 51
179.35705999999999
  0
LINE
  5
14B
  8
0
 62
     7
 10
99.354399999999984
 20
196.3709999999999
 30
0.0
 11
101.71299999999989
 21
195.00899999999999
 31
0.0
  0
ARC
  5
14C
  8
0
 62
     7
 10
98.094374000000002
 20
194.12933199999989
 30
0.0
 40
2.5715330000000001
 50
60.659403000000012
 51
119.340577
  0
LINE
  5
14D
  8
0
 62
     7
 10
99.354399999999984
 20
186.048
 30
0.0
 11
101.71299999999989
 21
187.41
 31
0.0
  0
ARC
  5
14E
  8
0
 62
     7
 10
98.097640000000013
 20
188.242772
 30
0.0
 40
2.5323489999999991
 50
240.0746299999999
 51
269.93001600000002
  0
ARC
  5
14F
  8
0
 62
     7
 10
98.090745999999996
 20
188.24412000000001
 30
0.0
 40
2.5336989999999999
 50
270.08595000000003
 51
299.91727700000001
  0
LINE
  5
150
  8
0
  6
AIGENLINE001
 62
     7
 10
81.295500000000004
 20
118.565
 30
0.0
 11
81.295500000000004
 21
158.90199999999999
 31
0.0
  0
ARC
  5
151
  8
0
 62
     7
 10
89.696038999999999
 20
118.564745
 30
0.0
 40
4.5999210000000001
 50
270.00002000000001
 51
359.99998999999991
  0
ARC
  5
152
  8
0
 62
     7
 10
89.695695999999984
 20
118.5650889999999
 30
0.0
 40
4.6002660000000004
 50
180.00432000000001
 51
270.00429100000002
  0
ARC
  5
153
  8
0
 62
     7
 10
89.696037000000004
 20
118.564402
 30
0.0
 40
12.19985099999999
 50
270.00002000000001
 51
359.99998999999991
  0
ARC
  5
154
  8
0
 62
     7
 10
89.696037000000004
 20
118.564742
 30
0.0
 40
12.200191999999999
 50
179.99996999999991
 51
270.00002000000001
  0
LINE
  5
155
  8
0
 62
     7
 10
150.09700000000001
 20
198.40899999999999
 30
0.0
 11
150.09700000000001
 21
184.00899999999999
 31
0.0
  0
LINE
  5
156
  8
0
 62
     7
 10
158.09700000000001
 20
195.00899999999999
 30
0.0
 11
158.09700000000001
 21
187.40899999999999
 31
0.0
  0
LINE
  5
157
  8
0
  6
AIGENLINE001
 62
     7
 10
161.57299999999989
 20
191.209
 30
0.0
 11
75.156800000000004
 21
191.244
 31
0.0
  0
LINE
  5
158
  8
0
 62
     7
 10
158.09700000000001
 20
195.00899999999999
 30
0.0
 11
150.09700000000001
 21
195.00899999999999
 31
0.0
  0
LINE
  5
159
  8
0
 62
     7
 10
146.89699999999999
 20
195.00899999999999
 30
0.0
 11
98.128299999999996
 21
195.00899999999999
 31
0.0
  0
LINE
  5
15A
  8
0
 62
     7
 10
158.09700000000001
 20
187.40899999999999
 30
0.0
 11
150.09700000000001
 21
187.40899999999999
 31
0.0
  0
LINE
  5
15B
  8
0
 62
     7
 10
146.89699999999999
 20
187.40899999999999
 30
0.0
 11
98.060800000000015
 21
187.41
 31
0.0
  0
ARC
  5
15C
  8
0
 62
     7
 10
148.9738449999999
 20
196.33198100000001
 30
0.0
 40
2.0785809999999998
 50
92.129986999999986
 51
177.86998299999999
  0
LINE
  5
15D
  8
0
 62
     7
 10
150.09700000000001
 20
198.40899999999999
 30
0.0
 11
148.89699999999999
 21
198.40899999999999
 31
0.0
  0
ARC
  5
15E
  8
0
 62
     7
 10
148.97273100000001
 20
186.08527000000001
 30
0.0
 40
2.077440999999999
 50
182.11033399999999
 51
267.89956699999999
  0
LINE
  5
15F
  8
0
 62
     7
 10
150.09700000000001
 20
184.00899999999999
 30
0.0
 11
148.89699999999999
 21
184.00899999999999
 31
0.0
  0
LINE
  5
160
  8
0
 62
     7
 10
146.89699999999999
 20
196.40899999999999
 30
0.0
 11
146.89699999999999
 21
186.00899999999999
 31
0.0
  0
LINE
  5
161
  8
0
 62
     7
 10
150.09700000000001
 20
139.56399999999999
 30
0.0
 11
150.09700000000001
 21
125.16500000000001
 31
0.0
  0
LINE
  5
162
  8
0
 62
     7
 10
158.09700000000001
 20
136.16499999999999
 30
0.0
 11
158.09700000000001
 21
128.56499999999991
 31
0.0
  0
LINE
  5
163
  8
0
  6
AIGENLINE001
 62
     7
 10
49.94769999999999
 20
132.36500000000001
 30
0.0
 11
31.535900000000002
 21
132.36500000000001
 31
0.0
  0
LINE
  5
164
  8
0
  6
AIGENLINE001
 62
     7
 10
161.57299999999989
 20
132.36500000000001
 30
0.0
 11
106.496
 21
132.36500000000001
 31
0.0
  0
LINE
  5
165
  8
0
  6
AIGENLINE001
 62
     7
 10
98.096299999999999
 20
118.565
 30
0.0
 11
98.096299999999999
 21
123.965
 31
0.0
  0
ARC
  5
166
  8
0
  6
AIGENLINE001
 62
     7
 10
89.695866000000009
 20
118.564573
 30
0.0
 40
8.4000589999999988
 50
270.00119499999988
 51
0.001165
  0
ARC
  5
167
  8
0
  6
AIGENLINE001
 62
     7
 10
89.695866000000009
 20
118.5649149999999
 30
0.0
 40
8.4003999999999994
 50
180.00118499999999
 51
270.00119499999988
  0
ARC
  5
168
  8
0
  6
AIGENLINE001
 62
     7
 10
106.496155
 20
123.9649639999999
 30
0.0
 40
8.3998860000000004
 50
90.002349999999993
 51
180.00236000000001
  0
LINE
  5
169
  8
0
 62
     7
 10
85.095399999999984
 20
137.93700000000001
 30
0.0
 11
85.095399999999984
 21
153.56499999999991
 31
0.0
  0
LINE
  5
16A
  8
0
 62
     7
 10
77.495800000000003
 20
137.93700000000001
 30
0.0
 11
77.495800000000003
 21
153.56499999999991
 31
0.0
  0
LINE
  5
16B
  8
0
 62
     7
 10
158.09700000000001
 20
136.16499999999999
 30
0.0
 11
150.09700000000001
 21
136.16499999999999
 31
0.0
  0
LINE
  5
16C
  8
0
 62
     7
 10
146.89699999999999
 20
136.16499999999999
 30
0.0
 11
106.496
 21
136.16499999999999
 31
0.0
  0
LINE
  5
16D
  8
0
 62
     7
 10
158.09700000000001
 20
128.56499999999991
 30
0.0
 11
150.09700000000001
 21
128.56499999999991
 31
0.0
  0
LINE
  5
16E
  8
0
 62
     7
 10
146.89699999999999
 20
128.56499999999991
 30
0.0
 11
106.496
 21
128.56499999999991
 31
0.0
  0
ARC
  5
16F
  8
0
 62
     7
 10
106.67133200000001
 20
123.78909899999989
 30
0.0
 40
4.7786669999999987
 50
92.104958000000025
 51
177.89501200000001
  0
ARC
  5
170
  8
0
 62
     7
 10
106.49598399999989
 20
123.96479099999991
 30
0.0
 40
12.200024000000001
 50
90.000809000000004
 51
180.00081899999989
  0
LINE
  5
171
  8
0
 62
     7
 10
81.295500000000004
 20
134.53700000000001
 30
0.0
 11
85.795500000000004
 21
134.53700000000001
 31
0.0
  0
LINE
  5
172
  8
0
 62
     7
 10
81.295500000000004
 20
134.53700000000001
 30
0.0
 11
76.7958
 21
134.53700000000001
 31
0.0
  0
LINE
  5
173
  8
0
 62
     7
 10
76.7958
 20
134.73699999999991
 30
0.0
 11
76.7958
 21
134.53700000000001
 31
0.0
  0
LINE
  5
174
  8
0
 62
     7
 10
85.795500000000004
 20
134.73699999999991
 30
0.0
 11
85.795500000000004
 21
134.53700000000001
 31
0.0
  0
LINE
  5
175
  8
0
 62
     7
 10
84.997200000000007
 20
126.53700000000001
 30
0.0
 11
77.675700000000006
 21
126.53700000000001
 31
0.0
  0
LINE
  5
176
  8
0
 62
     7
 10
77.246099999999998
 20
134.53700000000001
 30
0.0
 11
77.246099999999998
 21
126.53700000000001
 31
0.0
  0
LINE
  5
177
  8
0
 62
     7
 10
85.345500000000015
 20
134.53700000000001
 30
0.0
 11
85.345500000000015
 21
126.53700000000001
 31
0.0
  0
LINE
  5
178
  8
0
 62
     7
 10
85.345500000000015
 20
126.53700000000001
 30
0.0
 11
85.095399999999984
 21
126.28700000000001
 31
0.0
  0
LINE
  5
179
  8
0
 62
     7
 10
77.246099999999998
 20
126.53700000000001
 30
0.0
 11
77.495800000000003
 21
126.28700000000001
 31
0.0
  0
LINE
  5
17A
  8
0
 62
     7
 10
77.495800000000003
 20
118.565
 30
0.0
 11
77.495800000000003
 21
126.288
 31
0.0
  0
LINE
  5
17B
  8
0
 62
     7
 10
85.095399999999984
 20
118.565
 30
0.0
 11
85.095399999999984
 21
126.288
 31
0.0
  0
ARC
  5
17C
  8
0
 62
     7
 10
102.3110659999999
 20
119.40325799999999
 30
0.0
 40
0.415442
 50
92.096645999999993
 51
177.952653
  0
LINE
  5
17D
  8
0
 62
     7
 10
101.896
 20
118.565
 30
0.0
 11
101.896
 21
119.41800000000001
 31
0.0
  0
LINE
  5
17E
  8
0
 62
     7
 10
101.896
 20
123.0179999999999
 30
0.0
 11
101.896
 21
123.965
 31
0.0
  0
ARC
  5
17F
  8
0
 62
     7
 10
93.866375000000005
 20
119.3934009999999
 30
0.0
 40
0.430295
 50
3.2905649999999991
 51
81.020756000000006
  0
LINE
  5
180
  8
0
 62
     7
 10
94.296000000000006
 20
118.565
 30
0.0
 11
94.296000000000006
 21
119.41800000000001
 31
0.0
  0
LINE
  5
181
  8
0
 62
     7
 10
94.296000000000006
 20
123.0179999999999
 30
0.0
 11
94.296000000000006
 21
123.965
 31
0.0
  0
ARC
  5
182
  8
0
 62
     7
 10
148.97306
 20
137.4880959999999
 30
0.0
 40
2.0777679999999989
 50
92.109170999999989
 51
177.89080000000001
  0
LINE
  5
183
  8
0
 62
     7
 10
150.09700000000001
 20
139.56399999999999
 30
0.0
 11
148.89699999999999
 21
139.56399999999999
 31
0.0
  0
ARC
  5
184
  8
0
 62
     7
 10
148.97273100000001
 20
127.2405999999999
 30
0.0
 40
2.077440999999999
 50
182.11033399999999
 51
267.89956699999999
  0
LINE
  5
185
  8
0
 62
     7
 10
150.09700000000001
 20
125.16500000000001
 30
0.0
 11
148.89699999999999
 21
125.16500000000001
 31
0.0
  0
LINE
  5
186
  8
0
 62
     7
 10
146.89699999999999
 20
137.565
 30
0.0
 11
146.89699999999999
 21
127.164
 31
0.0
  0
LINE
  5
187
  8
0
  6
AIGENLINE001
 62
     7
 10
81.295500000000004
 20
185.297
 30
0.0
 11
81.295500000000004
 21
197.11500000000001
 31
0.0
  0
LINE
  5
188
  8
0
  6
AIGENLINE001
 62
     7
 10
40.738900000000001
 20
102.65899999999991
 30
0.0
 11
40.738900000000001
 21
158.3779999999999
 31
0.0
  0
ARC
  5
189
  8
0
 62
     7
 10
81.294258999999997
 20
191.209349
 30
0.0
 40
3.5999759999999998
 50
270.00276099999991
 51
0.002732
  0
ARC
  5
18A
  8
0
 62
     7
 10
81.294258999999997
 20
191.2096919999999
 30
0.0
 40
3.5999759999999998
 50
359.99726800000002
 51
89.997239000000008
  0
ARC
  5
18B
  8
0
 62
     7
 10
81.294432999999998
 20
191.20951999999991
 30
0.0
 40
3.6001479999999999
 50
90.0
 51
179.99996999999991
  0
ARC
  5
18C
  8
0
 62
     7
 10
81.294431000000003
 20
191.20951999999991
 30
0.0
 40
3.6001470000000002
 50
179.99996999999991
 51
270.00002000000001
  0
ARC
  5
18D
  8
0
 62
     7
 10
81.294604000000007
 20
191.2096929999999
 30
0.0
 40
4.7000019999999987
 50
269.99792000000002
 51
359.99788999999993
  0
ARC
  5
18E
  8
0
 62
     7
 10
81.294431000000003
 20
191.20951999999991
 30
0.0
 40
4.7001739999999987
 50
0.00001
 51
89.999980000000008
  0
ARC
  5
18F
  8
0
 62
     7
 10
81.294432999999998
 20
191.20951999999991
 30
0.0
 40
4.7001739999999987
 50
90.0
 51
179.99996999999991
  0
ARC
  5
190
  8
0
 62
     7
 10
81.294258999999997
 20
191.2096919999999
 30
0.0
 40
4.7000000000000002
 50
180.00210999999999
 51
270.00211999999999
  0
LINE
  5
191
  8
0
 62
     7
 10
76.194299999999998
 20
192.69900000000001
 30
0.0
 11
76.194299999999998
 21
189.71999999999991
 31
0.0
  0
LINE
  5
192
  8
0
 62
     7
 10
77.4542
 20
187.5379999999999
 30
0.0
 11
80.034199999999998
 21
186.048
 31
0.0
  0
ARC
  5
193
  8
0
 62
     7
 10
78.764405000000011
 20
189.74917500000001
 30
0.0
 40
2.5702910000000001
 50
180.65370300000001
 51
239.360758
  0
LINE
  5
194
  8
0
 62
     7
 10
77.4542
 20
194.88199999999989
 30
0.0
 11
80.034599999999998
 21
196.3709999999999
 31
0.0
  0
ARC
  5
195
  8
0
 62
     7
 10
78.764168000000012
 20
192.67035100000001
 30
0.0
 40
2.5700500000000002
 50
120.6363139999999
 51
179.35705999999999
  0
LINE
  5
196
  8
0
 62
     7
 10
82.554299999999998
 20
196.3709999999999
 30
0.0
 11
85.134400000000014
 21
194.88199999999989
 31
0.0
  0
ARC
  5
197
  8
0
 62
     7
 10
81.294432
 20
194.129019
 30
0.0
 40
2.5717219999999998
 50
60.666166000000011
 51
119.333814
  0
LINE
  5
198
  8
0
 62
     7
 10
86.394199999999984
 20
192.69900000000001
 30
0.0
 11
86.394199999999984
 21
189.71999999999991
 31
0.0
  0
ARC
  5
199
  8
0
 62
     7
 10
83.823215000000005
 20
192.66990200000001
 30
0.0
 40
2.5711909999999989
 50
0.6526430000000003
 51
59.340377000000011
  0
LINE
  5
19A
  8
0
 62
     7
 10
82.554299999999998
 20
186.048
 30
0.0
 11
85.134400000000014
 21
187.5379999999999
 31
0.0
  0
ARC
  5
19B
  8
0
 62
     7
 10
83.823921999999996
 20
189.749075
 30
0.0
 40
2.5704790000000002
 50
300.65070500000002
 51
359.35627399999998
  0
ARC
  5
19C
  8
0
 62
     7
 10
81.297868999999992
 20
188.242763
 30
0.0
 40
2.532341999999999
 50
240.07456400000001
 51
269.92224900000002
  0
ARC
  5
19D
  8
0
 62
     7
 10
81.290621000000002
 20
188.24416099999999
 30
0.0
 40
2.5337389999999989
 50
270.08619299999998
 51
299.917033
  0
ARC
  5
19E
  8
0
 62
     7
 10
81.294258999999997
 20
191.209349
 30
0.0
 40
4.4998409999999991
 50
270.00221299999993
 51
0.002183
  0
ARC
  5
19F
  8
0
 62
     7
 10
81.294258999999997
 20
191.2096919999999
 30
0.0
 40
4.4998409999999991
 50
359.99781699999988
 51
89.997787000000002
  0
ARC
  5
1A0
  8
0
 62
     7
 10
81.294432999999998
 20
191.20951999999991
 30
0.0
 40
4.500013
 50
90.0
 51
179.99996999999991
  0
ARC
  5
1A1
  8
0
 62
     7
 10
81.294431000000003
 20
191.20951999999991
 30
0.0
 40
4.5000109999999989
 50
179.99996999999991
 51
270.00002000000001
  0
ARC
  5
1A2
  8
0
 62
     7
 10
40.738685999999987
 20
110.164345
 30
0.0
 40
3.7999849999999991
 50
179.4260139999999
 51
269.4259689999999
  0
ARC
  5
1A3
  8
0
 62
     7
 10
40.738510999999988
 20
110.16451499999989
 30
0.0
 40
3.800154
 50
269.42863899999998
 51
359.42860999999999
  0
ARC
  5
1A4
  8
0
 62
     7
 10
43.233866999999989
 20
110.1573649999999
 30
0.0
 40
1.304970999999999
 50
358.64993199999992
 51
0.298799
  0
LINE
  5
1A5
  8
0
 62
     7
 10
36.238500000000002
 20
123.0179999999999
 30
0.0
 11
36.93889999999999
 21
123.0179999999999
 31
0.0
  0
LINE
  5
1A6
  8
0
 62
     7
 10
100.307
 20
96.211799999999997
 30
0.0
 11
98.096299999999999
 21
95.619600000000005
 31
0.0
  0
LINE
  5
1A7
  8
0
 62
     7
 10
98.096299999999999
 20
95.619600000000005
 30
0.0
 11
100.307
 21
95.027400000000014
 31
0.0
  0
LINE
  5
1A8
  8
0
 62
     7
 10
100.307
 20
95.027400000000014
 30
0.0
 11
100.307
 21
96.211799999999997
 31
0.0
  0
LINE
  5
1A9
  8
0
 62
     7
 10
155.88599999999991
 20
95.041799999999995
 30
0.0
 11
158.09700000000001
 21
95.633999999999986
 31
0.0
  0
LINE
  5
1AA
  8
0
 62
     7
 10
158.09700000000001
 20
95.633999999999986
 30
0.0
 11
155.88599999999991
 21
96.226299999999995
 31
0.0
  0
LINE
  5
1AB
  8
0
 62
     7
 10
155.88599999999991
 20
96.226299999999995
 30
0.0
 11
155.88599999999991
 21
95.041799999999995
 31
0.0
  0
LINE
  5
1AC
  8
0
 62
     7
 10
98.096299999999999
 20
95.619600000000005
 30
0.0
 11
158.09700000000001
 21
95.619600000000005
 31
0.0
  0
LINE
  5
1AD
  8
0
 62
     7
 10
127.151
 20
130.77500000000001
 30
0.0
 11
127.744
 21
128.56499999999991
 31
0.0
  0
LINE
  5
1AE
  8
0
 62
     7
 10
127.744
 20
128.56499999999991
 30
0.0
 11
128.33600000000001
 21
130.77500000000001
 31
0.0
  0
LINE
  5
1AF
  8
0
 62
     7
 10
128.33600000000001
 20
130.77500000000001
 30
0.0
 11
127.151
 21
130.77500000000001
 31
0.0
  0
LINE
  5
1B0
  8
0
 62
     7
 10
128.32099999999991
 20
133.95400000000001
 30
0.0
 11
127.729
 21
136.16499999999999
 31
0.0
  0
LINE
  5
1B1
  8
0
 62
     7
 10
127.729
 20
136.16499999999999
 30
0.0
 11
127.137
 21
133.95400000000001
 31
0.0
  0
LINE
  5
1B2
  8
0
 62
     7
 10
127.137
 20
133.95400000000001
 30
0.0
 11
128.32099999999991
 21
133.95400000000001
 31
0.0
  0
LINE
  5
1B3
  8
0
 62
     7
 10
127.744
 20
128.56499999999991
 30
0.0
 11
127.744
 21
145.15299999999991
 31
0.0
  0
LINE
  5
1B4
  8
0
 62
     7
 10
170.75
 20
127.3749999999999
 30
0.0
 11
171.3429999999999
 21
125.16500000000001
 31
0.0
  0
LINE
  5
1B5
  8
0
 62
     7
 10
171.3429999999999
 20
125.16500000000001
 30
0.0
 11
171.935
 21
127.3749999999999
 31
0.0
  0
LINE
  5
1B6
  8
0
 62
     7
 10
171.935
 20
127.3749999999999
 30
0.0
 11
170.75
 21
127.3749999999999
 31
0.0
  0
LINE
  5
1B7
  8
0
 62
     7
 10
171.9199999999999
 20
137.3539999999999
 30
0.0
 11
171.328
 21
139.56399999999999
 31
0.0
  0
LINE
  5
1B8
  8
0
 62
     7
 10
171.328
 20
139.56399999999999
 30
0.0
 11
170.7359999999999
 21
137.3539999999999
 31
0.0
  0
LINE
  5
1B9
  8
0
 62
     7
 10
170.7359999999999
 20
137.3539999999999
 30
0.0
 11
171.9199999999999
 21
137.3539999999999
 31
0.0
  0
LINE
  5
1BA
  8
0
 62
     7
 10
171.3429999999999
 20
125.16500000000001
 30
0.0
 11
171.3429999999999
 21
139.56399999999999
 31
0.0
  0
LINE
  5
1BB
  8
0
 62
     7
 10
151.09700000000001
 20
125.16500000000001
 30
0.0
 11
172.113
 21
125.16500000000001
 31
0.0
  0
LINE
  5
1BC
  8
0
 62
     7
 10
151.09700000000001
 20
139.56399999999999
 30
0.0
 11
172.113
 21
139.56399999999999
 31
0.0
  0
LINE
  5
1BD
  8
0
 62
     7
 10
83.506200000000007
 20
96.197299999999998
 30
0.0
 11
81.295500000000004
 21
95.605099999999979
 31
0.0
  0
LINE
  5
1BE
  8
0
 62
     7
 10
81.295500000000004
 20
95.605099999999979
 30
0.0
 11
83.506200000000007
 21
95.012900000000002
 31
0.0
  0
LINE
  5
1BF
  8
0
 62
     7
 10
83.506200000000007
 20
95.012900000000002
 30
0.0
 11
83.506200000000007
 21
96.197299999999998
 31
0.0
  0
LINE
  5
1C0
  8
0
 62
     7
 10
95.885499999999993
 20
95.027400000000014
 30
0.0
 11
98.096299999999999
 21
95.619600000000005
 31
0.0
  0
LINE
  5
1C1
  8
0
 62
     7
 10
98.096299999999999
 20
95.619600000000005
 30
0.0
 11
95.885499999999993
 21
96.211799999999997
 31
0.0
  0
LINE
  5
1C2
  8
0
 62
     7
 10
95.885499999999993
 20
96.211799999999997
 30
0.0
 11
95.885499999999993
 21
95.027400000000014
 31
0.0
  0
LINE
  5
1C3
  8
0
 62
     7
 10
81.295500000000004
 20
95.605099999999979
 30
0.0
 11
98.096299999999999
 21
95.605099999999979
 31
0.0
  0
LINE
  5
1C4
  8
0
 62
     7
 10
81.295500000000004
 20
115.8509999999999
 30
0.0
 11
81.295500000000004
 21
94.834800000000001
 31
0.0
  0
LINE
  5
1C5
  8
0
 62
     7
 10
158.09700000000001
 20
127.5649999999999
 30
0.0
 11
158.09700000000001
 21
94.834800000000001
 31
0.0
  0
LINE
  5
1C6
  8
0
 62
     7
 10
98.096299999999999
 20
115.8509999999999
 30
0.0
 11
98.096299999999999
 21
94.834800000000001
 31
0.0
  0
LINE
  5
1C7
  8
0
 62
     7
 10
89.118300000000005
 20
130.15399999999991
 30
0.0
 11
89.710499999999996
 21
132.36500000000001
 31
0.0
  0
LINE
  5
1C8
  8
0
 62
     7
 10
89.710499999999996
 20
132.36500000000001
 30
0.0
 11
90.302699999999987
 21
130.15399999999991
 31
0.0
  0
LINE
  5
1C9
  8
0
 62
     7
 10
90.302699999999987
 20
130.15399999999991
 30
0.0
 11
89.118300000000005
 21
130.15399999999991
 31
0.0
  0
LINE
  5
1CA
  8
0
 62
     7
 10
90.288300000000007
 20
112.375
 30
0.0
 11
89.695999999999984
 21
110.16500000000001
 31
0.0
  0
LINE
  5
1CB
  8
0
 62
     7
 10
89.695999999999984
 20
110.16500000000001
 30
0.0
 11
89.103800000000007
 21
112.375
 31
0.0
  0
LINE
  5
1CC
  8
0
 62
     7
 10
89.103800000000007
 20
112.375
 30
0.0
 11
90.288300000000007
 21
112.375
 31
0.0
  0
LINE
  5
1CD
  8
0
 62
     7
 10
89.703299999999999
 20
132.36500000000001
 30
0.0
 11
89.703299999999999
 21
110.16500000000001
 31
0.0
  0
LINE
  5
1CE
  8
0
 62
     7
 10
152.30699999999999
 20
119.788
 30
0.0
 11
150.09700000000001
 21
120.381
 31
0.0
  0
LINE
  5
1CF
  8
0
 62
     7
 10
150.09700000000001
 20
120.381
 30
0.0
 11
152.30699999999999
 21
120.9729999999999
 31
0.0
  0
LINE
  5
1D0
  8
0
 62
     7
 10
152.30699999999999
 20
120.9729999999999
 30
0.0
 11
152.30699999999999
 21
119.788
 31
0.0
  0
LINE
  5
1D1
  8
0
 62
     7
 10
144.71299999999999
 20
120.96599999999999
 30
0.0
 11
146.92400000000001
 21
120.37299999999991
 31
0.0
  0
LINE
  5
1D2
  8
0
 62
     7
 10
146.92400000000001
 20
120.37299999999991
 30
0.0
 11
144.71299999999999
 21
119.78100000000001
 31
0.0
  0
LINE
  5
1D3
  8
0
 62
     7
 10
144.71299999999999
 20
119.78100000000001
 30
0.0
 11
144.71299999999999
 21
120.96599999999999
 31
0.0
  0
LINE
  5
1D4
  8
0
 62
     7
 10
139.5979999999999
 20
120.37299999999991
 30
0.0
 11
154.11000000000001
 21
120.37299999999991
 31
0.0
  0
LINE
  5
1D5
  8
0
 62
     7
 10
150.09700000000001
 20
124.8279999999999
 30
0.0
 11
150.09700000000001
 21
119.235
 31
0.0
  0
LINE
  5
1D6
  8
0
 62
     7
 10
146.89699999999999
 20
124.8279999999999
 30
0.0
 11
146.89699999999999
 21
119.235
 31
0.0
  0
LINE
  5
1D7
  8
0
 62
     7
 10
70.521900000000002
 20
152.95500000000001
 30
0.0
 11
71.114099999999993
 21
155.16499999999991
 31
0.0
  0
LINE
  5
1D8
  8
0
 62
     7
 10
71.114099999999993
 20
155.16499999999991
 30
0.0
 11
71.706299999999999
 21
152.95500000000001
 31
0.0
  0
LINE
  5
1D9
  8
0
 62
     7
 10
71.706299999999999
 20
152.95500000000001
 30
0.0
 11
70.521900000000002
 21
152.95500000000001
 31
0.0
  0
LINE
  5
1DA
  8
0
 62
     7
 10
71.691900000000004
 20
112.375
 30
0.0
 11
71.099599999999995
 21
110.16500000000001
 31
0.0
  0
LINE
  5
1DB
  8
0
 62
     7
 10
71.099599999999995
 20
110.16500000000001
 30
0.0
 11
70.507400000000004
 21
112.375
 31
0.0
  0
LINE
  5
1DC
  8
0
 62
     7
 10
70.507400000000004
 20
112.375
 30
0.0
 11
71.691900000000004
 21
112.375
 31
0.0
  0
LINE
  5
1DD
  8
0
 62
     7
 10
71.106899999999996
 20
155.13799999999989
 30
0.0
 11
71.106899999999996
 21
110.13800000000001
 31
0.0
  0
LINE
  5
1DE
  8
0
 62
     7
 10
86.820400000000006
 20
110.16500000000001
 30
0.0
 11
69.968599999999995
 21
110.16500000000001
 31
0.0
  0
LINE
  5
1DF
  8
0
 62
     7
 10
75.561099999999996
 20
155.16499999999991
 30
0.0
 11
69.968599999999995
 21
155.16499999999991
 31
0.0
  0
LINE
  5
1E0
  8
0
 62
     7
 10
88.573300000000003
 20
132.36500000000001
 30
0.0
 11
103.50399999999991
 21
132.36500000000001
 31
0.0
  0
LINE
  5
1E1
  8
_________2
 62
     7
 10
205.30099999999999
 20
127.411
 30
0.0
 11
183.55000000000001
 21
127.411
 31
0.0
  0
LINE
  5
1E2
  8
_________2
 62
     7
 10
100.2999999999999
 20
-4.0910799999999998
 30
0.0
 11
100.2999999999999
 21
-21.071400000000001
 31
0.0
  0
LINE
  5
1E3
  8
_________2
 62
     7
 10
100.2999999999999
 20
275.93099999999993
 30
0.0
 11
100.2999999999999
 21
258.911
 31
0.0
  0
LINE
  5
1E4
  8
_________2
 62
     7
 10
17.049499999999998
 20
127.411
 30
0.0
 11
-4.70052
 21
127.411
 31
0.0
  0
LINE
  5
1E5
  8
_________2
 62
     7
 10
76.741
 20
29.8047
 30
0.0
 11
74.554699999999997
 21
29.8047
 31
0.0
  0
LINE
  5
1E6
  8
_________2
 62
     7
 10
77.233699999999999
 20
29.8047
 30
0.0
 11
76.981499999999997
 21
29.8047
 31
0.0
  0
LINE
  5
1E7
  8
_________2
 62
     7
 10
77.726299999999995
 20
29.8047
 30
0.0
 11
80.651200000000003
 21
29.8047
 31
0.0
  0
LINE
  5
1E8
  8
_________2
 62
     7
 10
77.233699999999999
 20
29.8047
 30
0.0
 11
77.485500000000002
 21
29.8047
 31
0.0
  0
LINE
  5
1E9
  8
_________2
 62
     7
 10
70.837100000000007
 20
29.8047
 30
0.0
 11
68.650499999999994
 21
29.8047
 31
0.0
  0
LINE
  5
1EA
  8
_________2
 62
     7
 10
71.329400000000007
 20
29.8047
 30
0.0
 11
71.077600000000004
 21
29.8047
 31
0.0
  0
LINE
  5
1EB
  8
_________2
 62
     7
 10
71.329400000000007
 20
30.2974
 30
0.0
 11
71.329400000000007
 21
32.484400000000001
 31
0.0
  0
LINE
  5
1EC
  8
_________2
 62
     7
 10
71.329400000000007
 20
29.8047
 30
0.0
 11
71.329400000000007
 21
30.056899999999992
 31
0.0
  0
LINE
  5
1ED
  8
_________2
 62
     7
 10
71.822100000000006
 20
29.8047
 30
0.0
 11
74.009
 21
29.8047
 31
0.0
  0
LINE
  5
1EE
  8
_________2
 62
     7
 10
71.329400000000007
 20
29.8047
 30
0.0
 11
71.581599999999995
 21
29.8047
 31
0.0
  0
LINE
  5
1EF
  8
_________2
 62
     7
 10
71.329400000000007
 20
29.312799999999999
 30
0.0
 11
71.329400000000007
 21
27.125800000000002
 31
0.0
  0
LINE
  5
1F0
  8
_________2
 62
     7
 10
71.329400000000007
 20
29.8047
 30
0.0
 11
71.329400000000007
 21
29.5532
 31
0.0
  0
LINE
  5
1F1
  8
_________2
 62
     7
 10
75.040499999999994
 20
28.5852
 30
0.0
 11
80.218500000000006
 21
27.720400000000001
 31
0.0
  0
LINE
  5
1F2
  8
_________2
 62
     7
 10
75.040499999999994
 20
31.0243
 30
0.0
 11
80.218500000000006
 21
31.889700000000001
 31
0.0
  0
LINE
  5
1F3
  8
_________2
 62
     7
 10
80.218500000000006
 20
27.720400000000001
 30
0.0
 11
80.218500000000006
 21
31.889700000000001
 31
0.0
  0
LINE
  5
1F4
  8
_________2
 62
     7
 10
75.040499999999994
 20
28.5852
 30
0.0
 11
75.040499999999994
 21
31.0243
 31
0.0
  0
ARC
  5
1F5
  8
_________2
 62
     7
 10
71.28285600000001
 20
29.757811
 30
0.0
 40
1.2673589999999999
 50
2.122214
 51
87.893958999999995
  0
ARC
  5
1F6
  8
_________2
 62
     7
 10
71.375959999999992
 20
29.758213000000001
 30
0.0
 40
1.2669559999999991
 50
92.104701000000006
 51
177.8952689999999
  0
ARC
  5
1F7
  8
_________2
 62
     7
 10
71.376357999999996
 20
29.851671
 30
0.0
 40
1.2673680000000001
 50
182.12203600000001
 51
267.877993
  0
ARC
  5
1F8
  8
_________2
 62
     7
 10
71.282531999999989
 20
29.851998999999989
 30
0.0
 40
1.267695999999999
 50
272.12015300000002
 51
357.863674
  0
ARC
  5
1F9
  8
_________2
 62
     7
 10
71.329430000000002
 20
29.804742999999998
 30
0.0
 40
2.0849849999999992
 50
0.00001
 51
89.999980000000008
  0
ARC
  5
1FA
  8
_________2
 62
     7
 10
71.329603000000006
 20
29.804915000000001
 30
0.0
 40
2.084813
 50
90.004733999999999
 51
180.00474399999999
  0
ARC
  5
1FB
  8
_________2
 62
     7
 10
71.409106000000008
 20
29.884775999999999
 30
0.0
 40
2.1657950000000001
 50
182.11776599999999
 51
267.89173399999999
  0
ARC
  5
1FC
  8
_________2
 62
     7
 10
71.249459000000002
 20
29.885429999999989
 30
0.0
 40
2.1664590000000001
 50
272.11546800000002
 51
357.86560400000002
  0
TEXT
  5
1FD
  8
_________2
 62
     7
 10
104.605
 20
1.6794899999999999
 30
0.0
 40
3.0923400000000001
  1
図番
 41
0.5
  0
LINE
  5
1FE
  8
_________2
 62
     7
 10
103.55
 20
5.9087199999999989
 30
0.0
 11
183.55099999999999
 21
5.9087199999999989
 31
0.0
  0
TEXT
  5
1FF
  8
_________2
 62
     7
 10
104.605
 20
11.679299999999991
 30
0.0
 40
3.0923400000000001
  1
品番
 41
0.5
  0
TEXT
  5
200
  8
_________2
 62
     7
 10
104.605
 20
31.818100000000001
 30
0.0
 40
3.0923400000000001
  1
名称
 41
0.5
  0
TEXT
  5
201
  8
_________2
 62
     7
 10
91.845058333333341
 20
26.821999999999989
 30
0.0
 40
3.6545800000000002
  1
mm
 41
0.5
 72
     1
 11
93.367800000000003
 21
26.821999999999989
 31
0.0
  0
TEXT
  5
202
  8
_________2
 62
     7
 10
85.643199999999993
 20
31.818100000000001
 30
0.0
 40
3.0923400000000001
  1
単位
 41
0.5
  0
TEXT
  5
203
  8
_________2
 62
     7
 10
85.643199999999993
 20
19.410799999999991
 30
0.0
 40
3.0923400000000001
  1
尺度
 41
0.5
  0
TEXT
  5
204
  8
_________2
 62
     7
 10
90.548758666666686
 20
13.2179
 30
0.0
 40
3.6545800000000002
  1
1 ： 5
 41
0.5
 72
     1
 11
93.959699999999998
 21
13.2179
 31
0.0
  0
TEXT
  5
205
  8
_________2
 62
     7
 10
137.15448749999999
 20
9.1078600000000005
 30
0.0
 40
3.9357000000000002
  1
CET038P
 41
0.5
 72
     1
 11
143.55000000000001
 21
9.1078600000000005
 31
0.0
  0
TEXT
  5
206
  8
_________2
 62
     7
 10
137.15448749999999
 20
-0.8926299999999999
 30
0.0
 40
3.9357000000000002
  1
CET038P
 41
0.5
 72
     1
 11
143.55000000000001
 21
-0.8926299999999999
 31
0.0
  0
TEXT
  5
207
  8
_________2
 62
     7
 10
134.5775410714285
 20
24.2257
 30
0.0
 40
3.9357000000000002
  1
%%c38 Pトラップ
 41
0.5
 72
     1
 11
143.55000000000001
 21
24.2257
 31
0.0
  0
TEXT
  5
208
  8
_________2
 62
     7
 10
39.425300333333333
 20
13.603
 30
0.0
 40
3.6545800000000002
  1
福田
 41
0.5
 72
     1
 11
41.313499999999998
 21
13.603
 31
0.0
  0
TEXT
  5
209
  8
_________2
 62
     7
 10
20.790090666666661
 20
13.603
 30
0.0
 40
3.6545800000000002
  1
石原
 41
0.5
 72
     1
 11
22.73919999999999
 21
13.603
 31
0.0
  0
TEXT
  5
20A
  8
_________2
 62
     7
 10
67.785399999999996
 20
13.2179
 30
0.0
 40
3.6545800000000002
  1
05.08.16
 41
0.5
  0
TEXT
  5
20B
  8
_________2
 62
     7
 10
66.593100000000007
 20
19.410799999999991
 30
0.0
 40
3.0923400000000001
  1
日付
 41
0.5
  0
TEXT
  5
20C
  8
_________2
 62
     7
 10
29.639399999999998
 20
19.410799999999991
 30
0.0
 40
3.0923400000000001
  1
検図
 41
0.5
  0
TEXT
  5
20D
  8
_________2
 62
     7
 10
18.021100000000001
 20
5.21143
 30
0.0
 40
3.0923400000000001
  1
備考
 41
0.5
  0
TEXT
  5
20E
  8
_________2
 62
     7
 10
18.021100000000001
 20
19.410799999999991
 30
0.0
 40
3.0923400000000001
  1
製図
 41
0.5
  0
TEXT
  5
20F
  8
_________2
 62
     7
 10
23.788465333333338
 20
27.936800000000002
 30
0.0
 40
4.4979399999999989
  1
セラトレーディング株式会社
 41
0.5
 72
     1
 11
41.180500000000002
 21
27.936800000000002
 31
0.0
  0
LINE
  5
210
  8
_________2
 62
     7
 10
183.55099999999999
 20
-4.0910799999999998
 30
0.0
 11
17.049499999999998
 21
-4.0910799999999998
 31
0.0
  0
LINE
  5
211
  8
_________2
 62
     7
 10
17.049499999999998
 20
-4.0910799999999998
 30
0.0
 11
17.049499999999998
 21
258.911
 31
0.0
  0
LINE
  5
212
  8
_________2
 62
     7
 10
17.049499999999998
 20
258.911
 30
0.0
 11
183.55099999999999
 21
258.911
 31
0.0
  0
LINE
  5
213
  8
_________2
 62
     7
 10
183.55099999999999
 20
258.911
 30
0.0
 11
183.55099999999999
 21
-4.0910799999999998
 31
0.0
  0
LINE
  5
214
  8
_________2
 62
     7
 10
65.549599999999998
 20
9.4089600000000004
 30
0.0
 11
65.549599999999998
 21
35.908799999999999
 31
0.0
  0
LINE
  5
215
  8
_________2
 62
     7
 10
84.549700000000016
 20
9.4089600000000004
 30
0.0
 11
84.549700000000016
 21
35.908799999999999
 31
0.0
  0
LINE
  5
216
  8
_________2
 62
     7
 10
103.55
 20
-4.0910799999999998
 30
0.0
 11
103.55
 21
35.908799999999999
 31
0.0
  0
LINE
  5
217
  8
_________2
 62
     7
 10
28.549299999999992
 20
9.4089600000000004
 30
0.0
 11
28.549299999999992
 21
23.409199999999998
 31
0.0
  0
LINE
  5
218
  8
_________2
 62
     7
 10
17.049499999999998
 20
9.4089600000000004
 30
0.0
 11
103.55
 21
9.4089600000000004
 31
0.0
  0
LINE
  5
219
  8
_________2
 62
     7
 10
17.049499999999998
 20
23.409199999999998
 30
0.0
 11
103.55
 21
23.409199999999998
 31
0.0
  0
LINE
  5
21A
  8
_________2
 62
     7
 10
103.55
 20
15.9085
 30
0.0
 11
183.55099999999999
 21
15.9085
 31
0.0
  0
LINE
  5
21B
  8
_________2
 62
     7
 10
17.049499999999998
 20
35.908799999999999
 30
0.0
 11
183.55099999999999
 21
35.908799999999999
 31
0.0
  0
ENDSEC
  0
EOF
