  0
SECTION
  2
HEADER
  9
$ACADVER
  1
AC1009
  9
$INSBASE
 10
0.0
 20
0.0
 30
0.0
  9
$EXTMIN
 10
-4.70052
 20
-21.071400000000001
 30
0.0
  9
$EXTMAX
 10
205.30099999999999
 20
275.93099999999993
 30
0.0
  9
$LIMMIN
 10
0.0
 20
0.0
  9
$LIMMAX
 10
12.0
 20
9.0
  9
$ORTHOMODE
 70
     0
  9
$REGENMODE
 70
     1
  9
$FILLMODE
 70
     1
  9
$QTEXTMODE
 70
     0
  9
$MIRRTEXT
 70
     1
  9
$DRAGMODE
 70
     2
  9
$LTSCALE
 40
1.0
  9
$OSMODE
 70
    37
  9
$ATTMODE
 70
     1
  9
$TEXTSIZE
 40
0.0
  9
$TRACEWID
 40
0.05
  9
$TEXTSTYLE
  7
STANDARD
  9
$CLAYER
  8
0
  9
$CELTYPE
  6
CONTINUOUS
  9
$CECOLOR
 62
   256
  9
$DIMSCALE
 40
1.0
  9
$DIMASZ
 40
0.18
  9
$DIMEXO
 40
0.0625
  9
$DIMDLI
 40
0.38
  9
$DIMRND
 40
0.0
  9
$DIMDLE
 40
0.0
  9
$DIMEXE
 40
0.18
  9
$DIMTP
 40
0.0
  9
$DIMTM
 40
0.0
  9
$DIMTXT
 40
0.18
  9
$DIMCEN
 40
0.09
  9
$DIMTSZ
 40
0.0
  9
$DIMTOL
 70
     0
  9
$DIMLIM
 70
     0
  9
$DIMTIH
 70
     1
  9
$DIMTOH
 70
     1
  9
$DIMSE1
 70
     0
  9
$DIMSE2
 70
     0
  9
$DIMTAD
 70
     0
  9
$DIMZIN
 70
     0
  9
$DIMBLK
  1

  9
$DIMASO
 70
     1
  9
$DIMSHO
 70
     1
  9
$DIMPOST
  1

  9
$DIMAPOST
  1

  9
$DIMALT
 70
     0
  9
$DIMALTD
 70
     2
  9
$DIMALTF
 40
25.399999999999999
  9
$DIMLFAC
 40
1.0
  9
$DIMTOFL
 70
     0
  9
$DIMTVP
 40
0.0
  9
$DIMTIX
 70
     0
  9
$DIMSOXD
 70
     0
  9
$DIMSAH
 70
     0
  9
$DIMBLK1
  1

  9
$DIMBLK2
  1

  9
$DIMSTYLE
  2
STANDARD
  9
$DIMCLRD
 70
     0
  9
$DIMCLRE
 70
     0
  9
$DIMCLRT
 70
     0
  9
$DIMTFAC
 40
1.0
  9
$DIMGAP
 40
0.09
  9
$LUNITS
 70
     2
  9
$LUPREC
 70
     4
  9
$SKETCHINC
 40
0.1
  9
$FILLETRAD
 40
0.0
  9
$AUNITS
 70
     0
  9
$AUPREC
 70
     0
  9
$MENU
  1
.
  9
$ELEVATION
 40
0.0
  9
$PELEVATION
 40
0.0
  9
$THICKNESS
 40
0.0
  9
$LIMCHECK
 70
     0
  9
$BLIPMODE
 70
     0
  9
$CHAMFERA
 40
0.0
  9
$CHAMFERB
 40
0.0
  9
$SKPOLY
 70
     0
  9
$TDCREATE
 40
2444972.375
  9
$TDUPDATE
 40
2453606.2583555672
  9
$TDINDWG
 40
0.0000168056
  9
$TDUSRTIMER
 40
0.0000168056
  9
$USRTIMER
 70
     1
  9
$ANGBASE
 50
0.0
  9
$ANGDIR
 70
     0
  9
$PDMODE
 70
     0
  9
$PDSIZE
 40
0.0
  9
$PLINEWID
 40
0.0
  9
$COORDS
 70
     1
  9
$SPLFRAME
 70
     0
  9
$SPLINETYPE
 70
     6
  9
$SPLINESEGS
 70
     8
  9
$ATTDIA
 70
     0
  9
$ATTREQ
 70
     1
  9
$HANDLING
 70
 22529
  9
$HANDSEED
  5
23D
  9
$SURFTAB1
 70
     6
  9
$SURFTAB2
 70
     6
  9
$SURFTYPE
 70
     6
  9
$SURFU
 70
     6
  9
$SURFV
 70
     6
  9
$UCSNAME
  2

  9
$UCSORG
 10
0.0
 20
0.0
 30
0.0
  9
$UCSXDIR
 10
1.0
 20
0.0
 30
0.0
  9
$UCSYDIR
 10
0.0
 20
1.0
 30
0.0
  9
$PUCSNAME
  2

  9
$PUCSORG
 10
0.0
 20
0.0
 30
0.0
  9
$PUCSXDIR
 10
1.0
 20
0.0
 30
0.0
  9
$PUCSYDIR
 10
0.0
 20
1.0
 30
0.0
  9
$USERI1
 70
     0
  9
$USERI2
 70
     0
  9
$USERI3
 70
     0
  9
$USERI4
 70
     0
  9
$USERI5
 70
     0
  9
$USERR1
 40
0.0
  9
$USERR2
 40
0.0
  9
$USERR3
 40
0.0
  9
$USERR4
 40
0.0
  9
$USERR5
 40
0.0
  9
$WORLDVIEW
 70
     1
  9
$SHADEDGE
 70
     3
  9
$SHADEDIF
 70
    70
  9
$TILEMODE
 70
     1
  9
$MAXACTVP
 70
    48
  9
$PLIMCHECK
 70
     0
  9
$PEXTMIN
 10
1.0000000000000000E+020
 20
1.0000000000000000E+020
 30
1.0000000000000000E+020
  9
$PEXTMAX
 10
-1.0000000000000000E+020
 20
-1.0000000000000000E+020
 30
-1.0000000000000000E+020
  9
$PLIMMIN
 10
0.0
 20
0.0
  9
$PLIMMAX
 10
12.0
 20
9.0
  9
$UNITMODE
 70
     0
  9
$VISRETAIN
 70
     1
  9
$PLINEGEN
 70
     0
  9
$PSLTSCALE
 70
     1
  0
ENDSEC
  0
SECTION
  2
TABLES
  0
TABLE
  2
VPORT
 70
     2
  0
VPORT
  2
*ACTIVE
 70
     0
 10
0.0
 20
0.0
 11
1.0
 21
1.0
 12
189.56085651407921
 22
127.4297999999999
 13
0.0
 23
0.0
 14
1.0
 24
1.0
 15
0.0
 25
0.0
 16
0.0
 26
0.0
 36
1.0
 17
0.0
 27
0.0
 37
0.0
 40
299.2467506297229
 41
2.1842105263157889
 42
50.0
 43
0.0
 44
0.0
 50
0.0
 51
0.0
 71
     0
 72
   100
 73
     1
 74
     1
 75
     0
 76
     0
 77
     0
 78
     0
  0
ENDTAB
  0
TABLE
  2
LTYPE
 70
     2
  0
LTYPE
  2
CONTINUOUS
 70
     0
  3
Solid line
 72
    65
 73
     0
 40
0.0
  0
LTYPE
  2
AIGENLINE001
 70
     0
  3
generate AI->DXF Converter
 72
    65
 73
     4
 40
5.8561449999999988
 49
3.5278
 49
-0.776115
 49
0.776115
 49
-0.776115
  0
ENDTAB
  0
TABLE
  2
LAYER
 70
     2
  0
LAYER
  2
0
 70
     0
 62
     7
  6
CONTINUOUS
  0
LAYER
  2
_________2
 70
     0
 62
     7
  6
CONTINUOUS
  0
ENDTAB
  0
TABLE
  2
STYLE
 70
     1
  0
STYLE
  2
STANDARD
 70
     0
 40
0.0
 41
0.0
 50
0.0
 71
     0
 42
0.0
  3
TXT
  4
EXTFONT.SHX
  0
ENDTAB
  0
TABLE
  2
VIEW
 70
     0
  0
ENDTAB
  0
TABLE
  2
UCS
 70
     0
  0
ENDTAB
  0
TABLE
  2
APPID
 70
     1
  0
APPID
  2
ACAD
 70
     0
  0
ENDTAB
  0
TABLE
  2
DIMSTYLE
 70
     1
  0
DIMSTYLE
  2
STANDARD
 70
     0
  3

  4

  5

  6

  7

 40
1.0
 41
0.18
 42
0.0625
 43
0.38
 44
0.18
 45
0.0
 46
0.0
 47
0.0
 48
0.0
140
0.18
141
0.09
142
0.0
143
25.399999999999999
144
1.0
145
0.0
146
1.0
147
0.09
 71
     0
 72
     0
 73
     1
 74
     1
 75
     0
 76
     0
 77
     0
 78
     0
170
     0
171
     2
172
     0
173
     0
174
     0
175
     0
176
     0
177
     0
178
     0
  0
ENDTAB
  0
ENDSEC
  0
SECTION
  2
BLOCKS
  0
BLOCK
  8
0
  2
$MODEL_SPACE
 70
     0
 10
0.0
 20
0.0
 30
0.0
  3
$MODEL_SPACE
  1

  0
ENDBLK
  5
1A
  8
0
  0
BLOCK
 67
     1
  8
0
  2
$PAPER_SPACE
 70
     0
 10
0.0
 20
0.0
 30
0.0
  3
$PAPER_SPACE
  1

  0
ENDBLK
  5
17
 67
     1
  8
0
  0
ENDSEC
  0
SECTION
  2
ENTITIES
  0
TEXT
  5
22
  8
0
 62
     7
 10
110.941
 20
184.53452499999989
 30
0.0
 40
3.0923400000000001
  1
111
 50
90.0
 41
0.5
 72
     1
 11
110.941
 21
185.82299999999989
 31
0.0
  0
TEXT
  5
23
  8
0
 62
     7
 10
123.624
 20
65.43101999999999
 30
0.0
 40
3.0923400000000001
  1
16
 50
90.0
 41
0.5
 72
     1
 11
123.624
 21
66.461799999999997
 31
0.0
  0
TEXT
  5
24
  8
0
 62
     7
 10
92.125699999999995
 20
192.2750255
 30
0.0
 40
3.0923400000000001
  1
160～225
 50
90.0
 41
0.5
 72
     1
 11
92.125699999999995
 21
197.19699999999989
 31
0.0
  0
TEXT
  5
25
  8
0
 62
     7
 10
157.44999999999999
 20
125.1191349999999
 30
0.0
 40
3.0923400000000001
  1
700
 50
90.0
 41
0.5
 72
     1
 11
157.44999999999999
 21
126.9229999999999
 31
0.0
  0
TEXT
  5
26
  8
0
 62
     7
 10
127.366525
 20
161.73500000000001
 30
0.0
 40
3.0923400000000001
  1
84
 41
0.5
 72
     1
 11
128.655
 21
161.73500000000001
 31
0.0
  0
TEXT
  5
27
  8
0
 62
     7
 10
125.9234399999999
 20
88.832300000000004
 30
0.0
 40
3.0923400000000001
  1
%%c38
 41
0.5
 72
     1
 11
127.9849999999999
 21
88.832300000000004
 31
0.0
  0
TEXT
  5
28
  8
0
 62
     7
 10
134.99343999999999
 20
45.233400000000003
 30
0.0
 40
3.0923400000000001
  1
%%c72
 41
0.5
 72
     1
 11
137.05500000000001
 21
45.233400000000003
 31
0.0
  0
TEXT
  5
29
  8
0
 62
     7
 10
110.5665249999999
 20
161.71999999999991
 30
0.0
 40
3.0923400000000001
  1
84
 41
0.5
 72
     1
 11
111.855
 21
161.71999999999991
 31
0.0
  0
TEXT
  5
2A
  8
0
 62
     7
 10
99.897808999999995
 20
224.4609999999999
 30
0.0
 40
3.0923400000000001
  1
G1 1/2
 41
0.5
 72
     1
 11
103.45399999999999
 21
224.4609999999999
 31
0.0
  0
ARC
  5
2B
  8
0
 62
     7
 10
118.752487
 20
185.98144600000001
 30
0.0
 40
0.9625969999999998
 50
333.43200999999988
 51
359.67840100000001
  0
ARC
  5
2C
  8
0
 62
     7
 10
118.463325
 20
186.13023699999999
 30
0.0
 40
1.2877780000000001
 50
311.592647
 51
333.26520599999998
  0
ARC
  5
2D
  8
0
 62
     7
 10
118.048878
 20
186.58251899999991
 30
0.0
 40
1.901179999999999
 50
295.19692400000002
 51
311.885583
  0
ARC
  5
2E
  8
0
 62
     7
 10
117.734635
 20
187.2383209999999
 30
0.0
 40
2.628371
 50
281.94866400000001
 51
295.30914000000001
  0
ARC
  5
2F
  8
0
 62
     7
 10
117.639059
 20
187.67933199999999
 30
0.0
 40
3.079613999999999
 50
269.95481799999988
 51
281.98960499999998
  0
ARC
  5
30
  8
0
 62
     7
 10
117.63586100000001
 20
187.69849099999999
 30
0.0
 40
3.0987729999999991
 50
258.04774800000001
 51
270.01422700000001
  0
ARC
  5
31
  8
0
 62
     7
 10
117.54997400000001
 20
187.27100799999999
 30
0.0
 40
2.662774999999999
 50
244.7707959999999
 51
257.950806
  0
ARC
  5
32
  8
0
 62
     7
 10
117.24089600000001
 20
186.60743099999999
 30
0.0
 40
1.9307570000000001
 50
228.243154
 51
244.67437799999999
  0
ARC
  5
33
  8
0
 62
     7
 10
116.8366709999999
 20
186.15080599999999
 30
0.0
 40
1.320924999999999
 50
207.00989799999999
 51
228.13228899999999
  0
ARC
  5
34
  8
0
 62
     7
 10
116.52785900000001
 20
185.983926
 30
0.0
 40
0.9700450000000001
 50
180.46565000000001
 51
206.5118039999999
  0
ARC
  5
35
  8
0
 62
     7
 10
116.521248
 20
185.9700949999999
 30
0.0
 40
0.9634209999999999
 50
153.3973499999999
 51
179.646243
  0
ARC
  5
36
  8
0
 62
     7
 10
116.8022659999999
 20
185.828092
 30
0.0
 40
1.278278
 50
131.51110700000001
 51
153.34670700000001
  0
ARC
  5
37
  8
0
 62
     7
 10
117.216723
 20
185.37953099999999
 30
0.0
 40
1.8889049999999989
 50
115.115379
 51
131.9074379999999
  0
ARC
  5
38
  8
0
 62
     7
 10
117.5313159999999
 20
184.74087900000001
 30
0.0
 40
2.600738999999999
 50
101.920654
 51
115.418938
  0
ARC
  5
39
  8
0
 62
     7
 10
117.6337149999999
 20
184.274463
 30
0.0
 40
3.0782500000000002
 50
89.945735999999997
 51
101.9922889999999
  0
ARC
  5
3A
  8
0
 62
     7
 10
117.63892
 20
184.271771
 30
0.0
 40
3.080941999999999
 50
78.012997999999996
 51
90.042580000000001
  0
ARC
  5
3B
  8
0
 62
     7
 10
117.7381199999999
 20
184.72861399999991
 30
0.0
 40
2.6134580000000001
 50
64.620767999999998
 51
78.06026300000002
  0
ARC
  5
3C
  8
0
 62
     7
 10
118.0366689999999
 20
185.34952799999991
 30
0.0
 40
1.9245110000000001
 50
48.248969999999993
 51
64.728173999999996
  0
ARC
  5
3D
  8
0
 62
     7
 10
118.45100600000001
 20
185.81271599999999
 30
0.0
 40
1.303046999999999
 50
26.863278000000001
 51
48.278867999999989
  0
ARC
  5
3E
  8
0
 62
     7
 10
118.740627
 20
185.96815599999999
 30
0.0
 40
0.9744729999999998
 50
0.4637470000000001
 51
26.404858000000001
  0
ARC
  5
3F
  8
0
 62
     7
 10
123.996893
 20
185.97973899999991
 30
0.0
 40
0.95545
 50
333.33208400000001
 51
359.77832699999988
  0
ARC
  5
40
  8
0
 62
     7
 10
123.700593
 20
186.13023699999999
 30
0.0
 40
1.2877780000000001
 50
311.592647
 51
333.26520599999998
  0
ARC
  5
41
  8
0
 62
     7
 10
123.288068
 20
186.57870500000001
 30
0.0
 40
1.897057
 50
295.20281599999998
 51
311.91924299999999
  0
ARC
  5
42
  8
0
 62
     7
 10
122.9754139999999
 20
187.22988000000001
 30
0.0
 40
2.619384999999999
 50
281.91174399999989
 51
295.32544899999999
  0
ARC
  5
43
  8
0
 62
     7
 10
122.876604
 20
187.67667199999991
 30
0.0
 40
3.076954999999999
 50
269.94959799999998
 51
281.99482399999999
  0
ARC
  5
44
  8
0
 62
     7
 10
122.873391
 20
187.6977179999999
 30
0.0
 40
3.0979990000000002
 50
258.04625600000003
 51
270.00936100000001
  0
ARC
  5
45
  8
0
 62
     7
 10
122.78602600000001
 20
187.26838499999999
 30
0.0
 40
2.659883999999999
 50
244.77037899999991
 51
257.97185599999989
  0
ARC
  5
46
  8
0
 62
     7
 10
122.47816400000001
 20
186.60743099999999
 30
0.0
 40
1.9307570000000001
 50
228.243154
 51
244.67437799999999
  0
ARC
  5
47
  8
0
 62
     7
 10
122.063202
 20
186.14254600000001
 30
0.0
 40
1.3076110000000001
 50
206.90111399999989
 51
228.241073
  0
ARC
  5
48
  8
0
 62
     7
 10
121.768597
 20
185.98397
 30
0.0
 40
0.9731719999999999
 50
180.466735
 51
206.42289400000001
  0
ARC
  5
49
  8
0
 62
     7
 10
121.7554489999999
 20
185.97160700000001
 30
0.0
 40
0.960002
 50
153.396107
 51
179.7352469999999
  0
ARC
  5
4A
  8
0
 62
     7
 10
122.04480599999999
 20
185.82403600000001
 30
0.0
 40
1.28481
 50
131.5672899999999
 51
153.290524
  0
ARC
  5
4B
  8
0
 62
     7
 10
122.45398999999991
 20
185.37953099999999
 30
0.0
 40
1.8889049999999989
 50
115.115379
 51
131.9074379999999
  0
ARC
  5
4C
  8
0
 62
     7
 10
122.767771
 20
184.7423399999999
 30
0.0
 40
2.599070999999999
 50
101.9023479999999
 51
115.41658200000001
  0
ARC
  5
4D
  8
0
 62
     7
 10
122.870977
 20
184.27778599999999
 30
0.0
 40
3.0749270000000002
 50
89.945592000000005
 51
101.998791
  0
ARC
  5
4E
  8
0
 62
     7
 10
122.877084
 20
184.28034199999991
 30
0.0
 40
3.0723709999999991
 50
77.996156999999997
 51
90.059420999999986
  0
ARC
  5
4F
  8
0
 62
     7
 10
122.9722509999999
 20
184.7173469999999
 30
0.0
 40
2.6251299999999991
 50
64.657516000000001
 51
78.044154000000006
  0
ARC
  5
50
  8
0
 62
     7
 10
123.27149299999989
 20
185.3467709999999
 30
0.0
 40
1.9281939999999991
 50
48.249366000000002
 51
64.688243999999983
  0
ARC
  5
51
  8
0
 62
     7
 10
123.677623
 20
185.80452199999991
 30
0.0
 40
1.3162529999999999
 50
26.971958999999998
 51
48.170186999999999
  0
ARC
  5
52
  8
0
 62
     7
 10
123.9778949999999
 20
185.96815599999999
 30
0.0
 40
0.9744729999999998
 50
0.4637470000000001
 51
26.404858000000001
  0
ARC
  5
53
  8
0
 62
     7
 10
124.278531
 20
185.451662
 30
0.0
 40
1.0781709999999991
 50
274.00954300000001
 51
355.97072700000001
  0
LINE
  5
54
  8
0
 62
     7
 10
120.255
 20
184.37599999999989
 30
0.0
 11
124.354
 21
184.37599999999989
 31
0.0
  0
ARC
  5
55
  8
0
 62
     7
 10
124.3152739999999
 20
186.53753699999999
 30
0.0
 40
1.039480999999999
 50
2.1305990000000001
 51
87.869391000000007
  0
LINE
  5
56
  8
0
 62
     7
 10
125.354
 20
185.37599999999989
 30
0.0
 11
125.354
 21
186.57599999999991
 31
0.0
  0
LINE
  5
57
  8
0
 62
     7
 10
116.154
 20
187.57599999999991
 30
0.0
 11
124.354
 21
187.57599999999991
 31
0.0
  0
ARC
  5
58
  8
0
 62
     7
 10
116.2283679999999
 20
185.45042099999989
 30
0.0
 40
1.0768719999999989
 50
183.9679349999999
 51
266.03209399999992
  0
LINE
  5
59
  8
0
 62
     7
 10
120.255
 20
184.37599999999989
 30
0.0
 11
116.154
 21
184.37599999999989
 31
0.0
  0
ARC
  5
5A
  8
0
 62
     7
 10
116.19252899999999
 20
186.5378749999999
 30
0.0
 40
1.0391449999999991
 50
92.133097000000006
 51
177.90634700000001
  0
LINE
  5
5B
  8
0
 62
     7
 10
115.154
 20
185.37599999999989
 30
0.0
 11
115.154
 21
186.57599999999991
 31
0.0
  0
ARC
  5
5C
  8
0
 62
     7
 10
101.95051699999991
 20
200.9007949999999
 30
0.0
 40
0.963761
 50
333.49452200000002
 51
359.70374700000002
  0
ARC
  5
5D
  8
0
 62
     7
 10
101.6548989999999
 20
201.05613600000001
 30
0.0
 40
1.2976529999999999
 50
311.67609199999993
 51
333.18176099999988
  0
ARC
  5
5E
  8
0
 62
     7
 10
101.245582
 20
201.5085179999999
 30
0.0
 40
1.907711999999999
 50
295.19876099999999
 51
311.824095
  0
ARC
  5
5F
  8
0
 62
     7
 10
100.936511
 20
202.1469929999999
 30
0.0
 40
2.6170299999999989
 50
281.9489529999999
 51
295.37001600000002
  0
ARC
  5
60
  8
0
 62
     7
 10
100.8386
 20
202.59910099999991
 30
0.0
 40
3.079613999999999
 50
269.95481799999988
 51
281.98960499999998
  0
ARC
  5
61
  8
0
 62
     7
 10
100.835402
 20
202.61825999999999
 30
0.0
 40
3.0987729999999991
 50
258.04774800000001
 51
270.01422700000001
  0
ARC
  5
62
  8
0
 62
     7
 10
100.7416979999999
 20
202.16538700000001
 30
0.0
 40
2.636312999999999
 50
244.67930799999999
 51
258.00176199999999
  0
ARC
  5
63
  8
0
 62
     7
 10
100.454042
 20
201.55023999999989
 30
0.0
 40
1.9572409999999989
 50
228.387711
 51
244.589472
  0
ARC
  5
64
  8
0
 62
     7
 10
100.02853
 20
201.06388100000001
 30
0.0
 40
1.3110440000000001
 50
206.9017209999999
 51
228.17581699999991
  0
ARC
  5
65
  8
0
 62
     7
 10
99.727400000000003
 20
200.903695
 30
0.0
 40
0.9700450000000001
 50
180.46565000000001
 51
206.5118039999999
  0
ARC
  5
66
  8
0
 62
     7
 10
99.711322999999993
 20
200.892133
 30
0.0
 40
0.9539429999999999
 50
153.26459
 51
179.7790029999999
  0
ARC
  5
67
  8
0
 62
     7
 10
100.00814200000001
 20
200.74461700000001
 30
0.0
 40
1.2853939999999999
 50
131.62801099999999
 51
153.344122
  0
ARC
  5
68
  8
0
 62
     7
 10
100.43893799999999
 20
200.26488399999991
 30
0.0
 40
1.9301589999999991
 50
115.296086
 51
131.726731
  0
ARC
  5
69
  8
0
 62
     7
 10
100.732103
 20
199.6508419999999
 30
0.0
 40
2.610590999999999
 50
101.9029399999999
 51
115.35482499999991
  0
ARC
  5
6A
  8
0
 62
     7
 10
100.83325600000001
 20
199.19423199999989
 30
0.0
 40
3.0782500000000002
 50
89.945735999999997
 51
101.9922889999999
  0
ARC
  5
6B
  8
0
 62
     7
 10
100.842735
 20
199.232392
 30
0.0
 40
3.0400960000000001
 50
77.931881000000004
 51
90.123695999999995
  0
ARC
  5
6C
  8
0
 62
     7
 10
100.928465
 20
199.61693799999989
 30
0.0
 40
2.6461259999999989
 50
64.735887000000005
 51
78.00630799999999
  0
ARC
  5
6D
  8
0
 62
     7
 10
101.229106
 20
200.25891200000001
 30
0.0
 40
1.9372469999999999
 50
48.303516000000002
 51
64.673627999999994
  0
ARC
  5
6E
  8
0
 62
     7
 10
101.6364309999999
 20
200.72250799999989
 30
0.0
 40
1.320149999999999
 50
26.972740000000002
 51
48.119721999999989
  0
ARC
  5
6F
  8
0
 62
     7
 10
101.947475
 20
200.89045300000001
 30
0.0
 40
0.9668059999999998
 50
0.3175949999999999
 51
26.463215999999999
  0
ARC
  5
70
  8
0
 62
     7
 10
107.18846499999989
 20
200.90211199999999
 30
0.0
 40
0.963433
 50
333.39724200000001
 51
359.62534299999999
  0
ARC
  5
71
  8
0
 62
     7
 10
106.900958
 20
201.04910699999999
 30
0.0
 40
1.2863299999999991
 50
311.58030000000002
 51
333.2775529999999
  0
ARC
  5
72
  8
0
 62
     7
 10
106.490162
 20
201.49604500000001
 30
0.0
 40
1.8933139999999991
 50
295.15925099999993
 51
311.9031389999999
  0
ARC
  5
73
  8
0
 62
     7
 10
106.17674099999989
 20
202.13821899999991
 30
0.0
 40
2.6078320000000001
 50
281.92517500000002
 51
295.39379400000001
  0
ARC
  5
74
  8
0
 62
     7
 10
106.0756309999999
 20
202.60135399999999
 30
0.0
 40
3.081866999999999
 50
269.95923299999993
 51
281.98518999999987
  0
ARC
  5
75
  8
0
 62
     7
 10
106.07266899999991
 20
202.61825999999999
 30
0.0
 40
3.0987729999999991
 50
258.04774800000001
 51
270.01422700000001
  0
ARC
  5
76
  8
0
 62
     7
 10
105.979862
 20
202.1680429999999
 30
0.0
 40
2.639097
 50
244.68636799999999
 51
257.99470200000002
  0
ARC
  5
77
  8
0
 62
     7
 10
105.6764049999999
 20
201.52627799999999
 30
0.0
 40
1.9292039999999999
 50
228.253716
 51
244.68393299999991
  0
ARC
  5
78
  8
0
 62
     7
 10
105.262743
 20
201.0623159999999
 30
0.0
 40
1.3076110000000001
 50
206.90111399999989
 51
228.241073
  0
ARC
  5
79
  8
0
 62
     7
 10
104.972731
 20
200.90563
 30
0.0
 40
0.9781259999999999
 50
180.57510799999989
 51
206.40234699999991
  0
ARC
  5
7A
  8
0
 62
     7
 10
104.958057
 20
200.8898639999999
 30
0.0
 40
0.9634209999999999
 50
153.3973499999999
 51
179.646243
  0
ARC
  5
7B
  8
0
 62
     7
 10
105.24341200000001
 20
200.745386
 30
0.0
 40
1.283264999999999
 50
131.57268300000001
 51
153.33481499999991
  0
ARC
  5
7C
  8
0
 62
     7
 10
105.673725
 20
200.27007900000001
 30
0.0
 40
1.9244019999999991
 50
115.29542499999999
 51
131.76692499999999
  0
ARC
  5
7D
  8
0
 62
     7
 10
105.9716879999999
 20
199.64396599999989
 30
0.0
 40
2.6177980000000001
 50
101.92153999999989
 51
115.336224
  0
ARC
  5
7E
  8
0
 62
     7
 10
106.07052299999989
 20
199.19423199999989
 30
0.0
 40
3.0782500000000002
 50
89.945735999999997
 51
101.9922889999999
  0
ARC
  5
7F
  8
0
 62
     7
 10
106.08000199999999
 20
199.232392
 30
0.0
 40
3.0400960000000001
 50
77.931881000000004
 51
90.123695999999995
  0
ARC
  5
80
  8
0
 62
     7
 10
106.170405
 20
199.630798
 30
0.0
 40
2.631599
 50
64.699091999999993
 51
78.043103000000002
  0
ARC
  5
81
  8
0
 62
     7
 10
106.46355
 20
200.25611000000001
 30
0.0
 40
1.9409879999999999
 50
48.303913000000001
 51
64.633696
  0
ARC
  5
82
  8
0
 62
     7
 10
106.8840659999999
 20
200.73074099999999
 30
0.0
 40
1.306872
 50
26.864055
 51
48.228406999999997
  0
ARC
  5
83
  8
0
 62
     7
 10
107.1806999999999
 20
200.88800099999989
 30
0.0
 40
0.9712089999999999
 50
0.4608350000000002
 51
26.495532999999998
  0
ARC
  5
84
  8
0
 62
     7
 10
107.4780779999999
 20
200.37105500000001
 30
0.0
 40
1.0777950000000001
 50
274.01064100000002
 51
355.9893689999999
  0
LINE
  5
85
  8
0
 62
     7
 10
103.45399999999999
 20
199.29599999999999
 30
0.0
 11
107.553
 21
199.29599999999999
 31
0.0
  0
ARC
  5
86
  8
0
 62
     7
 10
107.514482
 20
201.45733100000001
 30
0.0
 40
1.0394699999999999
 50
2.1292810000000002
 51
87.850968999999992
  0
LINE
  5
87
  8
0
 62
     7
 10
108.553
 20
200.29599999999991
 30
0.0
 11
108.553
 21
201.4959999999999
 31
0.0
  0
LINE
  5
88
  8
0
 62
     7
 10
99.353399999999993
 20
202.4959999999999
 30
0.0
 11
107.553
 21
202.4959999999999
 31
0.0
  0
ARC
  5
89
  8
0
 62
     7
 10
99.427909
 20
200.37018999999989
 30
0.0
 40
1.0768719999999989
 50
183.9679349999999
 51
266.03209399999992
  0
LINE
  5
8A
  8
0
 62
     7
 10
103.45399999999999
 20
199.29599999999999
 30
0.0
 11
99.353399999999993
 21
199.29599999999999
 31
0.0
  0
ARC
  5
8B
  8
0
 62
     7
 10
99.392026999999999
 20
201.4573169999999
 30
0.0
 40
1.0394709999999989
 50
92.130042000000003
 51
177.86992799999999
  0
LINE
  5
8C
  8
0
 62
     7
 10
98.353600000000014
 20
200.29599999999991
 30
0.0
 11
98.353600000000014
 21
201.4959999999999
 31
0.0
  0
ARC
  5
8D
  8
0
 62
     7
 10
101.950523
 20
219.7287
 30
0.0
 40
0.9637540000000001
 50
333.49465099999992
 51
359.72453699999988
  0
ARC
  5
8E
  8
0
 62
     7
 10
101.661343
 20
219.87995499999991
 30
0.0
 40
1.290055999999999
 50
311.59331500000002
 51
333.21479699999998
  0
ARC
  5
8F
  8
0
 62
     7
 10
101.2484189999999
 20
220.33054299999989
 30
0.0
 40
1.901179999999999
 50
295.19692400000002
 51
311.885583
  0
ARC
  5
90
  8
0
 62
     7
 10
100.935879
 20
220.98129299999999
 30
0.0
 40
2.623075
 50
281.93511599999999
 51
295.32268799999991
  0
ARC
  5
91
  8
0
 62
     7
 10
100.834546
 20
221.45019500000001
 30
0.0
 40
3.1027979999999991
 50
270.030013
 51
281.97521699999999
  0
ARC
  5
92
  8
0
 62
     7
 10
100.838954
 20
221.46450400000001
 30
0.0
 40
3.117106999999999
 50
258.05234799999999
 51
269.94885199999999
  0
ARC
  5
93
  8
0
 62
     7
 10
100.7361139999999
 20
220.98128099999991
 30
0.0
 40
2.623062
 50
244.677299
 51
258.06493699999987
  0
ARC
  5
94
  8
0
 62
     7
 10
100.447649
 20
220.36685399999999
 30
0.0
 40
1.944294
 50
228.30074300000001
 51
244.61678900000001
  0
ARC
  5
95
  8
0
 62
     7
 10
100.0325729999999
 20
219.895779
 30
0.0
 40
1.316454
 50
206.976855
 51
228.15040899999991
  0
ARC
  5
96
  8
0
 62
     7
 10
99.728697999999994
 20
219.73191
 30
0.0
 40
0.9713420000000002
 50
180.46267900000001
 51
206.493728
  0
ARC
  5
97
  8
0
 62
     7
 10
99.711322999999993
 20
219.7203879999999
 30
0.0
 40
0.9539429999999999
 50
153.26459
 51
179.7790029999999
  0
ARC
  5
98
  8
0
 62
     7
 10
100.00378600000001
 20
219.57535599999991
 30
0.0
 40
1.2803869999999999
 50
131.56642099999999
 51
153.356042
  0
ARC
  5
99
  8
0
 62
     7
 10
100.42191799999991
 20
219.11849599999999
 30
0.0
 40
1.899654
 50
115.16323
 51
131.859587
  0
ARC
  5
9A
  8
0
 62
     7
 10
100.72156699999999
 20
218.51000599999989
 30
0.0
 40
2.5778400000000001
 50
101.81708399999999
 51
115.440681
  0
ARC
  5
9B
  8
0
 62
     7
 10
100.8332369999999
 20
218.03802999999991
 30
0.0
 40
3.0627070000000001
 50
89.945104000000015
 51
102.053696
  0
ARC
  5
9C
  8
0
 62
     7
 10
100.839491
 20
218.04496399999999
 30
0.0
 40
3.0557739999999991
 50
77.932531000000012
 51
90.062239000000005
  0
ARC
  5
9D
  8
0
 62
     7
 10
100.938422
 20
218.4743839999999
 30
0.0
 40
2.6151699999999991
 50
64.656984999999992
 51
78.085211000000001
  0
ARC
  5
9E
  8
0
 62
     7
 10
101.229106
 20
219.0868229999999
 30
0.0
 40
1.9372469999999999
 50
48.303516000000002
 51
64.673627999999994
  0
ARC
  5
9F
  8
0
 62
     7
 10
101.639897
 20
219.552547
 30
0.0
 40
1.3162529999999999
 50
26.971958999999998
 51
48.170186999999999
  0
ARC
  5
A0
  8
0
 62
     7
 10
101.947355
 20
219.7186789999999
 30
0.0
 40
0.9669249999999999
 50
0.319243
 51
26.461567999999989
  0
ARC
  5
A1
  8
0
 62
     7
 10
107.1884749999999
 20
219.7300149999999
 30
0.0
 40
0.9634209999999999
 50
333.39737000000002
 51
359.64626199999998
  0
ARC
  5
A2
  8
0
 62
     7
 10
106.907295
 20
219.8730029999999
 30
0.0
 40
1.278864999999999
 50
311.49755699999992
 51
333.31055499999991
  0
ARC
  5
A3
  8
0
 62
     7
 10
106.49295100000001
 20
220.31815800000001
 30
0.0
 40
1.8868809999999989
 50
295.15741400000002
 51
311.96464500000002
  0
ARC
  5
A4
  8
0
 62
     7
 10
106.1761149999999
 20
220.97248500000001
 30
0.0
 40
2.6138430000000001
 50
281.91136699999993
 51
295.34643799999992
  0
ARC
  5
A5
  8
0
 62
     7
 10
106.071572
 20
221.45249399999989
 30
0.0
 40
3.1050960000000001
 50
270.03444999999988
 51
281.97077999999988
  0
ARC
  5
A6
  8
0
 62
     7
 10
106.0762209999999
 20
221.46450400000001
 30
0.0
 40
3.117106999999999
 50
258.05234799999999
 51
269.94885199999999
  0
ARC
  5
A7
  8
0
 62
     7
 10
105.974268
 20
220.98391099999989
 30
0.0
 40
2.625818999999999
 50
244.684358
 51
258.05787700000002
  0
ARC
  5
A8
  8
0
 62
     7
 10
105.6701979999999
 20
220.34320699999989
 30
0.0
 40
1.9166229999999991
 50
228.166706
 51
244.711275
  0
ARC
  5
A9
  8
0
 62
     7
 10
105.266758
 20
219.894193
 30
0.0
 40
1.3129879999999989
 50
206.976246
 51
228.21568099999999
  0
ARC
  5
AA
  8
0
 62
     7
 10
104.9740249999999
 20
219.7338419999999
 30
0.0
 40
0.979419
 50
180.57187500000001
 51
206.38453200000001
  0
ARC
  5
AB
  8
0
 62
     7
 10
104.958057
 20
219.718119
 30
0.0
 40
0.9634209999999999
 50
153.3973499999999
 51
179.646243
  0
ARC
  5
AC
  8
0
 62
     7
 10
105.239075
 20
219.5761159999999
 30
0.0
 40
1.278278
 50
131.51110700000001
 51
153.34670700000001
  0
ARC
  5
AD
  8
0
 62
     7
 10
105.6567889999999
 20
219.123547
 30
0.0
 40
1.894064
 50
115.162571
 51
131.899779
  0
ARC
  5
AE
  8
0
 62
     7
 10
105.96108
 20
218.503345
 30
0.0
 40
2.5848200000000001
 50
101.8355649999999
 51
115.4222
  0
ARC
  5
AF
  8
0
 62
     7
 10
106.0705039999999
 20
218.03802999999991
 30
0.0
 40
3.0627070000000001
 50
89.945104000000015
 51
102.053696
  0
ARC
  5
B0
  8
0
 62
     7
 10
106.076758
 20
218.04496399999999
 30
0.0
 40
3.0557739999999991
 50
77.932531000000012
 51
90.062239000000005
  0
ARC
  5
B1
  8
0
 62
     7
 10
106.180262
 20
218.48795000000001
 30
0.0
 40
2.600951999999999
 50
64.620112000000006
 51
78.122084000000001
  0
ARC
  5
B2
  8
0
 62
     7
 10
106.46355
 20
219.08402100000001
 30
0.0
 40
1.9409879999999999
 50
48.303913000000001
 51
64.633696
  0
ARC
  5
B3
  8
0
 62
     7
 10
106.88746999999999
 20
219.5607399999999
 30
0.0
 40
1.303046999999999
 50
26.863278000000001
 51
48.278867999999989
  0
ARC
  5
B4
  8
0
 62
     7
 10
107.180567
 20
219.71622400000001
 30
0.0
 40
0.9713420000000002
 50
0.4626600000000001
 51
26.493708000000002
  0
ARC
  5
B5
  8
0
 62
     7
 10
107.47980699999999
 20
219.19758100000001
 30
0.0
 40
1.0759499999999991
 50
273.92521899999991
 51
356.07479099999989
  0
LINE
  5
B6
  8
0
 62
     7
 10
103.45399999999999
 20
218.124
 30
0.0
 11
107.553
 21
218.124
 31
0.0
  0
ARC
  5
B7
  8
0
 62
     7
 10
107.514482
 20
220.285585
 30
0.0
 40
1.0394699999999999
 50
2.1292810000000002
 51
87.850968999999992
  0
LINE
  5
B8
  8
0
 62
     7
 10
108.553
 20
219.124
 30
0.0
 11
108.553
 21
220.32400000000001
 31
0.0
  0
LINE
  5
B9
  8
0
 62
     7
 10
99.353399999999993
 20
221.32400000000001
 30
0.0
 11
107.553
 21
221.32400000000001
 31
0.0
  0
ARC
  5
BA
  8
0
 62
     7
 10
99.427909
 20
219.19844499999999
 30
0.0
 40
1.0768719999999989
 50
183.9679349999999
 51
266.03209399999992
  0
LINE
  5
BB
  8
0
 62
     7
 10
103.45399999999999
 20
218.124
 30
0.0
 11
99.353399999999993
 21
218.124
 31
0.0
  0
ARC
  5
BC
  8
0
 62
     7
 10
99.392050999999995
 20
220.28556099999989
 30
0.0
 40
1.039482
 50
92.131343000000001
 51
177.88836000000001
  0
LINE
  5
BD
  8
0
 62
     7
 10
98.353600000000014
 20
219.124
 30
0.0
 11
98.353600000000014
 21
220.32400000000001
 31
0.0
  0
ARC
  5
BE
  8
0
 62
     7
 10
137.1372409999999
 20
239.567599
 30
0.0
 40
7.3509640000000003
 50
90.643439999999984
 51
147.479443
  0
ARC
  5
BF
  8
0
 62
     7
 10
137.05485999999999
 20
239.71797599999991
 30
0.0
 40
7.2001239999999997
 50
0.001381
 51
90.001350999999985
  0
ARC
  5
C0
  8
0
 62
     7
 10
137.054687
 20
239.71815099999989
 30
0.0
 40
7.2002959999999998
 50
270.00002000000001
 51
359.99998999999991
  0
ARC
  5
C1
  8
0
 62
     7
 10
137.132205
 20
239.85900799999999
 30
0.0
 40
7.3415629999999998
 50
212.45852599999989
 51
269.39503799999989
  0
ARC
  5
C2
  8
0
 62
     7
 10
51.420636000000002
 20
185.76147900000001
 30
0.0
 40
1.1610769999999999
 50
245.07033999999999
 51
269.82044100000002
  0
ARC
  5
C3
  8
0
 62
     7
 10
51.411264000000003
 20
186.17692199999999
 30
0.0
 40
1.1768369999999999
 50
72.615279999999998
 51
89.720883999999998
  0
ARC
  5
C4
  8
0
 62
     7
 10
51.666629999999991
 20
186.013127
 30
0.0
 40
1.4975439999999991
 50
181.37945899999991
 51
240.58926899999989
  0
ARC
  5
C5
  8
0
 62
     7
 10
51.645676000000002
 20
185.98245600000001
 30
0.0
 40
1.4761649999999991
 50
146.95671399999989
 51
180.20882399999991
  0
ARC
  5
C6
  8
0
 62
     7
 10
51.443694999999991
 20
186.12472099999991
 30
0.0
 40
1.229314
 50
91.244435999999993
 51
147.3818159999999
  0
ARC
  5
C7
  8
0
 62
     7
 10
51.401403999999992
 20
185.81603799999991
 30
0.0
 40
1.2157299999999991
 50
270.734892
 51
287.28077400000001
  0
LINE
  5
C8
  8
0
 62
     7
 10
59.3628
 20
202.4959999999999
 30
0.0
 11
59.3628
 21
218.124
 31
0.0
  0
LINE
  5
C9
  8
0
 62
     7
 10
51.762900000000002
 20
202.4959999999999
 30
0.0
 11
51.762900000000002
 21
218.124
 31
0.0
  0
ARC
  5
CA
  8
0
 62
     7
 10
54.059407999999991
 20
219.706175
 30
0.0
 40
0.8969419999999999
 50
149.23016200000001
 51
178.87900999999999
  0
ARC
  5
CB
  8
0
 62
     7
 10
54.536622999999999
 20
219.37307899999999
 30
0.0
 40
1.477986
 50
125.679666
 51
147.599132
  0
ARC
  5
CC
  8
0
 62
     7
 10
55.166204
 20
218.4385629999999
 30
0.0
 40
2.604508
 50
108.42685400000001
 51
124.939251
  0
ARC
  5
CD
  8
0
 62
     7
 10
55.568151999999998
 20
217.072416
 30
0.0
 40
4.0279790000000002
 50
90.075387000000006
 51
107.7086139999999
  0
ARC
  5
CE
  8
0
 62
     7
 10
55.589879000000003
 20
217.252342
 30
0.0
 40
3.8481469999999991
 50
74.731243000000006
 51
90.407544999999999
  0
ARC
  5
CF
  8
0
 62
     7
 10
55.929490000000001
 20
218.37361000000001
 30
0.0
 40
2.677217999999999
 50
58.712390999999997
 51
75.423393999999988
  0
ARC
  5
D0
  8
0
 62
     7
 10
56.529386999999993
 20
219.30951899999999
 30
0.0
 40
1.566095999999999
 50
38.765228
 51
59.685793000000011
  0
ARC
  5
D1
  8
0
 62
     7
 10
57.079861000000001
 20
219.71621599999989
 30
0.0
 40
0.882891
 50
0.4871710000000001
 51
40.571466999999991
  0
ARC
  5
D2
  8
0
 62
     7
 10
57.068460999999992
 20
219.74055200000001
 30
0.0
 40
0.8944169999999999
 50
329.18737900000002
 51
358.92183299999999
  0
ARC
  5
D3
  8
0
 62
     7
 10
56.586194999999996
 20
220.07676499999991
 30
0.0
 40
1.4814169999999991
 50
305.70538299999998
 51
327.57345600000002
  0
ARC
  5
D4
  8
0
 62
     7
 10
55.954445999999997
 20
221.01824999999999
 30
0.0
 40
2.6148839999999991
 50
288.45986199999987
 51
304.90628199999992
  0
ARC
  5
D5
  8
0
 62
     7
 10
55.535431000000003
 20
222.19514599999999
 30
0.0
 40
3.8478439999999998
 50
254.73077499999999
 51
270.40318600000001
  0
ARC
  5
D6
  8
0
 62
     7
 10
55.189704999999996
 20
221.06138399999989
 30
0.0
 40
2.6631979999999991
 50
238.692937
 51
255.48962299999999
  0
ARC
  5
D7
  8
0
 62
     7
 10
54.599814000000002
 20
220.143519
 30
0.0
 40
1.572865
 50
218.82858899999999
 51
239.66779
  0
ARC
  5
D8
  8
0
 62
     7
 10
54.045636999999999
 20
219.731223
 30
0.0
 40
0.8830309999999998
 50
180.486694
 51
220.53373999999991
  0
ARC
  5
D9
  8
0
 62
     7
 10
59.711089000000001
 20
219.50592499999991
 30
0.0
 40
1.1585309999999991
 50
245.04271099999991
 51
269.848071
  0
ARC
  5
DA
  8
0
 62
     7
 10
59.956392000000001
 20
219.75977900000001
 30
0.0
 40
1.4966319999999991
 50
181.3805119999999
 51
240.62482900000001
  0
ARC
  5
DB
  8
0
 62
     7
 10
59.933498
 20
219.72941800000001
 30
0.0
 40
1.473314999999999
 50
146.89921699999991
 51
180.22149699999991
  0
ARC
  5
DC
  8
0
 62
     7
 10
59.734715000000001
 20
219.87136699999999
 30
0.0
 40
1.229314
 50
91.244435999999993
 51
147.3818159999999
  0
ARC
  5
DD
  8
0
 62
     7
 10
59.704107999999991
 20
219.938108
 30
0.0
 40
1.16229
 50
65.083438000000001
 51
89.807304000000002
  0
ARC
  5
DE
  8
0
 62
     7
 10
59.459443999999998
 20
219.68830800000001
 30
0.0
 40
1.4964679999999999
 50
1.3560339999999991
 51
60.612653999999999
  0
ARC
  5
DF
  8
0
 62
     7
 10
59.480319999999992
 20
219.71804299999999
 30
0.0
 40
1.4751789999999989
 50
326.9456879999999
 51
359.84591599999987
  0
ARC
  5
E0
  8
0
 62
     7
 10
59.681327000000003
 20
219.57680999999999
 30
0.0
 40
1.2297020000000001
 50
271.24365299999999
 51
327.35287899999997
  0
ARC
  5
E1
  8
0
 62
     7
 10
59.987458999999987
 20
219.19898699999999
 30
0.0
 40
1.0778179999999991
 50
274.01171299999987
 51
355.98829699999999
  0
LINE
  5
E2
  8
0
 62
     7
 10
55.562899999999999
 20
218.124
 30
0.0
 11
60.062899999999992
 21
218.124
 31
0.0
  0
ARC
  5
E3
  8
0
 62
     7
 10
60.024277000000012
 20
220.28563299999999
 30
0.0
 40
1.039062999999999
 50
2.1084629999999991
 51
87.871786999999998
  0
LINE
  5
E4
  8
0
 62
     7
 10
61.062600000000003
 20
219.124
 30
0.0
 11
61.062600000000003
 21
220.32400000000001
 31
0.0
  0
LINE
  5
E5
  8
0
 62
     7
 10
51.062800000000003
 20
221.32400000000001
 30
0.0
 11
60.062899999999992
 21
221.32400000000001
 31
0.0
  0
ARC
  5
E6
  8
0
 62
     7
 10
51.419818999999997
 20
219.50170099999991
 30
0.0
 40
1.1543060000000001
 50
244.99650099999991
 51
269.87702599999989
  0
ARC
  5
E7
  8
0
 62
     7
 10
51.666061999999997
 20
219.75977900000001
 30
0.0
 40
1.4966319999999991
 50
181.3805119999999
 51
240.62482900000001
  0
ARC
  5
E8
  8
0
 62
     7
 10
51.643168000000003
 20
219.72941800000001
 30
0.0
 40
1.473314999999999
 50
146.89921699999991
 51
180.22149699999991
  0
ARC
  5
E9
  8
0
 62
     7
 10
51.444034000000002
 20
219.87200699999991
 30
0.0
 40
1.228674
 50
91.244814000000005
 51
147.3981499999999
  0
ARC
  5
EA
  8
0
 62
     7
 10
51.413021000000001
 20
219.93511099999989
 30
0.0
 40
1.165287999999999
 50
64.361669999999989
 51
89.787544999999994
  0
ARC
  5
EB
  8
0
 62
     7
 10
51.168270999999997
 20
219.68915699999999
 30
0.0
 40
1.497290999999999
 50
1.3228109999999991
 51
59.986235000000001
  0
ARC
  5
EC
  8
0
 62
     7
 10
51.189982000000001
 20
219.71804399999991
 30
0.0
 40
1.4751849999999991
 50
326.9458259999999
 51
359.85927500000003
  0
ARC
  5
ED
  8
0
 62
     7
 10
51.390665999999989
 20
219.576786
 30
0.0
 40
1.2296769999999999
 50
271.24305600000002
 51
327.35347599999989
  0
ARC
  5
EE
  8
0
 62
     7
 10
51.137440999999988
 20
219.19855499999991
 30
0.0
 40
1.077331
 50
183.99049899999989
 51
266.02926999999988
  0
LINE
  5
EF
  8
0
 62
     7
 10
55.562899999999999
 20
218.124
 30
0.0
 11
51.062800000000003
 21
218.124
 31
0.0
  0
ARC
  5
F0
  8
0
 62
     7
 10
51.063012000000001
 20
220.32368899999989
 30
0.0
 40
1.000289999999999
 50
90.009867000000014
 51
180.0098769999999
  0
LINE
  5
F1
  8
0
 62
     7
 10
50.0627
 20
219.124
 30
0.0
 11
50.0627
 21
220.32400000000001
 31
0.0
  0
LINE
  5
F2
  8
0
  6
AIGENLINE001
 62
     7
 10
97.540899999999993
 20
239.71799999999999
 30
0.0
 11
145.21999999999991
 21
239.71799999999999
 31
0.0
  0
ARC
  5
F3
  8
0
 62
     7
 10
54.059373999999998
 20
200.87863299999989
 30
0.0
 40
0.896901
 50
149.230333
 51
178.90245100000001
  0
ARC
  5
F4
  8
0
 62
     7
 10
54.536622999999999
 20
200.545513
 30
0.0
 40
1.477986
 50
125.679666
 51
147.599132
  0
ARC
  5
F5
  8
0
 62
     7
 10
55.166204
 20
199.61065199999999
 30
0.0
 40
2.604508
 50
108.42685400000001
 51
124.939251
  0
ARC
  5
F6
  8
0
 62
     7
 10
55.568151999999998
 20
198.244505
 30
0.0
 40
4.0279790000000002
 50
90.075387000000006
 51
107.7086139999999
  0
ARC
  5
F7
  8
0
 62
     7
 10
55.589879000000003
 20
198.424431
 30
0.0
 40
3.8481469999999991
 50
74.731243000000006
 51
90.407544999999999
  0
ARC
  5
F8
  8
0
 62
     7
 10
55.929490000000001
 20
199.54570000000001
 30
0.0
 40
2.677217999999999
 50
58.712390999999997
 51
75.423393999999988
  0
ARC
  5
F9
  8
0
 62
     7
 10
56.535144999999993
 20
200.48828499999999
 30
0.0
 40
1.5574269999999999
 50
38.706338000000002
 51
59.744682999999988
  0
ARC
  5
FA
  8
0
 62
     7
 10
57.080821999999991
 20
200.88831599999989
 30
0.0
 40
0.8819299999999998
 50
0.4870070000000001
 51
40.594521999999991
  0
ARC
  5
FB
  8
0
 62
     7
 10
57.070964000000011
 20
200.91192699999991
 30
0.0
 40
0.8919020000000001
 50
329.144474
 51
358.96473800000001
  0
ARC
  5
FC
  8
0
 62
     7
 10
56.592267000000007
 20
201.24413100000001
 30
0.0
 40
1.473759
 50
305.62868999999989
 51
327.60189600000001
  0
ARC
  5
FD
  8
0
 62
     7
 10
55.956840999999997
 20
202.18338099999991
 30
0.0
 40
2.607524999999999
 50
288.458349
 51
304.95494200000002
  0
ARC
  5
FE
  8
0
 62
     7
 10
55.557529000000002
 20
203.55232799999999
 30
0.0
 40
4.0328429999999988
 50
270.07562799999988
 51
287.68175799999989
  0
ARC
  5
FF
  8
0
 62
     7
 10
55.535431000000003
 20
203.36723599999999
 30
0.0
 40
3.8478439999999998
 50
254.73077499999999
 51
270.40318600000001
  0
ARC
  5
100
  8
0
 62
     7
 10
55.198701999999997
 20
202.254762
 30
0.0
 40
2.686064
 50
238.76494099999999
 51
255.417619
  0
ARC
  5
101
  8
0
 62
     7
 10
54.599814000000002
 20
201.31560899999991
 30
0.0
 40
1.572865
 50
218.82858899999999
 51
239.66779
  0
ARC
  5
102
  8
0
 62
     7
 10
54.045636999999999
 20
200.903313
 30
0.0
 40
0.8830309999999998
 50
180.486694
 51
220.53373999999991
  0
ARC
  5
103
  8
0
 62
     7
 10
59.709206000000009
 20
200.66956200000001
 30
0.0
 40
1.1500749999999991
 50
244.95005
 51
269.94073199999991
  0
ARC
  5
104
  8
0
 62
     7
 10
59.958516000000003
 20
200.93314499999991
 30
0.0
 40
1.4987859999999991
 50
181.427325
 51
240.57801599999999
  0
ARC
  5
105
  8
0
 62
     7
 10
59.929282999999991
 20
200.90275099999999
 30
0.0
 40
1.469104999999999
 50
146.85007400000001
 51
180.2706399999999
  0
ARC
  5
106
  8
0
 62
     7
 10
59.734715000000001
 20
201.04345699999999
 30
0.0
 40
1.229314
 50
91.244435999999993
 51
147.3818159999999
  0
ARC
  5
107
  8
0
 62
     7
 10
59.704107999999991
 20
201.11019799999991
 30
0.0
 40
1.16229
 50
65.083438000000001
 51
89.807304000000002
  0
ARC
  5
108
  8
0
 62
     7
 10
59.459443999999998
 20
200.860398
 30
0.0
 40
1.4964679999999999
 50
1.3560339999999991
 51
60.612653999999999
  0
ARC
  5
109
  8
0
 62
     7
 10
59.480319999999992
 20
200.89013299999999
 30
0.0
 40
1.4751789999999989
 50
326.9456879999999
 51
359.84591599999987
  0
ARC
  5
10A
  8
0
 62
     7
 10
59.681327000000003
 20
200.74889999999999
 30
0.0
 40
1.2297020000000001
 50
271.24365299999999
 51
327.35287899999997
  0
ARC
  5
10B
  8
0
 62
     7
 10
60.024239000000001
 20
200.33429699999991
 30
0.0
 40
1.039115999999999
 50
272.13022399999988
 51
357.86978599999992
  0
LINE
  5
10C
  8
0
 62
     7
 10
55.562899999999999
 20
199.29599999999999
 30
0.0
 11
60.062899999999992
 21
199.29599999999999
 31
0.0
  0
ARC
  5
10D
  8
0
 62
     7
 10
60.024277000000012
 20
201.4577229999999
 30
0.0
 40
1.039062999999999
 50
2.1084629999999991
 51
87.871786999999998
  0
LINE
  5
10E
  8
0
 62
     7
 10
61.062600000000003
 20
200.29599999999991
 30
0.0
 11
61.062600000000003
 21
201.4959999999999
 31
0.0
  0
LINE
  5
10F
  8
0
 62
     7
 10
51.062800000000003
 20
202.4959999999999
 30
0.0
 11
60.062899999999992
 21
202.4959999999999
 31
0.0
  0
ARC
  5
110
  8
0
 62
     7
 10
51.417946000000001
 20
200.66538299999999
 30
0.0
 40
1.1458959999999989
 50
244.90372400000001
 51
269.9698029999999
  0
ARC
  5
111
  8
0
 62
     7
 10
51.666061999999997
 20
200.93186900000001
 30
0.0
 40
1.4966319999999991
 50
181.3805119999999
 51
240.62482900000001
  0
ARC
  5
112
  8
0
 62
     7
 10
51.638953000000001
 20
200.90275099999999
 30
0.0
 40
1.469104999999999
 50
146.85007400000001
 51
180.2706399999999
  0
ARC
  5
113
  8
0
 62
     7
 10
51.444371000000011
 20
201.04348100000001
 30
0.0
 40
1.2292899999999991
 50
91.243838999999994
 51
147.3824129999999
  0
ARC
  5
114
  8
0
 62
     7
 10
51.413021000000001
 20
201.10720099999989
 30
0.0
 40
1.165287999999999
 50
64.361669999999989
 51
89.787544999999994
  0
ARC
  5
115
  8
0
 62
     7
 10
51.168270999999997
 20
200.86124699999999
 30
0.0
 40
1.497290999999999
 50
1.3228109999999991
 51
59.986235000000001
  0
ARC
  5
116
  8
0
 62
     7
 10
51.192898
 20
200.88979499999999
 30
0.0
 40
1.472269
 50
326.88766600000002
 51
359.87217500000003
  0
ARC
  5
117
  8
0
 62
     7
 10
51.390665999999989
 20
200.748876
 30
0.0
 40
1.2296769999999999
 50
271.24305600000002
 51
327.35347599999989
  0
ARC
  5
118
  8
0
 62
     7
 10
51.100743000000001
 20
200.333934
 30
0.0
 40
1.038726
 50
182.11099300000001
 51
267.90877699999987
  0
LINE
  5
119
  8
0
 62
     7
 10
55.562899999999999
 20
199.29599999999999
 30
0.0
 11
51.062800000000003
 21
199.29599999999999
 31
0.0
  0
ARC
  5
11A
  8
0
 62
     7
 10
51.062839000000011
 20
201.49595099999991
 30
0.0
 40
1.0001180000000001
 50
90.0
 51
179.99996999999991
  0
LINE
  5
11B
  8
0
 62
     7
 10
50.0627
 20
200.29599999999991
 30
0.0
 11
50.0627
 21
201.4959999999999
 31
0.0
  0
LINE
  5
11C
  8
0
 62
     7
 10
55.562899999999999
 20
199.09599999999989
 30
0.0
 11
60.062899999999992
 21
199.09599999999989
 31
0.0
  0
LINE
  5
11D
  8
0
 62
     7
 10
55.562899999999999
 20
199.09599999999989
 30
0.0
 11
51.062800000000003
 21
199.09599999999989
 31
0.0
  0
LINE
  5
11E
  8
0
 62
     7
 10
51.062800000000003
 20
199.29599999999999
 30
0.0
 11
51.062800000000003
 21
199.09599999999989
 31
0.0
  0
LINE
  5
11F
  8
0
 62
     7
 10
60.062899999999992
 20
199.29599999999999
 30
0.0
 11
60.062899999999992
 21
199.09599999999989
 31
0.0
  0
LINE
  5
120
  8
0
 62
     7
 10
59.264299999999992
 20
191.09599999999989
 30
0.0
 11
51.942399999999999
 21
191.09599999999989
 31
0.0
  0
LINE
  5
121
  8
0
 62
     7
 10
51.512799999999991
 20
199.09599999999989
 30
0.0
 11
51.512799999999991
 21
191.09599999999989
 31
0.0
  0
LINE
  5
122
  8
0
 62
     7
 10
59.612900000000003
 20
199.09599999999989
 30
0.0
 11
59.612900000000003
 21
191.09599999999989
 31
0.0
  0
LINE
  5
123
  8
0
 62
     7
 10
59.612900000000003
 20
191.09599999999989
 30
0.0
 11
59.3628
 21
190.845
 31
0.0
  0
LINE
  5
124
  8
0
 62
     7
 10
51.512799999999991
 20
191.09599999999989
 30
0.0
 11
51.762900000000002
 21
190.845
 31
0.0
  0
LINE
  5
125
  8
0
 62
     7
 10
59.3628
 20
174.7229999999999
 30
0.0
 11
59.3628
 21
190.845
 31
0.0
  0
ARC
  5
126
  8
0
 62
     7
 10
59.71009699999999
 20
185.75856599999989
 30
0.0
 40
1.1581609999999991
 50
252.53316799999999
 51
269.88001000000003
  0
ARC
  5
127
  8
0
 62
     7
 10
59.721972999999998
 20
186.14351600000001
 30
0.0
 40
1.210313999999999
 50
90.677018000000004
 51
107.26233499999989
  0
ARC
  5
128
  8
0
 62
     7
 10
59.705342999999999
 20
186.20176599999999
 30
0.0
 40
1.1519820000000001
 50
64.172771999999995
 51
89.884156000000004
  0
ARC
  5
129
  8
0
 62
     7
 10
59.459206999999992
 20
185.9425159999999
 30
0.0
 40
1.496685
 50
1.3231580000000001
 51
59.999611999999999
  0
ARC
  5
12A
  8
0
 62
     7
 10
59.483227999999997
 20
185.97071500000001
 30
0.0
 40
1.472269
 50
326.88766600000002
 51
359.87217500000003
  0
ARC
  5
12B
  8
0
 62
     7
 10
59.680995999999993
 20
185.8297959999999
 30
0.0
 40
1.2296769999999999
 50
271.24305600000002
 51
327.35347599999989
  0
ARC
  5
12C
  8
0
 62
     7
 10
60.023893999999991
 20
185.415561
 30
0.0
 40
1.039115999999999
 50
272.13022399999988
 51
357.86978599999992
  0
ARC
  5
12D
  8
0
 62
     7
 10
60.024281000000009
 20
186.53897799999999
 30
0.0
 40
1.0387150000000001
 50
2.1096710000000001
 51
87.890318999999991
  0
LINE
  5
12E
  8
0
 62
     7
 10
61.062600000000003
 20
185.37700000000001
 30
0.0
 11
61.062600000000003
 21
186.57699999999991
 31
0.0
  0
LINE
  5
12F
  8
0
 62
     7
 10
59.3628
 20
187.57699999999991
 30
0.0
 11
60.0625
 21
187.57699999999991
 31
0.0
  0
ARC
  5
130
  8
0
 62
     7
 10
51.100386999999998
 20
185.41517400000001
 30
0.0
 40
1.038713999999999
 50
182.10967400000001
 51
267.890356
  0
ARC
  5
131
  8
0
 62
     7
 10
51.100785000000002
 20
186.53858099999999
 30
0.0
 40
1.0391259999999991
 50
92.130750999999989
 51
177.8692189999999
  0
LINE
  5
132
  8
0
 62
     7
 10
50.062399999999997
 20
185.37700000000001
 30
0.0
 11
50.062399999999997
 21
186.57699999999991
 31
0.0
  0
ARC
  5
133
  8
0
 62
     7
 10
59.77791899999999
 20
183.96172899999991
 30
0.0
 40
0.415723
 50
92.132546999999974
 51
177.916753
  0
LINE
  5
134
  8
0
 62
     7
 10
59.3628
 20
183.124
 30
0.0
 11
59.3628
 21
183.976
 31
0.0
  0
LINE
  5
135
  8
0
 62
     7
 10
59.7624
 20
184.37700000000001
 30
0.0
 11
60.0625
 21
184.37700000000001
 31
0.0
  0
ARC
  5
136
  8
0
 62
     7
 10
51.332934999999999
 20
183.95212199999989
 30
0.0
 40
0.4303180000000001
 50
3.2930890000000002
 51
81.018232000000012
  0
LINE
  5
137
  8
0
 62
     7
 10
51.399799999999999
 20
184.37700000000001
 30
0.0
 11
51.0625
 21
184.37700000000001
 31
0.0
  0
LINE
  5
138
  8
0
 62
     7
 10
51.762900000000002
 20
174.7229999999999
 30
0.0
 11
51.762900000000002
 21
190.845
 31
0.0
  0
LINE
  5
139
  8
0
 62
     7
 10
59.3628
 20
184.37700000000001
 30
0.0
 11
59.7624
 21
184.37700000000001
 31
0.0
  0
LINE
  5
13A
  8
0
 62
     7
 10
51.399799999999999
 20
184.37700000000001
 30
0.0
 11
51.762900000000002
 21
184.37700000000001
 31
0.0
  0
ARC
  5
13B
  8
0
 62
     7
 10
55.557529000000002
 20
222.38023799999991
 30
0.0
 40
4.0328429999999988
 50
270.07562799999988
 51
287.68175799999989
  0
LINE
  5
13C
  8
0
 62
     7
 10
62.761400000000002
 20
65.002099999999999
 30
0.0
 11
48.361199999999997
 21
65.002099999999999
 31
0.0
  0
LINE
  5
13D
  8
0
 62
     7
 10
59.361400000000003
 20
57.001899999999999
 30
0.0
 11
51.761200000000002
 21
57.001899999999999
 31
0.0
  0
LINE
  5
13E
  8
0
 62
     7
 10
51.761200000000002
 20
174.7229999999999
 30
0.0
 11
51.761200000000002
 21
68.202299999999994
 31
0.0
  0
LINE
  5
13F
  8
0
 62
     7
 10
59.361400000000003
 20
174.7229999999999
 30
0.0
 11
59.361400000000003
 21
68.202299999999994
 31
0.0
  0
LINE
  5
140
  8
0
 62
     7
 10
59.361400000000003
 20
57.001899999999999
 30
0.0
 11
59.361400000000003
 21
65.002499999999998
 31
0.0
  0
LINE
  5
141
  8
0
 62
     7
 10
51.761200000000002
 20
57.001899999999999
 30
0.0
 11
51.761200000000002
 21
65.002499999999998
 31
0.0
  0
ARC
  5
142
  8
0
 62
     7
 10
60.761016000000012
 20
66.201890000000006
 30
0.0
 40
2.0004080000000002
 50
359.99507599999998
 51
89.995045999999988
  0
LINE
  5
143
  8
0
 62
     7
 10
62.761400000000002
 20
65.002099999999999
 30
0.0
 11
62.761400000000002
 21
66.201700000000002
 31
0.0
  0
ARC
  5
144
  8
0
 62
     7
 10
50.361414000000003
 20
66.202061999999998
 30
0.0
 40
2.0002349999999991
 50
90.009868000000012
 51
180.00987799999999
  0
LINE
  5
145
  8
0
 62
     7
 10
48.361199999999997
 20
65.002099999999999
 30
0.0
 11
48.361199999999997
 21
66.201700000000002
 31
0.0
  0
LINE
  5
146
  8
0
 62
     7
 10
60.761499999999998
 20
68.202299999999994
 30
0.0
 11
50.361400000000003
 21
68.202299999999994
 31
0.0
  0
LINE
  5
147
  8
0
 62
     7
 10
120.25399999999991
 20
243.51899999999989
 30
0.0
 11
137.054
 21
243.51899999999989
 31
0.0
  0
LINE
  5
148
  8
0
 62
     7
 10
107.072
 20
243.51899999999989
 30
0.0
 11
116.63499999999991
 21
243.51899999999989
 31
0.0
  0
LINE
  5
149
  8
0
 62
     7
 10
120.255
 20
235.91900000000001
 30
0.0
 11
137.054
 21
235.91900000000001
 31
0.0
  0
LINE
  5
14A
  8
0
 62
     7
 10
107.072
 20
235.91900000000001
 30
0.0
 11
116.63499999999991
 21
235.91900000000001
 31
0.0
  0
LINE
  5
14B
  8
0
  6
AIGENLINE001
 62
     7
 10
137.05500000000001
 20
231.77000000000001
 30
0.0
 11
137.05500000000001
 21
247.61999999999989
 31
0.0
  0
ARC
  5
14C
  8
0
 62
     7
 10
137.05365399999999
 20
239.71918400000001
 30
0.0
 40
3.7999649999999998
 50
270.00002000000001
 51
359.99998999999991
  0
ARC
  5
14D
  8
0
 62
     7
 10
136.90860000000001
 20
239.57556700000001
 30
0.0
 40
3.9476330000000002
 50
2.084900999999999
 51
87.403756000000001
  0
LINE
  5
14E
  8
0
  6
AIGENLINE001
 62
     7
 10
120.255
 20
233.80699999999999
 30
0.0
 11
120.255
 21
245.625
 31
0.0
  0
ARC
  5
14F
  8
0
 62
     7
 10
120.2533719999999
 20
239.71935199999999
 30
0.0
 40
3.7999469999999991
 50
89.488369999999989
 51
179.488257
  0
ARC
  5
150
  8
0
 62
     7
 10
120.25402699999999
 20
239.71966399999999
 30
0.0
 40
3.8005989999999992
 50
179.4930469999999
 51
269.48369200000002
  0
LINE
  5
151
  8
0
 62
     7
 10
120.2199999999999
 20
235.91900000000001
 30
0.0
 11
120.25399999999991
 21
235.91900000000001
 31
0.0
  0
ARC
  5
152
  8
0
 62
     7
 10
120.2533279999999
 20
239.71960999999999
 30
0.0
 40
4.6998300000000004
 50
53.958196999999998
 51
143.96264099999991
  0
ARC
  5
153
  8
0
 62
     7
 10
120.25397599999999
 20
239.71945099999991
 30
0.0
 40
4.7004469999999996
 50
143.9657159999999
 51
233.95514199999991
  0
ARC
  5
154
  8
0
 62
     7
 10
120.2669299999999
 20
239.76110499999999
 30
0.0
 40
4.7417699999999989
 50
234.12474499999999
 51
269.83822900000001
  0
ARC
  5
155
  8
0
 62
     7
 10
120.24004099999991
 20
239.761697
 30
0.0
 40
4.7423619999999991
 50
270.163115
 51
305.88716699999992
  0
LINE
  5
156
  8
0
 62
     7
 10
115.15299999999991
 20
241.209
 30
0.0
 11
115.15299999999991
 21
238.2299999999999
 31
0.0
  0
LINE
  5
157
  8
0
 62
     7
 10
116.4139999999999
 20
236.04699999999991
 30
0.0
 11
118.9929999999999
 21
234.55799999999991
 31
0.0
  0
ARC
  5
158
  8
0
 62
     7
 10
117.7235129999999
 20
238.258838
 30
0.0
 40
2.5702910000000001
 50
180.65370300000001
 51
239.360758
  0
LINE
  5
159
  8
0
 62
     7
 10
116.4139999999999
 20
243.39099999999999
 30
0.0
 11
118.9929999999999
 21
244.88099999999989
 31
0.0
  0
ARC
  5
15A
  8
0
 62
     7
 10
117.723277
 20
241.18001399999989
 30
0.0
 40
2.5700500000000002
 50
120.6363139999999
 51
179.35705999999999
  0
LINE
  5
15B
  8
0
 62
     7
 10
121.51300000000001
 20
244.88099999999989
 30
0.0
 11
123.872
 21
243.51899999999989
 31
0.0
  0
ARC
  5
15C
  8
0
 62
     7
 10
120.2533679999999
 20
242.63899499999999
 30
0.0
 40
2.5715330000000001
 50
60.659403000000012
 51
119.340577
  0
LINE
  5
15D
  8
0
 62
     7
 10
121.51300000000001
 20
234.55799999999991
 30
0.0
 11
123.872
 21
235.91900000000001
 31
0.0
  0
ARC
  5
15E
  8
0
 62
     7
 10
120.25663400000001
 20
236.75243399999999
 30
0.0
 40
2.5323489999999991
 50
240.0746299999999
 51
269.93001600000002
  0
ARC
  5
15F
  8
0
 62
     7
 10
120.2497399999999
 20
236.75378299999991
 30
0.0
 40
2.5336989999999999
 50
270.08595000000003
 51
299.91727700000001
  0
LINE
  5
160
  8
0
  6
AIGENLINE001
 62
     7
 10
103.45399999999999
 20
183.12299999999991
 30
0.0
 11
103.45399999999999
 21
223.4609999999999
 31
0.0
  0
ARC
  5
161
  8
0
 62
     7
 10
111.85503300000001
 20
183.12348600000001
 30
0.0
 40
4.5999210000000001
 50
270.00002000000001
 51
359.99998999999991
  0
ARC
  5
162
  8
0
 62
     7
 10
111.85468999999991
 20
183.12383099999991
 30
0.0
 40
4.6002660000000004
 50
180.00432000000001
 51
270.00429100000002
  0
ARC
  5
163
  8
0
 62
     7
 10
111.85503199999999
 20
183.123143
 30
0.0
 40
12.19985099999999
 50
270.00002000000001
 51
359.99998999999991
  0
ARC
  5
164
  8
0
 62
     7
 10
111.85503199999999
 20
183.12348399999999
 30
0.0
 40
12.200191999999999
 50
179.99996999999991
 51
270.00002000000001
  0
LINE
  5
165
  8
0
 62
     7
 10
144.25499999999991
 20
64.922899999999998
 30
0.0
 11
129.8549999999999
 21
64.922899999999998
 31
0.0
  0
LINE
  5
166
  8
0
 62
     7
 10
140.8549999999999
 20
56.922600000000003
 30
0.0
 11
133.25499999999991
 21
56.922600000000003
 31
0.0
  0
LINE
  5
167
  8
0
  6
AIGENLINE001
 62
     7
 10
137.05500000000001
 20
53.44619999999999
 30
0.0
 11
137.05500000000001
 21
188.52399999999989
 31
0.0
  0
LINE
  5
168
  8
0
  6
AIGENLINE001
 62
     7
 10
120.255
 20
183.124
 30
0.0
 11
120.255
 21
188.52399999999989
 31
0.0
  0
ARC
  5
169
  8
0
  6
AIGENLINE001
 62
     7
 10
111.85486
 20
183.12331499999991
 30
0.0
 40
8.4000589999999988
 50
270.00119499999988
 51
0.001165
  0
ARC
  5
16A
  8
0
  6
AIGENLINE001
 62
     7
 10
111.85486
 20
183.12365600000001
 30
0.0
 40
8.4003999999999994
 50
180.00118499999999
 51
270.00119499999988
  0
ARC
  5
16B
  8
0
  6
AIGENLINE001
 62
     7
 10
128.65514999999991
 20
188.52370500000001
 30
0.0
 40
8.3998860000000004
 50
90.002349999999993
 51
180.00236000000001
  0
ARC
  5
16C
  8
0
  6
AIGENLINE001
 62
     7
 10
128.6548019999999
 20
188.52336099999999
 30
0.0
 40
8.4002309999999998
 50
0.00001
 51
89.999980000000008
  0
LINE
  5
16D
  8
0
 62
     7
 10
107.25399999999991
 20
202.4959999999999
 30
0.0
 11
107.25399999999991
 21
218.124
 31
0.0
  0
LINE
  5
16E
  8
0
 62
     7
 10
99.654799999999994
 20
202.4959999999999
 30
0.0
 11
99.654799999999994
 21
218.124
 31
0.0
  0
LINE
  5
16F
  8
0
 62
     7
 10
140.8549999999999
 20
56.922600000000003
 30
0.0
 11
140.8549999999999
 21
64.922899999999998
 31
0.0
  0
LINE
  5
170
  8
0
 62
     7
 10
140.8549999999999
 20
68.122699999999995
 30
0.0
 11
140.8549999999999
 21
188.52399999999989
 31
0.0
  0
LINE
  5
171
  8
0
 62
     7
 10
133.25499999999991
 20
56.922600000000003
 30
0.0
 11
133.25499999999991
 21
64.922899999999998
 31
0.0
  0
LINE
  5
172
  8
0
 62
     7
 10
133.25499999999991
 20
68.122699999999995
 30
0.0
 11
133.25499999999991
 21
188.52399999999989
 31
0.0
  0
ARC
  5
173
  8
0
 62
     7
 10
128.83032600000001
 20
188.34783999999991
 30
0.0
 40
4.7786669999999987
 50
92.104958000000025
 51
177.89501200000001
  0
ARC
  5
174
  8
0
 62
     7
 10
128.65480299999999
 20
188.52336199999999
 30
0.0
 40
4.5999210000000001
 50
0.00001
 51
89.999980000000008
  0
ARC
  5
175
  8
0
 62
     7
 10
128.654978
 20
188.52353299999999
 30
0.0
 40
12.200024000000001
 50
90.000809000000004
 51
180.00081899999989
  0
ARC
  5
176
  8
0
 62
     7
 10
128.65497400000001
 20
188.52318799999989
 30
0.0
 40
12.20036799999999
 50
0.000819
 51
90.000788999999983
  0
LINE
  5
177
  8
0
 62
     7
 10
103.45399999999999
 20
199.09599999999989
 30
0.0
 11
107.95399999999989
 21
199.09599999999989
 31
0.0
  0
LINE
  5
178
  8
0
 62
     7
 10
103.45399999999999
 20
199.09599999999989
 30
0.0
 11
98.954800000000006
 21
199.09599999999989
 31
0.0
  0
LINE
  5
179
  8
0
 62
     7
 10
98.954800000000006
 20
199.29599999999999
 30
0.0
 11
98.954800000000006
 21
199.09599999999989
 31
0.0
  0
LINE
  5
17A
  8
0
 62
     7
 10
107.95399999999989
 20
199.29599999999999
 30
0.0
 11
107.95399999999989
 21
199.09599999999989
 31
0.0
  0
LINE
  5
17B
  8
0
 62
     7
 10
107.15600000000001
 20
191.09599999999989
 30
0.0
 11
99.834699999999998
 21
191.09599999999989
 31
0.0
  0
LINE
  5
17C
  8
0
 62
     7
 10
99.405100000000004
 20
199.09599999999989
 30
0.0
 11
99.405100000000004
 21
191.09599999999989
 31
0.0
  0
LINE
  5
17D
  8
0
 62
     7
 10
107.505
 20
199.09599999999989
 30
0.0
 11
107.505
 21
191.09599999999989
 31
0.0
  0
LINE
  5
17E
  8
0
 62
     7
 10
107.505
 20
191.09599999999989
 30
0.0
 11
107.25399999999991
 21
190.845
 31
0.0
  0
LINE
  5
17F
  8
0
 62
     7
 10
99.405100000000004
 20
191.09599999999989
 30
0.0
 11
99.654799999999994
 21
190.845
 31
0.0
  0
LINE
  5
180
  8
0
 62
     7
 10
99.654799999999994
 20
183.124
 30
0.0
 11
99.654799999999994
 21
190.84599999999989
 31
0.0
  0
LINE
  5
181
  8
0
 62
     7
 10
107.25399999999991
 20
183.124
 30
0.0
 11
107.25399999999991
 21
190.84599999999989
 31
0.0
  0
ARC
  5
182
  8
0
 62
     7
 10
124.470326
 20
183.96173400000001
 30
0.0
 40
0.415717
 50
92.131861999999998
 51
177.91743699999989
  0
LINE
  5
183
  8
0
 62
     7
 10
124.05500000000001
 20
183.124
 30
0.0
 11
124.05500000000001
 21
183.976
 31
0.0
  0
LINE
  5
184
  8
0
 62
     7
 10
124.05500000000001
 20
187.57699999999991
 30
0.0
 11
124.05500000000001
 21
188.52399999999989
 31
0.0
  0
ARC
  5
185
  8
0
 62
     7
 10
116.025347
 20
183.95212199999989
 30
0.0
 40
0.4303180000000001
 50
3.2930890000000002
 51
81.018232000000012
  0
LINE
  5
186
  8
0
 62
     7
 10
116.4549999999999
 20
183.124
 30
0.0
 11
116.4549999999999
 21
183.976
 31
0.0
  0
LINE
  5
187
  8
0
 62
     7
 10
116.4549999999999
 20
187.57699999999991
 30
0.0
 11
116.4549999999999
 21
188.52399999999989
 31
0.0
  0
ARC
  5
188
  8
0
 62
     7
 10
142.17861799999989
 20
66.046348999999992
 30
0.0
 40
2.0777739999999998
 50
2.109329999999999
 51
87.890659999999997
  0
LINE
  5
189
  8
0
 62
     7
 10
144.25499999999991
 20
64.922899999999998
 30
0.0
 11
144.25499999999991
 21
66.122799999999998
 31
0.0
  0
ARC
  5
18A
  8
0
 62
     7
 10
131.931127
 20
66.046683000000002
 30
0.0
 40
2.077440999999999
 50
92.110303999999999
 51
177.89953700000001
  0
LINE
  5
18B
  8
0
 62
     7
 10
129.8549999999999
 20
64.922899999999998
 30
0.0
 11
129.8549999999999
 21
66.122799999999998
 31
0.0
  0
LINE
  5
18C
  8
0
 62
     7
 10
142.255
 20
68.122699999999995
 30
0.0
 11
131.8549999999999
 21
68.122699999999995
 31
0.0
  0
LINE
  5
18D
  8
0
  6
AIGENLINE001
 62
     7
 10
103.45399999999999
 20
233.80699999999999
 30
0.0
 11
103.45399999999999
 21
245.625
 31
0.0
  0
LINE
  5
18E
  8
0
  6
AIGENLINE001
 62
     7
 10
55.562899999999999
 20
55.421300000000002
 30
0.0
 11
55.562899999999999
 21
222.93599999999989
 31
0.0
  0
ARC
  5
18F
  8
0
 62
     7
 10
103.453253
 20
239.71901099999991
 30
0.0
 40
3.5999759999999998
 50
270.00276099999991
 51
0.002732
  0
ARC
  5
190
  8
0
 62
     7
 10
103.453253
 20
239.71935499999989
 30
0.0
 40
3.5999759999999998
 50
359.99726800000002
 51
89.997239000000008
  0
ARC
  5
191
  8
0
 62
     7
 10
103.45342699999991
 20
239.7191819999999
 30
0.0
 40
3.6001479999999999
 50
90.0
 51
179.99996999999991
  0
ARC
  5
192
  8
0
 62
     7
 10
103.45342599999999
 20
239.7191819999999
 30
0.0
 40
3.6001470000000002
 50
179.99996999999991
 51
270.00002000000001
  0
ARC
  5
193
  8
0
 62
     7
 10
103.453598
 20
239.719356
 30
0.0
 40
4.7000019999999987
 50
269.99792000000002
 51
359.99788999999993
  0
ARC
  5
194
  8
0
 62
     7
 10
103.45342599999999
 20
239.7191819999999
 30
0.0
 40
4.7001739999999987
 50
0.00001
 51
89.999980000000008
  0
ARC
  5
195
  8
0
 62
     7
 10
103.45342699999991
 20
239.7191819999999
 30
0.0
 40
4.7001739999999987
 50
90.0
 51
179.99996999999991
  0
ARC
  5
196
  8
0
 62
     7
 10
103.453253
 20
239.7193539999999
 30
0.0
 40
4.7000000000000002
 50
180.00210999999999
 51
270.00211999999999
  0
LINE
  5
197
  8
0
 62
     7
 10
98.353300000000004
 20
241.209
 30
0.0
 11
98.353300000000004
 21
238.2299999999999
 31
0.0
  0
LINE
  5
198
  8
0
 62
     7
 10
99.613200000000006
 20
236.04699999999991
 30
0.0
 11
102.193
 21
234.55799999999991
 31
0.0
  0
ARC
  5
199
  8
0
 62
     7
 10
100.923399
 20
238.258838
 30
0.0
 40
2.5702910000000001
 50
180.65370300000001
 51
239.360758
  0
LINE
  5
19A
  8
0
 62
     7
 10
99.613200000000006
 20
243.39099999999999
 30
0.0
 11
102.194
 21
244.88099999999989
 31
0.0
  0
ARC
  5
19B
  8
0
 62
     7
 10
100.9231629999999
 20
241.18001399999989
 30
0.0
 40
2.5700500000000002
 50
120.6363139999999
 51
179.35705999999999
  0
LINE
  5
19C
  8
0
 62
     7
 10
104.71299999999989
 20
244.88099999999989
 30
0.0
 11
107.29299999999991
 21
243.39099999999999
 31
0.0
  0
ARC
  5
19D
  8
0
 62
     7
 10
103.45342599999999
 20
242.63930400000001
 30
0.0
 40
2.571178999999999
 50
60.659371999999998
 51
119.3406079999999
  0
LINE
  5
19E
  8
0
 62
     7
 10
108.553
 20
241.209
 30
0.0
 11
108.553
 21
238.2299999999999
 31
0.0
  0
ARC
  5
19F
  8
0
 62
     7
 10
105.982209
 20
241.179565
 30
0.0
 40
2.5711909999999989
 50
0.6526430000000003
 51
59.340377000000011
  0
LINE
  5
1A0
  8
0
 62
     7
 10
104.71299999999989
 20
234.55799999999991
 30
0.0
 11
107.29299999999991
 21
236.04699999999991
 31
0.0
  0
ARC
  5
1A1
  8
0
 62
     7
 10
105.9829159999999
 20
238.25873799999991
 30
0.0
 40
2.5704790000000002
 50
300.65070500000002
 51
359.35627399999998
  0
ARC
  5
1A2
  8
0
 62
     7
 10
103.456863
 20
236.7524259999999
 30
0.0
 40
2.532341999999999
 50
240.07456400000001
 51
269.92224900000002
  0
ARC
  5
1A3
  8
0
 62
     7
 10
103.44961499999999
 20
236.75382300000001
 30
0.0
 40
2.5337389999999989
 50
270.08619299999998
 51
299.917033
  0
ARC
  5
1A4
  8
0
 62
     7
 10
103.453253
 20
239.71901199999999
 30
0.0
 40
4.4998409999999991
 50
270.00221299999993
 51
0.002183
  0
ARC
  5
1A5
  8
0
 62
     7
 10
103.453253
 20
239.71935499999989
 30
0.0
 40
4.4998409999999991
 50
359.99781699999988
 51
89.997787000000002
  0
ARC
  5
1A6
  8
0
 62
     7
 10
103.45342699999991
 20
239.7191819999999
 30
0.0
 40
4.500013
 50
90.0
 51
179.99996999999991
  0
ARC
  5
1A7
  8
0
 62
     7
 10
103.45342599999999
 20
239.7191819999999
 30
0.0
 40
4.5000109999999989
 50
179.99996999999991
 51
270.00002000000001
  0
ARC
  5
1A8
  8
0
 62
     7
 10
55.562680999999998
 20
174.723086
 30
0.0
 40
3.7999849999999991
 50
179.4260139999999
 51
269.4259689999999
  0
ARC
  5
1A9
  8
0
 62
     7
 10
55.562506000000013
 20
174.72325699999999
 30
0.0
 40
3.800154
 50
269.42863899999998
 51
359.42860999999999
  0
ARC
  5
1AA
  8
0
 62
     7
 10
58.003492000000001
 20
174.71660499999999
 30
0.0
 40
1.359337999999999
 50
358.682908
 51
0.265823
  0
LINE
  5
1AB
  8
0
 62
     7
 10
51.0625
 20
187.57699999999991
 30
0.0
 11
51.762900000000002
 21
187.57699999999991
 31
0.0
  0
LINE
  5
1AC
  8
0
 62
     7
 10
122.46599999999999
 20
160.77099999999999
 30
0.0
 11
120.255
 21
160.17799999999991
 31
0.0
  0
LINE
  5
1AD
  8
0
 62
     7
 10
120.255
 20
160.17799999999991
 30
0.0
 11
122.46599999999999
 21
159.58600000000001
 31
0.0
  0
LINE
  5
1AE
  8
0
 62
     7
 10
122.46599999999999
 20
159.58600000000001
 30
0.0
 11
122.46599999999999
 21
160.77099999999999
 31
0.0
  0
LINE
  5
1AF
  8
0
 62
     7
 10
134.84499999999991
 20
159.60099999999991
 30
0.0
 11
137.05600000000001
 21
160.1929999999999
 31
0.0
  0
LINE
  5
1B0
  8
0
 62
     7
 10
137.05600000000001
 20
160.1929999999999
 30
0.0
 11
134.84499999999991
 21
160.785
 31
0.0
  0
LINE
  5
1B1
  8
0
 62
     7
 10
134.84499999999991
 20
160.785
 30
0.0
 11
134.84499999999991
 21
159.60099999999991
 31
0.0
  0
LINE
  5
1B2
  8
0
 62
     7
 10
120.255
 20
160.17799999999991
 30
0.0
 11
137.05600000000001
 21
160.17799999999991
 31
0.0
  0
LINE
  5
1B3
  8
0
 62
     7
 10
135.46600000000001
 20
87.868099999999998
 30
0.0
 11
133.25499999999991
 21
87.275800000000004
 31
0.0
  0
LINE
  5
1B4
  8
0
 62
     7
 10
133.25499999999991
 20
87.275800000000004
 30
0.0
 11
135.46600000000001
 21
86.683599999999984
 31
0.0
  0
LINE
  5
1B5
  8
0
 62
     7
 10
135.46600000000001
 20
86.683599999999984
 30
0.0
 11
135.46600000000001
 21
87.868099999999998
 31
0.0
  0
LINE
  5
1B6
  8
0
 62
     7
 10
138.64500000000001
 20
86.698099999999997
 30
0.0
 11
140.8549999999999
 21
87.290299999999988
 31
0.0
  0
LINE
  5
1B7
  8
0
 62
     7
 10
140.8549999999999
 20
87.290299999999988
 30
0.0
 11
138.64500000000001
 21
87.882499999999993
 31
0.0
  0
LINE
  5
1B8
  8
0
 62
     7
 10
138.64500000000001
 20
87.882499999999993
 30
0.0
 11
138.64500000000001
 21
86.698099999999997
 31
0.0
  0
LINE
  5
1B9
  8
0
 62
     7
 10
124.267
 20
87.275800000000004
 30
0.0
 11
140.8549999999999
 21
87.275800000000004
 31
0.0
  0
LINE
  5
1BA
  8
0
 62
     7
 10
132.06599999999989
 20
44.269100000000002
 30
0.0
 11
129.8549999999999
 21
43.676900000000003
 31
0.0
  0
LINE
  5
1BB
  8
0
 62
     7
 10
129.8549999999999
 20
43.676900000000003
 30
0.0
 11
132.06599999999989
 21
43.084600000000002
 31
0.0
  0
LINE
  5
1BC
  8
0
 62
     7
 10
132.06599999999989
 20
43.084600000000002
 30
0.0
 11
132.06599999999989
 21
44.269100000000002
 31
0.0
  0
LINE
  5
1BD
  8
0
 62
     7
 10
142.0439999999999
 20
43.0991
 30
0.0
 11
144.25499999999991
 21
43.691299999999998
 31
0.0
  0
LINE
  5
1BE
  8
0
 62
     7
 10
144.25499999999991
 20
43.691299999999998
 30
0.0
 11
142.0439999999999
 21
44.283499999999997
 31
0.0
  0
LINE
  5
1BF
  8
0
 62
     7
 10
142.0439999999999
 20
44.283499999999997
 30
0.0
 11
142.0439999999999
 21
43.0991
 31
0.0
  0
LINE
  5
1C0
  8
0
 62
     7
 10
129.8549999999999
 20
43.676900000000003
 30
0.0
 11
144.25499999999991
 21
43.676900000000003
 31
0.0
  0
LINE
  5
1C1
  8
0
 62
     7
 10
129.8549999999999
 20
63.922800000000002
 30
0.0
 11
129.8549999999999
 21
42.906500000000001
 31
0.0
  0
LINE
  5
1C2
  8
0
 62
     7
 10
144.25499999999991
 20
63.922800000000002
 30
0.0
 11
144.25499999999991
 21
42.906500000000001
 31
0.0
  0
LINE
  5
1C3
  8
0
 62
     7
 10
105.66500000000001
 20
160.756
 30
0.0
 11
103.45399999999999
 21
160.1639999999999
 31
0.0
  0
LINE
  5
1C4
  8
0
 62
     7
 10
103.45399999999999
 20
160.1639999999999
 30
0.0
 11
105.66500000000001
 21
159.572
 31
0.0
  0
LINE
  5
1C5
  8
0
 62
     7
 10
105.66500000000001
 20
159.572
 30
0.0
 11
105.66500000000001
 21
160.756
 31
0.0
  0
LINE
  5
1C6
  8
0
 62
     7
 10
118.0449999999999
 20
159.58600000000001
 30
0.0
 11
120.255
 21
160.17799999999991
 31
0.0
  0
LINE
  5
1C7
  8
0
 62
     7
 10
120.255
 20
160.17799999999991
 30
0.0
 11
118.0449999999999
 21
160.77099999999999
 31
0.0
  0
LINE
  5
1C8
  8
0
 62
     7
 10
118.0449999999999
 20
160.77099999999999
 30
0.0
 11
118.0449999999999
 21
159.58600000000001
 31
0.0
  0
LINE
  5
1C9
  8
0
 62
     7
 10
103.45399999999999
 20
160.1639999999999
 30
0.0
 11
120.255
 21
160.1639999999999
 31
0.0
  0
LINE
  5
1CA
  8
0
 62
     7
 10
103.45399999999999
 20
180.41
 30
0.0
 11
103.45399999999999
 21
159.39400000000001
 31
0.0
  0
LINE
  5
1CB
  8
0
 62
     7
 10
120.255
 20
180.41
 30
0.0
 11
120.255
 21
159.39400000000001
 31
0.0
  0
LINE
  5
1CC
  8
0
 62
     7
 10
111.277
 20
194.71299999999991
 30
0.0
 11
111.87
 21
196.92400000000001
 31
0.0
  0
LINE
  5
1CD
  8
0
 62
     7
 10
111.87
 20
196.92400000000001
 30
0.0
 11
112.4619999999999
 21
194.71299999999991
 31
0.0
  0
LINE
  5
1CE
  8
0
 62
     7
 10
112.4619999999999
 20
194.71299999999991
 30
0.0
 11
111.277
 21
194.71299999999991
 31
0.0
  0
LINE
  5
1CF
  8
0
 62
     7
 10
112.447
 20
176.934
 30
0.0
 11
111.855
 21
174.7229999999999
 31
0.0
  0
LINE
  5
1D0
  8
0
 62
     7
 10
111.855
 20
174.7229999999999
 30
0.0
 11
111.26300000000001
 21
176.934
 31
0.0
  0
LINE
  5
1D1
  8
0
 62
     7
 10
111.26300000000001
 20
176.934
 30
0.0
 11
112.447
 21
176.934
 31
0.0
  0
LINE
  5
1D2
  8
0
 62
     7
 10
111.86199999999999
 20
196.92400000000001
 30
0.0
 11
111.86199999999999
 21
174.7229999999999
 31
0.0
  0
LINE
  5
1D3
  8
0
 62
     7
 10
124.479
 20
62.712499999999999
 30
0.0
 11
125.0709999999999
 21
64.922899999999998
 31
0.0
  0
LINE
  5
1D4
  8
0
 62
     7
 10
125.0709999999999
 20
64.922899999999998
 30
0.0
 11
125.6629999999999
 21
62.712499999999999
 31
0.0
  0
LINE
  5
1D5
  8
0
 62
     7
 10
125.6629999999999
 20
62.712499999999999
 30
0.0
 11
124.479
 21
62.712499999999999
 31
0.0
  0
LINE
  5
1D6
  8
0
 62
     7
 10
125.65600000000001
 20
70.306600000000003
 30
0.0
 11
125.06399999999989
 21
68.095799999999997
 31
0.0
  0
LINE
  5
1D7
  8
0
 62
     7
 10
125.06399999999989
 20
68.095799999999997
 30
0.0
 11
124.47199999999999
 21
70.306600000000003
 31
0.0
  0
LINE
  5
1D8
  8
0
 62
     7
 10
124.47199999999999
 20
70.306600000000003
 30
0.0
 11
125.65600000000001
 21
70.306600000000003
 31
0.0
  0
LINE
  5
1D9
  8
0
 62
     7
 10
125.06399999999989
 20
72.013999999999996
 30
0.0
 11
125.06399999999989
 21
60.909300000000002
 31
0.0
  0
LINE
  5
1DA
  8
0
 62
     7
 10
129.518
 20
64.922899999999998
 30
0.0
 11
123.926
 21
64.922899999999998
 31
0.0
  0
LINE
  5
1DB
  8
0
 62
     7
 10
129.518
 20
68.122699999999995
 30
0.0
 11
123.926
 21
68.122699999999995
 31
0.0
  0
LINE
  5
1DC
  8
0
 62
     7
 10
92.680899999999994
 20
217.51400000000001
 30
0.0
 11
93.273099999999999
 21
219.72399999999999
 31
0.0
  0
LINE
  5
1DD
  8
0
 62
     7
 10
93.273099999999999
 20
219.72399999999999
 30
0.0
 11
93.865300000000005
 21
217.51400000000001
 31
0.0
  0
LINE
  5
1DE
  8
0
 62
     7
 10
93.865300000000005
 20
217.51400000000001
 30
0.0
 11
92.680899999999994
 21
217.51400000000001
 31
0.0
  0
LINE
  5
1DF
  8
0
 62
     7
 10
93.850899999999996
 20
176.934
 30
0.0
 11
93.258600000000001
 21
174.7229999999999
 31
0.0
  0
LINE
  5
1E0
  8
0
 62
     7
 10
93.258600000000001
 20
174.7229999999999
 30
0.0
 11
92.666399999999996
 21
176.934
 31
0.0
  0
LINE
  5
1E1
  8
0
 62
     7
 10
92.666399999999996
 20
176.934
 30
0.0
 11
93.850899999999996
 21
176.934
 31
0.0
  0
LINE
  5
1E2
  8
0
 62
     7
 10
93.265900000000016
 20
219.69699999999989
 30
0.0
 11
93.265900000000016
 21
174.696
 31
0.0
  0
LINE
  5
1E3
  8
0
 62
     7
 10
108.979
 20
174.7229999999999
 30
0.0
 11
92.127600000000015
 21
174.7229999999999
 31
0.0
  0
LINE
  5
1E4
  8
0
 62
     7
 10
97.720100000000016
 20
219.72399999999999
 30
0.0
 11
92.127600000000015
 21
219.72399999999999
 31
0.0
  0
LINE
  5
1E5
  8
0
 62
     7
 10
159.15399999999991
 20
194.71299999999991
 30
0.0
 11
158.56200000000001
 21
196.92400000000001
 31
0.0
  0
LINE
  5
1E6
  8
0
 62
     7
 10
158.56200000000001
 20
196.92400000000001
 30
0.0
 11
157.97
 21
194.71299999999991
 31
0.0
  0
LINE
  5
1E7
  8
0
 62
     7
 10
157.97
 20
194.71299999999991
 30
0.0
 11
159.15399999999991
 21
194.71299999999991
 31
0.0
  0
LINE
  5
1E8
  8
0
 62
     7
 10
157.98400000000001
 20
59.133400000000002
 30
0.0
 11
158.57599999999999
 21
56.922600000000003
 31
0.0
  0
LINE
  5
1E9
  8
0
 62
     7
 10
158.57599999999999
 20
56.922600000000003
 30
0.0
 11
159.1689999999999
 21
59.133400000000002
 31
0.0
  0
LINE
  5
1EA
  8
0
 62
     7
 10
159.1689999999999
 20
59.133400000000002
 30
0.0
 11
157.98400000000001
 21
59.133400000000002
 31
0.0
  0
LINE
  5
1EB
  8
0
 62
     7
 10
158.5689999999999
 20
196.92400000000001
 30
0.0
 11
158.5689999999999
 21
56.922600000000003
 31
0.0
  0
LINE
  5
1EC
  8
0
 62
     7
 10
142.85599999999999
 20
56.922600000000003
 30
0.0
 11
159.70699999999991
 21
56.922600000000003
 31
0.0
  0
LINE
  5
1ED
  8
0
 62
     7
 10
110.732
 20
196.92400000000001
 30
0.0
 11
159.70699999999991
 21
196.92400000000001
 31
0.0
  0
LINE
  5
1EE
  8
_________2
 62
     7
 10
205.30099999999999
 20
127.411
 30
0.0
 11
183.55000000000001
 21
127.411
 31
0.0
  0
LINE
  5
1EF
  8
_________2
 62
     7
 10
100.2999999999999
 20
-4.0910799999999998
 30
0.0
 11
100.2999999999999
 21
-21.071400000000001
 31
0.0
  0
LINE
  5
1F0
  8
_________2
 62
     7
 10
100.2999999999999
 20
275.93099999999993
 30
0.0
 11
100.2999999999999
 21
258.911
 31
0.0
  0
LINE
  5
1F1
  8
_________2
 62
     7
 10
17.049499999999998
 20
127.411
 30
0.0
 11
-4.70052
 21
127.411
 31
0.0
  0
LINE
  5
1F2
  8
_________2
 62
     7
 10
76.741
 20
29.8047
 30
0.0
 11
74.554699999999997
 21
29.8047
 31
0.0
  0
LINE
  5
1F3
  8
_________2
 62
     7
 10
77.233699999999999
 20
29.8047
 30
0.0
 11
76.981499999999997
 21
29.8047
 31
0.0
  0
LINE
  5
1F4
  8
_________2
 62
     7
 10
77.726299999999995
 20
29.8047
 30
0.0
 11
80.651200000000003
 21
29.8047
 31
0.0
  0
LINE
  5
1F5
  8
_________2
 62
     7
 10
77.233699999999999
 20
29.8047
 30
0.0
 11
77.485500000000002
 21
29.8047
 31
0.0
  0
LINE
  5
1F6
  8
_________2
 62
     7
 10
70.837100000000007
 20
29.8047
 30
0.0
 11
68.650499999999994
 21
29.8047
 31
0.0
  0
LINE
  5
1F7
  8
_________2
 62
     7
 10
71.329400000000007
 20
29.8047
 30
0.0
 11
71.077600000000004
 21
29.8047
 31
0.0
  0
LINE
  5
1F8
  8
_________2
 62
     7
 10
71.329400000000007
 20
30.2974
 30
0.0
 11
71.329400000000007
 21
32.484400000000001
 31
0.0
  0
LINE
  5
1F9
  8
_________2
 62
     7
 10
71.329400000000007
 20
29.8047
 30
0.0
 11
71.329400000000007
 21
30.056899999999992
 31
0.0
  0
LINE
  5
1FA
  8
_________2
 62
     7
 10
71.822100000000006
 20
29.8047
 30
0.0
 11
74.009
 21
29.8047
 31
0.0
  0
LINE
  5
1FB
  8
_________2
 62
     7
 10
71.329400000000007
 20
29.8047
 30
0.0
 11
71.581599999999995
 21
29.8047
 31
0.0
  0
LINE
  5
1FC
  8
_________2
 62
     7
 10
71.329400000000007
 20
29.312799999999999
 30
0.0
 11
71.329400000000007
 21
27.125800000000002
 31
0.0
  0
LINE
  5
1FD
  8
_________2
 62
     7
 10
71.329400000000007
 20
29.8047
 30
0.0
 11
71.329400000000007
 21
29.5532
 31
0.0
  0
LINE
  5
1FE
  8
_________2
 62
     7
 10
75.040499999999994
 20
28.5852
 30
0.0
 11
80.218500000000006
 21
27.720400000000001
 31
0.0
  0
LINE
  5
1FF
  8
_________2
 62
     7
 10
75.040499999999994
 20
31.0243
 30
0.0
 11
80.218500000000006
 21
31.889700000000001
 31
0.0
  0
LINE
  5
200
  8
_________2
 62
     7
 10
80.218500000000006
 20
27.720400000000001
 30
0.0
 11
80.218500000000006
 21
31.889700000000001
 31
0.0
  0
LINE
  5
201
  8
_________2
 62
     7
 10
75.040499999999994
 20
28.5852
 30
0.0
 11
75.040499999999994
 21
31.0243
 31
0.0
  0
ARC
  5
202
  8
_________2
 62
     7
 10
71.28285600000001
 20
29.757811
 30
0.0
 40
1.2673589999999999
 50
2.122214
 51
87.893958999999995
  0
ARC
  5
203
  8
_________2
 62
     7
 10
71.375959999999992
 20
29.758213000000001
 30
0.0
 40
1.2669559999999991
 50
92.104701000000006
 51
177.8952689999999
  0
ARC
  5
204
  8
_________2
 62
     7
 10
71.376357999999996
 20
29.851671
 30
0.0
 40
1.2673680000000001
 50
182.12203600000001
 51
267.877993
  0
ARC
  5
205
  8
_________2
 62
     7
 10
71.282531999999989
 20
29.851998999999989
 30
0.0
 40
1.267695999999999
 50
272.12015300000002
 51
357.863674
  0
ARC
  5
206
  8
_________2
 62
     7
 10
71.329430000000002
 20
29.804742999999998
 30
0.0
 40
2.0849849999999992
 50
0.00001
 51
89.999980000000008
  0
ARC
  5
207
  8
_________2
 62
     7
 10
71.329603000000006
 20
29.804915000000001
 30
0.0
 40
2.084813
 50
90.004733999999999
 51
180.00474399999999
  0
ARC
  5
208
  8
_________2
 62
     7
 10
71.409106000000008
 20
29.884775999999999
 30
0.0
 40
2.1657950000000001
 50
182.11776599999999
 51
267.89173399999999
  0
ARC
  5
209
  8
_________2
 62
     7
 10
71.249459000000002
 20
29.885429999999989
 30
0.0
 40
2.1664590000000001
 50
272.11546800000002
 51
357.86560400000002
  0
TEXT
  5
20A
  8
_________2
 62
     7
 10
104.605
 20
1.6794899999999999
 30
0.0
 40
3.0923400000000001
  1
図番
 41
0.5
  0
LINE
  5
20B
  8
_________2
 62
     7
 10
103.55
 20
5.9087199999999989
 30
0.0
 11
183.55099999999999
 21
5.9087199999999989
 31
0.0
  0
TEXT
  5
20C
  8
_________2
 62
     7
 10
104.605
 20
11.679299999999991
 30
0.0
 40
3.0923400000000001
  1
品番
 41
0.5
  0
TEXT
  5
20D
  8
_________2
 62
     7
 10
104.605
 20
31.818100000000001
 30
0.0
 40
3.0923400000000001
  1
名称
 41
0.5
  0
TEXT
  5
20E
  8
_________2
 62
     7
 10
91.845058333333341
 20
26.821999999999989
 30
0.0
 40
3.6545800000000002
  1
mm
 41
0.5
 72
     1
 11
93.367800000000003
 21
26.821999999999989
 31
0.0
  0
TEXT
  5
20F
  8
_________2
 62
     7
 10
85.643199999999993
 20
31.818100000000001
 30
0.0
 40
3.0923400000000001
  1
単位
 41
0.5
  0
TEXT
  5
210
  8
_________2
 62
     7
 10
85.643199999999993
 20
19.410799999999991
 30
0.0
 40
3.0923400000000001
  1
尺度
 41
0.5
  0
TEXT
  5
211
  8
_________2
 62
     7
 10
90.548758666666686
 20
13.2179
 30
0.0
 40
3.6545800000000002
  1
1 ： 5
 41
0.5
 72
     1
 11
93.959699999999998
 21
13.2179
 31
0.0
  0
TEXT
  5
212
  8
_________2
 62
     7
 10
137.15448749999999
 20
9.1078600000000005
 30
0.0
 40
3.9357000000000002
  1
CET038S
 41
0.5
 72
     1
 11
143.55000000000001
 21
9.1078600000000005
 31
0.0
  0
TEXT
  5
213
  8
_________2
 62
     7
 10
137.15448749999999
 20
-0.8926299999999999
 30
0.0
 40
3.9357000000000002
  1
CET038S
 41
0.5
 72
     1
 11
143.55000000000001
 21
-0.8926299999999999
 31
0.0
  0
TEXT
  5
214
  8
_________2
 62
     7
 10
134.5775410714285
 20
24.2257
 30
0.0
 40
3.9357000000000002
  1
%%c38 Sトラップ
 41
0.5
 72
     1
 11
143.55000000000001
 21
24.2257
 31
0.0
  0
TEXT
  5
215
  8
_________2
 62
     7
 10
39.425300333333333
 20
13.603
 30
0.0
 40
3.6545800000000002
  1
福田
 41
0.5
 72
     1
 11
41.313499999999998
 21
13.603
 31
0.0
  0
TEXT
  5
216
  8
_________2
 62
     7
 10
20.790090666666661
 20
13.603
 30
0.0
 40
3.6545800000000002
  1
石原
 41
0.5
 72
     1
 11
22.73919999999999
 21
13.603
 31
0.0
  0
TEXT
  5
217
  8
_________2
 62
     7
 10
67.785399999999996
 20
13.2179
 30
0.0
 40
3.6545800000000002
  1
05.08.16
 41
0.5
  0
TEXT
  5
218
  8
_________2
 62
     7
 10
66.593100000000007
 20
19.410799999999991
 30
0.0
 40
3.0923400000000001
  1
日付
 41
0.5
  0
TEXT
  5
219
  8
_________2
 62
     7
 10
29.639399999999998
 20
19.410799999999991
 30
0.0
 40
3.0923400000000001
  1
検図
 41
0.5
  0
TEXT
  5
21A
  8
_________2
 62
     7
 10
18.021100000000001
 20
5.21143
 30
0.0
 40
3.0923400000000001
  1
備考
 41
0.5
  0
TEXT
  5
21B
  8
_________2
 62
     7
 10
18.021100000000001
 20
19.410799999999991
 30
0.0
 40
3.0923400000000001
  1
製図
 41
0.5
  0
TEXT
  5
21C
  8
_________2
 62
     7
 10
23.788465333333338
 20
27.936800000000002
 30
0.0
 40
4.4979399999999989
  1
セラトレーディング株式会社
 41
0.5
 72
     1
 11
41.180500000000002
 21
27.936800000000002
 31
0.0
  0
LINE
  5
21D
  8
_________2
 62
     7
 10
183.55099999999999
 20
-4.0910799999999998
 30
0.0
 11
17.049499999999998
 21
-4.0910799999999998
 31
0.0
  0
LINE
  5
21E
  8
_________2
 62
     7
 10
17.049499999999998
 20
-4.0910799999999998
 30
0.0
 11
17.049499999999998
 21
258.911
 31
0.0
  0
LINE
  5
21F
  8
_________2
 62
     7
 10
17.049499999999998
 20
258.911
 30
0.0
 11
183.55099999999999
 21
258.911
 31
0.0
  0
LINE
  5
220
  8
_________2
 62
     7
 10
183.55099999999999
 20
258.911
 30
0.0
 11
183.55099999999999
 21
-4.0910799999999998
 31
0.0
  0
LINE
  5
221
  8
_________2
 62
     7
 10
65.549599999999998
 20
9.4089600000000004
 30
0.0
 11
65.549599999999998
 21
35.908799999999999
 31
0.0
  0
LINE
  5
222
  8
_________2
 62
     7
 10
84.549700000000016
 20
9.4089600000000004
 30
0.0
 11
84.549700000000016
 21
35.908799999999999
 31
0.0
  0
LINE
  5
223
  8
_________2
 62
     7
 10
103.55
 20
-4.0910799999999998
 30
0.0
 11
103.55
 21
35.908799999999999
 31
0.0
  0
LINE
  5
224
  8
_________2
 62
     7
 10
28.549299999999992
 20
9.4089600000000004
 30
0.0
 11
28.549299999999992
 21
23.409199999999998
 31
0.0
  0
LINE
  5
225
  8
_________2
 62
     7
 10
17.049499999999998
 20
9.4089600000000004
 30
0.0
 11
103.55
 21
9.4089600000000004
 31
0.0
  0
LINE
  5
226
  8
_________2
 62
     7
 10
17.049499999999998
 20
23.409199999999998
 30
0.0
 11
103.55
 21
23.409199999999998
 31
0.0
  0
LINE
  5
227
  8
_________2
 62
     7
 10
103.55
 20
15.9085
 30
0.0
 11
183.55099999999999
 21
15.9085
 31
0.0
  0
LINE
  5
228
  8
_________2
 62
     7
 10
17.049499999999998
 20
35.908799999999999
 30
0.0
 11
183.55099999999999
 21
35.908799999999999
 31
0.0
  0
ENDSEC
  0
EOF
