  0
SECTION
  2
HEADER
  9
$ACADVER
  1
AC1009
  9
$INSBASE
 10
0.0
 20
0.0
 30
0.0
  9
$EXTMIN
 10
0.238058
 20
0.4482100000000001
 30
0.0
  9
$EXTMAX
 10
210.24000000000001
 20
297.44999999999987
 30
0.0
  9
$LIMMIN
 10
0.0
 20
0.0
  9
$LIMMAX
 10
12.0
 20
9.0
  9
$ORTHOMODE
 70
     0
  9
$REGENMODE
 70
     1
  9
$FILLMODE
 70
     1
  9
$QTEXTMODE
 70
     0
  9
$MIRRTEXT
 70
     1
  9
$DRAGMODE
 70
     2
  9
$LTSCALE
 40
1.0
  9
$OSMODE
 70
    37
  9
$ATTMODE
 70
     1
  9
$TEXTSIZE
 40
0.0
  9
$TRACEWID
 40
0.05
  9
$TEXTSTYLE
  7
STANDARD
  9
$CLAYER
  8
0
  9
$CELTYPE
  6
CONTINUOUS
  9
$CECOLOR
 62
   256
  9
$DIMSCALE
 40
1.0
  9
$DIMASZ
 40
0.18
  9
$DIMEXO
 40
0.0625
  9
$DIMDLI
 40
0.38
  9
$DIMRND
 40
0.0
  9
$DIMDLE
 40
0.0
  9
$DIMEXE
 40
0.18
  9
$DIMTP
 40
0.0
  9
$DIMTM
 40
0.0
  9
$DIMTXT
 40
0.18
  9
$DIMCEN
 40
0.09
  9
$DIMTSZ
 40
0.0
  9
$DIMTOL
 70
     0
  9
$DIMLIM
 70
     0
  9
$DIMTIH
 70
     1
  9
$DIMTOH
 70
     1
  9
$DIMSE1
 70
     0
  9
$DIMSE2
 70
     0
  9
$DIMTAD
 70
     0
  9
$DIMZIN
 70
     0
  9
$DIMBLK
  1

  9
$DIMASO
 70
     1
  9
$DIMSHO
 70
     1
  9
$DIMPOST
  1

  9
$DIMAPOST
  1

  9
$DIMALT
 70
     0
  9
$DIMALTD
 70
     2
  9
$DIMALTF
 40
25.399999999999999
  9
$DIMLFAC
 40
1.0
  9
$DIMTOFL
 70
     0
  9
$DIMTVP
 40
0.0
  9
$DIMTIX
 70
     0
  9
$DIMSOXD
 70
     0
  9
$DIMSAH
 70
     0
  9
$DIMBLK1
  1

  9
$DIMBLK2
  1

  9
$DIMSTYLE
  2
STANDARD
  9
$DIMCLRD
 70
     0
  9
$DIMCLRE
 70
     0
  9
$DIMCLRT
 70
     0
  9
$DIMTFAC
 40
1.0
  9
$DIMGAP
 40
0.09
  9
$LUNITS
 70
     2
  9
$LUPREC
 70
     4
  9
$SKETCHINC
 40
0.1
  9
$FILLETRAD
 40
0.0
  9
$AUNITS
 70
     0
  9
$AUPREC
 70
     0
  9
$MENU
  1
.
  9
$ELEVATION
 40
0.0
  9
$PELEVATION
 40
0.0
  9
$THICKNESS
 40
0.0
  9
$LIMCHECK
 70
     0
  9
$BLIPMODE
 70
     0
  9
$CHAMFERA
 40
0.0
  9
$CHAMFERB
 40
0.0
  9
$SKPOLY
 70
     0
  9
$TDCREATE
 40
2444972.375
  9
$TDUPDATE
 40
2456309.4219521061
  9
$TDINDWG
 40
0.0000056829
  9
$TDUSRTIMER
 40
0.0000056829
  9
$USRTIMER
 70
     1
  9
$ANGBASE
 50
0.0
  9
$ANGDIR
 70
     0
  9
$PDMODE
 70
     0
  9
$PDSIZE
 40
0.0
  9
$PLINEWID
 40
0.0
  9
$COORDS
 70
     1
  9
$SPLFRAME
 70
     0
  9
$SPLINETYPE
 70
     6
  9
$SPLINESEGS
 70
     8
  9
$ATTDIA
 70
     0
  9
$ATTREQ
 70
     1
  9
$HANDLING
 70
     1
  9
$HANDSEED
  5
F4
  9
$SURFTAB1
 70
     6
  9
$SURFTAB2
 70
     6
  9
$SURFTYPE
 70
     6
  9
$SURFU
 70
     6
  9
$SURFV
 70
     6
  9
$UCSNAME
  2

  9
$UCSORG
 10
0.0
 20
0.0
 30
0.0
  9
$UCSXDIR
 10
1.0
 20
0.0
 30
0.0
  9
$UCSYDIR
 10
0.0
 20
1.0
 30
0.0
  9
$PUCSNAME
  2

  9
$PUCSORG
 10
0.0
 20
0.0
 30
0.0
  9
$PUCSXDIR
 10
1.0
 20
0.0
 30
0.0
  9
$PUCSYDIR
 10
0.0
 20
1.0
 30
0.0
  9
$USERI1
 70
     0
  9
$USERI2
 70
     0
  9
$USERI3
 70
     0
  9
$USERI4
 70
     0
  9
$USERI5
 70
     0
  9
$USERR1
 40
0.0
  9
$USERR2
 40
0.0
  9
$USERR3
 40
0.0
  9
$USERR4
 40
0.0
  9
$USERR5
 40
0.0
  9
$WORLDVIEW
 70
     1
  9
$SHADEDGE
 70
     3
  9
$SHADEDIF
 70
    70
  9
$TILEMODE
 70
     1
  9
$MAXACTVP
 70
    48
  9
$PLIMCHECK
 70
     0
  9
$PEXTMIN
 10
1.0000000000000000E+020
 20
1.0000000000000000E+020
 30
1.0000000000000000E+020
  9
$PEXTMAX
 10
-1.0000000000000000E+020
 20
-1.0000000000000000E+020
 30
-1.0000000000000000E+020
  9
$PLIMMIN
 10
0.0
 20
0.0
  9
$PLIMMAX
 10
12.0
 20
9.0
  9
$UNITMODE
 70
     0
  9
$VISRETAIN
 70
     1
  9
$PLINEGEN
 70
     0
  9
$PSLTSCALE
 70
     1
  0
ENDSEC
  0
SECTION
  2
TABLES
  0
TABLE
  2
VPORT
 70
     2
  0
VPORT
  2
*ACTIVE
 70
     0
 10
0.0
 20
0.0
 11
1.0
 21
1.0
 12
210.2887023820887
 22
148.72499999999991
 13
0.0
 23
0.0
 14
1.0
 24
1.0
 15
0.0
 25
0.0
 16
0.0
 26
0.0
 36
1.0
 17
0.0
 27
0.0
 37
0.0
 40
299.69773299748101
 41
2.2894736842105261
 42
50.0
 43
0.0
 44
0.0
 50
0.0
 51
0.0
 71
     0
 72
   100
 73
     1
 74
     1
 75
     0
 76
     0
 77
     0
 78
     0
  0
ENDTAB
  0
TABLE
  2
LTYPE
 70
     2
  0
LTYPE
  2
CONTINUOUS
 70
     0
  3
Solid line
 72
    65
 73
     0
 40
0.0
  0
LTYPE
  2
AIGENLINE001
 70
     0
  3
generate AI->DXF Converter
 72
    65
 73
     4
 40
5.8561449999999988
 49
3.5278
 49
-0.776115
 49
0.776115
 49
-0.776115
  0
ENDTAB
  0
TABLE
  2
LAYER
 70
     2
  0
LAYER
  2
0
 70
     0
 62
     7
  6
CONTINUOUS
  0
LAYER
  2
_________2
 70
     0
 62
     7
  6
CONTINUOUS
  0
ENDTAB
  0
TABLE
  2
STYLE
 70
     1
  0
STYLE
  2
STANDARD
 70
     0
 40
0.0
 41
0.0
 50
0.0
 71
     0
 42
0.0
  3
TXT
  4
EXTFONT.SHX
  0
ENDTAB
  0
TABLE
  2
VIEW
 70
     0
  0
ENDTAB
  0
TABLE
  2
UCS
 70
     0
  0
ENDTAB
  0
TABLE
  2
APPID
 70
     1
  0
APPID
  2
ACAD
 70
     0
  0
ENDTAB
  0
TABLE
  2
DIMSTYLE
 70
     1
  0
DIMSTYLE
  2
STANDARD
 70
     0
  3

  4

  5

  6

  7

 40
1.0
 41
0.18
 42
0.0625
 43
0.38
 44
0.18
 45
0.0
 46
0.0
 47
0.0
 48
0.0
140
0.18
141
0.09
142
0.0
143
25.399999999999999
144
1.0
145
0.0
146
1.0
147
0.09
 71
     0
 72
     0
 73
     1
 74
     1
 75
     0
 76
     0
 77
     0
 78
     0
170
     0
171
     2
172
     0
173
     0
174
     0
175
     0
176
     0
177
     0
178
     0
  0
ENDTAB
  0
ENDSEC
  0
SECTION
  2
BLOCKS
  0
BLOCK
  8
0
  2
$MODEL_SPACE
 70
     0
 10
0.0
 20
0.0
 30
0.0
  3
$MODEL_SPACE
  1

  0
ENDBLK
  5
1A
  8
0
  0
BLOCK
 67
     1
  8
0
  2
$PAPER_SPACE
 70
     0
 10
0.0
 20
0.0
 30
0.0
  3
$PAPER_SPACE
  1

  0
ENDBLK
  5
17
 67
     1
  8
0
  0
ENDSEC
  0
SECTION
  2
ENTITIES
  0
LINE
  5
22
  8
0
 62
     7
 10
159.87299999999991
 20
90.722999999999999
 30
0.0
 11
169.87299999999991
 21
90.722999999999999
 31
0.0
  0
TEXT
  5
23
  8
0
 62
     7
 10
161.91050749999999
 20
91.563599999999994
 30
0.0
 40
3.0923400000000001
  1
t=3.0
 41
0.5
 72
     1
 11
164.874
 21
91.563599999999994
 31
0.0
  0
TEXT
  5
24
  8
0
 62
     7
 10
92.473112239232378
 20
154.0507122392323
 30
0.0
 40
3.0923400000000001
  1
%%c240
 50
45.0
 41
0.5
 72
     1
 11
94.386399999999995
 21
155.96399999999991
 31
0.0
  0
TEXT
  5
25
  8
0
 62
     7
 10
96.917345722444665
 20
175.39158019480411
 30
0.0
 40
3.0923400000000001
  1
%%c100
 50
2.06128
 41
0.5
 72
     1
 11
99.235100000000003
 21
175.47499999999999
 31
0.0
  0
LINE
  5
26
  8
0
  6
AIGENLINE001
 62
     7
 10
39.044699999999992
 20
166.02199999999999
 30
0.0
 11
174.0449999999999
 21
166.02199999999999
 31
0.0
  0
LINE
  5
27
  8
0
  6
AIGENLINE001
 62
     7
 10
106.545
 20
233.52199999999999
 30
0.0
 11
106.545
 21
98.5214
 31
0.0
  0
LINE
  5
28
  8
0
 62
     7
 10
88.8887
 20
183.76300000000001
 30
0.0
 11
124.2439999999999
 21
148.4079999999999
 31
0.0
  0
LINE
  5
29
  8
0
 62
     7
 10
90.8352
 20
182.601
 30
0.0
 11
88.853499999999997
 21
183.7459999999999
 31
0.0
  0
LINE
  5
2A
  8
0
 62
     7
 10
88.853499999999997
 20
183.7459999999999
 30
0.0
 11
89.997299999999996
 21
181.76400000000001
 31
0.0
  0
LINE
  5
2B
  8
0
 62
     7
 10
89.997299999999996
 20
181.76400000000001
 30
0.0
 11
90.8352
 21
182.601
 31
0.0
  0
LINE
  5
2C
  8
0
 62
     7
 10
122.2979999999999
 20
149.48500000000001
 30
0.0
 11
124.279
 21
148.34
 31
0.0
  0
LINE
  5
2D
  8
0
 62
     7
 10
124.279
 20
148.34
 30
0.0
 11
123.13500000000001
 21
150.32199999999989
 31
0.0
  0
LINE
  5
2E
  8
0
 62
     7
 10
123.13500000000001
 20
150.32199999999989
 30
0.0
 11
122.2979999999999
 21
149.48500000000001
 31
0.0
  0
ARC
  5
2F
  8
0
 62
     7
 10
106.5448979999999
 20
166.021411
 30
0.0
 40
25.000014999999991
 50
270.00041499999992
 51
0.000385
  0
ARC
  5
30
  8
0
 62
     7
 10
106.54515600000001
 20
166.02148899999989
 30
0.0
 40
25.000091999999999
 50
179.999773
 51
269.99982199999988
  0
ARC
  5
31
  8
0
 62
     7
 10
106.5451649999999
 20
166.02166099999999
 30
0.0
 40
25.000101000000001
 50
90.000196999999986
 51
180.00020699999999
  0
ARC
  5
32
  8
0
 62
     7
 10
106.5448979999999
 20
166.021747
 30
0.0
 40
25.000014999999991
 50
359.99961499999989
 51
89.999584999999996
  0
LINE
  5
33
  8
0
 62
     7
 10
65.262900000000002
 20
125.577
 30
0.0
 11
64.118600000000001
 21
123.595
 31
0.0
  0
LINE
  5
34
  8
0
 62
     7
 10
64.118600000000001
 20
123.595
 30
0.0
 11
66.1006
 21
124.7389999999999
 31
0.0
  0
LINE
  5
35
  8
0
 62
     7
 10
66.1006
 20
124.7389999999999
 30
0.0
 11
65.262900000000002
 21
125.577
 31
0.0
  0
LINE
  5
36
  8
0
 62
     7
 10
147.827
 20
206.46700000000001
 30
0.0
 11
148.97200000000001
 21
208.44799999999989
 31
0.0
  0
LINE
  5
37
  8
0
 62
     7
 10
148.97200000000001
 20
208.44799999999989
 30
0.0
 11
146.989
 21
207.304
 31
0.0
  0
LINE
  5
38
  8
0
 62
     7
 10
146.989
 20
207.304
 30
0.0
 11
147.827
 21
206.46700000000001
 31
0.0
  0
LINE
  5
39
  8
0
 62
     7
 10
64.118600000000001
 20
123.595
 30
0.0
 11
148.97200000000001
 21
208.44799999999989
 31
0.0
  0
ARC
  5
3A
  8
0
 62
     7
 10
106.5448919999999
 20
166.021762
 30
0.0
 40
60.000344999999989
 50
270.00018399999999
 51
0.000155
  0
ARC
  5
3B
  8
0
 62
     7
 10
106.54514999999989
 20
166.021827
 30
0.0
 40
60.000409999999988
 50
179.999888
 51
269.99993799999987
  0
ARC
  5
3C
  8
0
 62
     7
 10
106.544999
 20
166.021827
 30
0.0
 40
60.000259
 50
89.999918000000008
 51
179.999888
  0
ARC
  5
3D
  8
0
 62
     7
 10
106.5450639999999
 20
166.0219129999999
 30
0.0
 40
60.00017299999999
 50
0.00001
 51
89.999980000000008
  0
ARC
  5
3E
  8
0
 62
     7
 10
151.32180199999999
 20
147.53750099999999
 30
0.0
 40
1.559299
 50
249.62854100000001
 51
335.37361900000002
  0
ARC
  5
3F
  8
0
 62
     7
 10
151.27725599999991
 20
147.42982900000001
 30
0.0
 40
1.5592790000000001
 50
339.65624700000001
 51
65.377331999999996
  0
LINE
  5
40
  8
0
 62
     7
 10
140.84100000000001
 20
153.43999999999991
 30
0.0
 11
151.92699999999999
 21
148.84700000000001
 31
0.0
  0
ARC
  5
41
  8
0
 62
     7
 10
140.29726199999999
 20
151.9787409999999
 30
0.0
 40
1.558665999999999
 50
69.601632999999993
 51
155.38329799999991
  0
ARC
  5
42
  8
0
 62
     7
 10
140.34182999999999
 20
152.085249
 30
0.0
 40
1.5590939999999991
 50
159.627782
 51
245.36428799999999
  0
LINE
  5
43
  8
0
 62
     7
 10
139.69200000000001
 20
150.66800000000001
 30
0.0
 11
150.77899999999991
 21
146.07599999999999
 31
0.0
  0
ARC
  5
44
  8
0
 62
     7
 10
140.83949399999989
 20
131.80836899999991
 30
0.0
 40
1.5586120000000001
 50
227.1114509999999
 51
312.88856900000002
  0
ARC
  5
45
  8
0
 62
     7
 10
140.758284
 20
131.727159
 30
0.0
 40
1.5586120000000001
 50
317.11144100000001
 51
42.888559000000001
  0
LINE
  5
46
  8
0
 62
     7
 10
133.41499999999991
 20
141.27299999999991
 30
0.0
 11
141.90000000000001
 21
132.7879999999999
 31
0.0
  0
ARC
  5
47
  8
0
 62
     7
 10
132.35417100000001
 20
140.13127299999991
 30
0.0
 40
1.5586120000000001
 50
47.11143100000001
 51
132.88854900000001
  0
ARC
  5
48
  8
0
 62
     7
 10
132.35430999999991
 20
140.21265500000001
 30
0.0
 40
1.5001059999999991
 50
135.00839899999991
 51
224.991601
  0
LINE
  5
49
  8
0
 62
     7
 10
131.29300000000001
 20
139.15199999999999
 30
0.0
 11
139.779
 21
130.66599999999991
 31
0.0
  0
ARC
  5
4A
  8
0
 62
     7
 10
125.13628199999999
 20
121.28907700000001
 30
0.0
 40
1.558964999999999
 50
204.61501799999999
 51
290.38286099999999
  0
ARC
  5
4B
  8
0
 62
     7
 10
125.029286
 20
121.24493099999999
 30
0.0
 40
1.559145999999999
 50
294.63748900000002
 51
20.37044199999999
  0
LINE
  5
4C
  8
0
 62
     7
 10
121.899
 20
132.874
 30
0.0
 11
126.4909999999999
 21
121.788
 31
0.0
  0
ARC
  5
4D
  8
0
 62
     7
 10
120.4814199999999
 20
132.22474600000001
 30
0.0
 40
1.558969
 50
24.627023999999992
 51
110.38800500000001
  0
ARC
  5
4E
  8
0
 62
     7
 10
120.52770599999999
 20
132.28498999999999
 30
0.0
 40
1.519987999999999
 50
112.815303
 51
157.18466699999999
  0
ARC
  5
4F
  8
0
 62
     7
 10
120.531756
 20
132.300254
 30
0.0
 40
1.5178830000000001
 50
157.77507700000001
 51
202.2249229999999
  0
LINE
  5
50
  8
0
 62
     7
 10
119.127
 20
131.726
 30
0.0
 11
123.71899999999999
 21
120.64
 31
0.0
  0
ARC
  5
51
  8
0
 62
     7
 10
106.601417
 20
117.578799
 30
0.0
 40
1.5582590000000001
 50
182.10500899999991
 51
267.927909
  0
ARC
  5
52
  8
0
 62
     7
 10
106.4878709999999
 20
117.578051
 30
0.0
 40
1.5575429999999999
 50
272.10477800000001
 51
357.92155600000001
  0
LINE
  5
53
  8
0
 62
     7
 10
108.044
 20
129.52199999999999
 30
0.0
 11
108.044
 21
117.52200000000001
 31
0.0
  0
ARC
  5
54
  8
0
 62
     7
 10
106.48723200000001
 20
129.46481299999991
 30
0.0
 40
1.558204999999999
 50
2.101048
 51
87.872618000000017
  0
ARC
  5
55
  8
0
 62
     7
 10
106.60220799999991
 20
129.46391199999999
 30
0.0
 40
1.5590790000000001
 50
92.100087000000016
 51
177.86699400000001
  0
LINE
  5
56
  8
0
 62
     7
 10
105.044
 20
129.52199999999999
 30
0.0
 11
105.044
 21
117.52200000000001
 31
0.0
  0
ARC
  5
57
  8
0
 62
     7
 10
88.019036999999997
 20
121.21800399999999
 30
0.0
 40
1.530146
 50
158.1434889999999
 51
216.8475379999999
  0
ARC
  5
58
  8
0
 62
     7
 10
87.997884999999997
 20
121.245762
 30
0.0
 40
1.530262999999999
 50
218.15428099999991
 51
276.85501099999999
  0
ARC
  5
59
  8
0
 62
     7
 10
87.964799999999997
 20
121.23962399999991
 30
0.0
 40
1.5284869999999999
 50
278.11390699999998
 51
336.89171899999991
  0
LINE
  5
5A
  8
0
 62
     7
 10
93.962999999999994
 20
131.726
 30
0.0
 11
89.370599999999996
 21
120.64
 31
0.0
  0
ARC
  5
5B
  8
0
 62
     7
 10
92.576751999999985
 20
132.299972
 30
0.0
 40
1.500318
 50
337.512428
 51
67.496834000000007
  0
ARC
  5
5C
  8
0
 62
     7
 10
92.576910999999996
 20
132.30009799999991
 30
0.0
 40
1.50014
 50
67.500598999999994
 51
157.49145100000001
  0
LINE
  5
5D
  8
0
 62
     7
 10
91.191000000000017
 20
132.874
 30
0.0
 11
86.5989
 21
121.788
 31
0.0
  0
ARC
  5
5E
  8
0
 62
     7
 10
72.331123000000005
 20
131.727159
 30
0.0
 40
1.5583199999999999
 50
137.101471
 51
222.898529
  0
ARC
  5
5F
  8
0
 62
     7
 10
72.250224000000003
 20
131.80827600000001
 30
0.0
 40
1.5584839999999991
 50
227.11142499999991
 51
312.88859500000001
  0
LINE
  5
60
  8
0
 62
     7
 10
81.796199999999985
 20
139.15199999999999
 30
0.0
 11
73.310900000000004
 21
130.66599999999991
 31
0.0
  0
ARC
  5
61
  8
0
 62
     7
 10
80.735321999999996
 20
140.21265500000001
 30
0.0
 40
1.5001070000000001
 50
315.00843800000001
 51
44.991562000000002
  0
ARC
  5
62
  8
0
 62
     7
 10
80.735461999999998
 20
140.21201499999989
 30
0.0
 40
1.500461
 50
45.012640999999988
 51
134.9873399999999
  0
LINE
  5
63
  8
0
 62
     7
 10
79.674700000000001
 20
141.27299999999991
 30
0.0
 11
71.189599999999999
 21
132.7879999999999
 31
0.0
  0
ARC
  5
64
  8
0
 62
     7
 10
61.810945999999987
 20
147.43073499999991
 30
0.0
 40
1.5579309999999991
 50
114.59448
 51
200.39773099999991
  0
ARC
  5
65
  8
0
 62
     7
 10
61.736674000000001
 20
147.46169900000001
 30
0.0
 40
1.5001139999999991
 50
202.49539399999989
 51
292.495364
  0
LINE
  5
66
  8
0
 62
     7
 10
73.397400000000005
 20
150.66800000000001
 30
0.0
 11
62.310600000000001
 21
146.07599999999999
 31
0.0
  0
ARC
  5
67
  8
0
 62
     7
 10
72.747796999999991
 20
152.08510799999999
 30
0.0
 40
1.5588239999999991
 50
294.62652999999989
 51
20.381399999999989
  0
ARC
  5
68
  8
0
 62
     7
 10
72.792355000000001
 20
151.97930700000001
 30
0.0
 40
1.558130999999999
 50
24.602831999999989
 51
110.405079
  0
LINE
  5
69
  8
0
 62
     7
 10
72.249099999999999
 20
153.43999999999991
 30
0.0
 11
61.162500000000001
 21
148.84700000000001
 31
0.0
  0
ARC
  5
6A
  8
0
 62
     7
 10
58.044713999999999
 20
166.022096
 30
0.0
 40
1.4998320000000001
 50
90.006580000000014
 51
180.00658999999999
  0
ARC
  5
6B
  8
0
 62
     7
 10
58.044713000000002
 20
166.02175099999999
 30
0.0
 40
1.4998320000000001
 50
179.99338999999989
 51
269.99343900000002
  0
LINE
  5
6C
  8
0
 62
     7
 10
70.044899999999998
 20
164.52199999999999
 30
0.0
 11
58.044499999999999
 21
164.52199999999999
 31
0.0
  0
ARC
  5
6D
  8
0
 62
     7
 10
70.044745999999989
 20
166.02175199999991
 30
0.0
 40
1.4998320000000001
 50
270.00659999999999
 51
0.006571
  0
ARC
  5
6E
  8
0
 62
     7
 10
70.044745999999989
 20
166.022096
 30
0.0
 40
1.4998320000000001
 50
359.99342899999999
 51
89.993399999999994
  0
LINE
  5
6F
  8
0
 62
     7
 10
70.044899999999998
 20
167.52199999999999
 30
0.0
 11
58.044499999999999
 21
167.52199999999999
 31
0.0
  0
ARC
  5
70
  8
0
 62
     7
 10
61.767997000000001
 20
184.50623400000001
 30
0.0
 40
1.5591839999999999
 50
69.633509000000004
 51
155.36713700000001
  0
ARC
  5
71
  8
0
 62
     7
 10
61.811748999999999
 20
184.6131959999999
 30
0.0
 40
1.558654999999999
 50
159.61545599999999
 51
245.385211
  0
LINE
  5
72
  8
0
 62
     7
 10
72.249099999999999
 20
178.60400000000001
 30
0.0
 11
61.162500000000001
 21
183.196
 31
0.0
  0
ARC
  5
73
  8
0
 62
     7
 10
72.792167000000006
 20
180.0649939999999
 30
0.0
 40
1.558489999999999
 50
249.60720499999999
 51
335.38488399999989
  0
ARC
  5
74
  8
0
 62
     7
 10
72.804342000000005
 20
179.98980700000001
 30
0.0
 40
1.517425
 50
337.77506399999987
 51
22.224935999999989
  0
ARC
  5
75
  8
0
 62
     7
 10
72.808199000000002
 20
179.9751949999999
 30
0.0
 40
1.519455999999999
 50
22.790019999999998
 51
67.185656000000009
  0
LINE
  5
76
  8
0
 62
     7
 10
73.397400000000005
 20
181.37599999999989
 30
0.0
 11
62.310600000000001
 21
185.9679999999999
 31
0.0
  0
ARC
  5
77
  8
0
 62
     7
 10
72.250224000000003
 20
200.2361929999999
 30
0.0
 40
1.557903
 50
47.091543000000001
 51
132.9084379999999
  0
ARC
  5
78
  8
0
 62
     7
 10
72.331802999999994
 20
200.31660199999999
 30
0.0
 40
1.5587599999999999
 50
137.12080800000001
 51
222.8791919999999
  0
LINE
  5
79
  8
0
 62
     7
 10
79.674700000000001
 20
190.7709999999999
 30
0.0
 11
71.189599999999999
 21
199.25599999999989
 31
0.0
  0
ARC
  5
7A
  8
0
 62
     7
 10
80.735461999999998
 20
191.83169299999989
 30
0.0
 40
1.5002399999999989
 50
225.00423599999999
 51
314.9957839999999
  0
ARC
  5
7B
  8
0
 62
     7
 10
80.717516000000003
 20
191.8385449999999
 30
0.0
 40
1.5177940000000001
 50
315.29194099999989
 51
359.72892200000001
  0
ARC
  5
7C
  8
0
 62
     7
 10
80.717164999999994
 20
191.82421099999999
 30
0.0
 40
1.5181450000000001
 50
0.269954
 51
44.702606000000003
  0
LINE
  5
7D
  8
0
 62
     7
 10
81.796199999999985
 20
192.89199999999991
 30
0.0
 11
73.310900000000004
 21
201.37700000000001
 31
0.0
  0
ARC
  5
7E
  8
0
 62
     7
 10
87.984663999999995
 20
210.83011999999999
 30
0.0
 40
1.500138999999999
 50
22.496314999999999
 51
112.49440299999991
  0
ARC
  5
7F
  8
0
 62
     7
 10
88.060135999999986
 20
210.79901799999999
 30
0.0
 40
1.558821999999999
 50
114.620479
 51
200.37885499999999
  0
LINE
  5
80
  8
0
 62
     7
 10
91.191000000000017
 20
199.16900000000001
 30
0.0
 11
86.5989
 21
210.25599999999989
 31
0.0
  0
ARC
  5
81
  8
0
 62
     7
 10
92.591700000000003
 20
199.7586959999999
 30
0.0
 40
1.5195449999999999
 50
202.815731
 51
247.20861300000001
  0
ARC
  5
82
  8
0
 62
     7
 10
92.577018999999979
 20
199.764959
 30
0.0
 40
1.5197169999999991
 50
247.81037799999999
 51
292.18964199999988
  0
ARC
  5
83
  8
0
 62
     7
 10
92.576751999999985
 20
199.743875
 30
0.0
 40
1.500318
 50
292.50316600000002
 51
22.487572
  0
LINE
  5
84
  8
0
 62
     7
 10
93.962999999999994
 20
200.3179999999999
 30
0.0
 11
89.370599999999996
 21
211.404
 31
0.0
  0
ARC
  5
85
  8
0
 62
     7
 10
106.48758099999991
 20
214.46514799999991
 30
0.0
 40
1.557857
 50
2.1018529999999989
 51
87.884973000000016
  0
ARC
  5
86
  8
0
 62
     7
 10
106.5444719999999
 20
214.52168099999989
 30
0.0
 40
1.500262999999999
 50
89.976974999999996
 51
179.976945
  0
LINE
  5
87
  8
0
 62
     7
 10
105.044
 20
202.52199999999999
 30
0.0
 11
105.044
 21
214.52199999999999
 31
0.0
  0
ARC
  5
88
  8
0
 62
     7
 10
106.601417
 20
202.5791429999999
 30
0.0
 40
1.5582590000000001
 50
182.10500899999991
 51
267.927909
  0
ARC
  5
89
  8
0
 62
     7
 10
106.48708600000001
 20
202.57917999999989
 30
0.0
 40
1.558355999999999
 50
272.13254599999999
 51
357.89378900000003
  0
LINE
  5
8A
  8
0
 62
     7
 10
108.044
 20
202.52199999999999
 30
0.0
 11
108.044
 21
214.52199999999999
 31
0.0
  0
ARC
  5
8B
  8
0
 62
     7
 10
125.02935100000001
 20
210.79894299999989
 30
0.0
 40
1.5590949999999999
 50
339.62781899999987
 51
65.364250999999996
  0
ARC
  5
8C
  8
0
 62
     7
 10
125.136456
 20
210.7543499999999
 30
0.0
 40
1.559299
 50
69.628520999999992
 51
155.37360000000001
  0
LINE
  5
8D
  8
0
 62
     7
 10
119.127
 20
200.3179999999999
 30
0.0
 11
123.71899999999999
 21
211.404
 31
0.0
  0
ARC
  5
8E
  8
0
 62
     7
 10
120.5882169999999
 20
199.7749739999999
 30
0.0
 40
1.5590939999999991
 50
159.627782
 51
245.36428799999999
  0
ARC
  5
8F
  8
0
 62
     7
 10
120.5122689999999
 20
199.768359
 30
0.0
 40
1.5228660000000001
 50
247.85869
 51
292.14132999999993
  0
ARC
  5
90
  8
0
 62
     7
 10
120.49847799999991
 20
199.75839999999991
 30
0.0
 40
1.5189280000000001
 50
292.76479
 51
337.18660299999999
  0
LINE
  5
91
  8
0
 62
     7
 10
121.899
 20
199.16900000000001
 30
0.0
 11
126.4909999999999
 21
210.25599999999989
 31
0.0
  0
ARC
  5
92
  8
0
 62
     7
 10
140.839112
 20
200.31660199999999
 30
0.0
 40
1.500338999999999
 50
315.01265100000001
 51
44.987349000000002
  0
ARC
  5
93
  8
0
 62
     7
 10
140.83949399999989
 20
200.236099
 30
0.0
 40
1.55803
 50
47.091568999999993
 51
132.90841099999989
  0
LINE
  5
94
  8
0
 62
     7
 10
131.29300000000001
 20
192.89199999999991
 30
0.0
 11
139.779
 21
201.37700000000001
 31
0.0
  0
ARC
  5
95
  8
0
 62
     7
 10
132.35424
 20
191.8314499999999
 30
0.0
 40
1.5001180000000001
 50
135.004187
 51
224.995813
  0
ARC
  5
96
  8
0
 62
     7
 10
132.35417100000001
 20
191.91195300000001
 30
0.0
 40
1.55803
 50
227.09158899999991
 51
312.90843100000001
  0
LINE
  5
97
  8
0
 62
     7
 10
133.41499999999991
 20
190.7709999999999
 30
0.0
 11
141.90000000000001
 21
199.25599999999989
 31
0.0
  0
ARC
  5
98
  8
0
 62
     7
 10
151.27754400000001
 20
184.61365000000001
 30
0.0
 40
1.559137999999999
 50
294.61342400000001
 51
20.360123000000002
  0
ARC
  5
99
  8
0
 62
     7
 10
151.32173700000001
 20
184.505878
 30
0.0
 40
1.559553
 50
24.641017999999988
 51
110.3654159999999
  0
LINE
  5
9A
  8
0
 62
     7
 10
139.69200000000001
 20
181.37599999999989
 30
0.0
 11
150.77899999999991
 21
185.9679999999999
 31
0.0
  0
ARC
  5
9B
  8
0
 62
     7
 10
140.34189499999999
 20
179.95857100000001
 30
0.0
 40
1.559145
 50
114.6374519999999
 51
200.37047899999999
  0
ARC
  5
9C
  8
0
 62
     7
 10
140.2974209999999
 20
180.0654879999999
 30
0.0
 40
1.558969
 50
204.6270439999999
 51
290.38802500000003
  0
LINE
  5
9D
  8
0
 62
     7
 10
140.84100000000001
 20
178.60400000000001
 30
0.0
 11
151.92699999999999
 21
183.196
 31
0.0
  0
ARC
  5
9E
  8
0
 62
     7
 10
154.9875909999999
 20
166.07907900000001
 30
0.0
 40
1.5582089999999991
 50
272.10212000000001
 51
357.89789000000002
  0
ARC
  5
9F
  8
0
 62
     7
 10
154.98758100000001
 20
165.96475799999999
 30
0.0
 40
1.558219
 50
2.1024579999999999
 51
87.897531999999984
  0
ARC
  5
A0
  8
0
 62
     7
 10
143.10188899999989
 20
165.9647479999999
 30
0.0
 40
1.5582279999999999
 50
92.102779999999996
 51
177.89718999999991
  0
ARC
  5
A1
  8
0
 62
     7
 10
143.10187899999991
 20
166.0790889999999
 30
0.0
 40
1.5582180000000001
 50
182.10246100000001
 51
267.89756899999992
  0
LINE
  5
A2
  8
0
 62
     7
 10
143.0449999999999
 20
167.52199999999999
 30
0.0
 11
155.0449999999999
 21
167.52199999999999
 31
0.0
  0
LINE
  5
A3
  8
0
 62
     7
 10
143.0449999999999
 20
164.52199999999999
 30
0.0
 11
155.0449999999999
 21
164.52199999999999
 31
0.0
  0
TEXT
  5
A4
  8
_________2
 62
     7
 10
143.07741250000001
 20
30.627400000000002
 30
0.0
 40
3.9357000000000002
  1
CET074
 41
0.5
 72
     1
 11
148.489
 21
30.627400000000002
 31
0.0
  0
TEXT
  5
A5
  8
_________2
 62
     7
 10
143.07741250000001
 20
20.6266
 30
0.0
 40
3.9357000000000002
  1
CET074
 41
0.5
 72
     1
 11
148.489
 21
20.6266
 31
0.0
  0
TEXT
  5
A6
  8
_________2
 62
     7
 10
29.525700000000001
 20
22.226900000000001
 30
0.0
 40
3.9357000000000002
  1
パーティーシンク用
 41
0.5
  0
LINE
  5
A7
  8
_________2
 62
     7
 10
210.24000000000001
 20
148.93100000000001
 30
0.0
 11
188.49000000000001
 21
148.93100000000001
 31
0.0
  0
LINE
  5
A8
  8
_________2
 62
     7
 10
105.2389999999999
 20
17.4282
 30
0.0
 11
105.2389999999999
 21
0.4482100000000001
 31
0.0
  0
LINE
  5
A9
  8
_________2
 62
     7
 10
105.2389999999999
 20
297.44999999999987
 30
0.0
 11
105.2389999999999
 21
280.42999999999989
 31
0.0
  0
LINE
  5
AA
  8
_________2
 62
     7
 10
21.988499999999991
 20
148.93100000000001
 30
0.0
 11
0.238058
 21
148.93100000000001
 31
0.0
  0
LINE
  5
AB
  8
_________2
 62
     7
 10
81.679900000000004
 20
51.323999999999998
 30
0.0
 11
79.493700000000004
 21
51.323999999999998
 31
0.0
  0
LINE
  5
AC
  8
_________2
 62
     7
 10
82.172600000000017
 20
51.323999999999998
 30
0.0
 11
81.920400000000001
 21
51.323999999999998
 31
0.0
  0
LINE
  5
AD
  8
_________2
 62
     7
 10
82.665199999999984
 20
51.323999999999998
 30
0.0
 11
85.590100000000007
 21
51.323999999999998
 31
0.0
  0
LINE
  5
AE
  8
_________2
 62
     7
 10
82.172600000000017
 20
51.323999999999998
 30
0.0
 11
82.424800000000005
 21
51.323999999999998
 31
0.0
  0
LINE
  5
AF
  8
_________2
 62
     7
 10
75.776399999999995
 20
51.323999999999998
 30
0.0
 11
73.589399999999998
 21
51.323999999999998
 31
0.0
  0
LINE
  5
B0
  8
_________2
 62
     7
 10
76.2684
 20
51.323999999999998
 30
0.0
 11
76.016900000000007
 21
51.323999999999998
 31
0.0
  0
LINE
  5
B1
  8
_________2
 62
     7
 10
76.2684
 20
51.816600000000001
 30
0.0
 11
76.2684
 21
54.003599999999999
 31
0.0
  0
LINE
  5
B2
  8
_________2
 62
     7
 10
76.2684
 20
51.323999999999998
 30
0.0
 11
76.2684
 21
51.576500000000003
 31
0.0
  0
LINE
  5
B3
  8
_________2
 62
     7
 10
76.76100000000001
 20
51.323999999999998
 30
0.0
 11
78.947999999999993
 21
51.323999999999998
 31
0.0
  0
LINE
  5
B4
  8
_________2
 62
     7
 10
76.2684
 20
51.323999999999998
 30
0.0
 11
76.520499999999998
 21
51.323999999999998
 31
0.0
  0
LINE
  5
B5
  8
_________2
 62
     7
 10
76.2684
 20
50.832000000000001
 30
0.0
 11
76.2684
 21
48.645400000000002
 31
0.0
  0
LINE
  5
B6
  8
_________2
 62
     7
 10
76.2684
 20
51.323999999999998
 30
0.0
 11
76.2684
 21
51.072499999999998
 31
0.0
  0
LINE
  5
B7
  8
_________2
 62
     7
 10
79.979399999999984
 20
50.104399999999998
 30
0.0
 11
85.157399999999996
 21
49.239699999999999
 31
0.0
  0
LINE
  5
B8
  8
_________2
 62
     7
 10
79.979399999999984
 20
52.543900000000001
 30
0.0
 11
85.157399999999996
 21
53.409300000000002
 31
0.0
  0
LINE
  5
B9
  8
_________2
 62
     7
 10
85.157399999999996
 20
49.239699999999999
 30
0.0
 11
85.157399999999996
 21
53.409300000000002
 31
0.0
  0
LINE
  5
BA
  8
_________2
 62
     7
 10
79.979399999999984
 20
50.104399999999998
 30
0.0
 11
79.979399999999984
 21
52.543900000000001
 31
0.0
  0
ARC
  5
BB
  8
_________2
 62
     7
 10
76.221766000000002
 20
51.277037
 30
0.0
 40
1.267714
 50
2.1220840000000001
 51
87.894083999999992
  0
ARC
  5
BC
  8
_________2
 62
     7
 10
76.315297000000001
 20
51.277389999999997
 30
0.0
 40
1.267374999999999
 50
92.122849999999985
 51
177.893304
  0
ARC
  5
BD
  8
_________2
 62
     7
 10
76.315273000000005
 20
51.370902000000001
 30
0.0
 40
1.267363
 50
182.12181499999991
 51
267.87821400000001
  0
ARC
  5
BE
  8
_________2
 62
     7
 10
76.221461000000005
 20
51.371583999999999
 30
0.0
 40
1.2680439999999991
 50
272.11916400000001
 51
357.84848499999993
  0
ARC
  5
BF
  8
_________2
 62
     7
 10
76.187981999999991
 20
51.243968000000002
 30
0.0
 40
2.1668310000000002
 50
2.1161439999999989
 51
87.874379000000005
  0
ARC
  5
C0
  8
_________2
 62
     7
 10
76.348411999999996
 20
51.244990000000001
 30
0.0
 40
2.1657980000000001
 50
92.118487999999999
 51
177.90988599999989
  0
ARC
  5
C1
  8
_________2
 62
     7
 10
76.348354
 20
51.403983000000011
 30
0.0
 40
2.1657779999999991
 50
182.11700400000001
 51
267.88302499999992
  0
ARC
  5
C2
  8
_________2
 62
     7
 10
76.188378999999983
 20
51.404665999999992
 30
0.0
 40
2.1664590000000001
 50
272.11546800000002
 51
357.86560400000002
  0
TEXT
  5
C3
  8
_________2
 62
     7
 10
109.5439999999999
 20
23.198699999999992
 30
0.0
 40
3.0923400000000001
  1
図番
 41
0.5
  0
LINE
  5
C4
  8
_________2
 62
     7
 10
108.4889999999999
 20
27.428000000000001
 30
0.0
 11
188.49000000000001
 21
27.428000000000001
 31
0.0
  0
TEXT
  5
C5
  8
_________2
 62
     7
 10
109.5439999999999
 20
33.198500000000003
 30
0.0
 40
3.0923400000000001
  1
品番
 41
0.5
  0
TEXT
  5
C6
  8
_________2
 62
     7
 10
109.5439999999999
 20
53.337699999999998
 30
0.0
 40
3.0923400000000001
  1
名称
 41
0.5
  0
TEXT
  5
C7
  8
_________2
 62
     7
 10
96.784158333333338
 20
48.341500000000011
 30
0.0
 40
3.6545800000000002
  1
mm
 41
0.5
 72
     1
 11
98.306899999999999
 21
48.341500000000011
 31
0.0
  0
TEXT
  5
C8
  8
_________2
 62
     7
 10
90.582099999999997
 20
53.337699999999998
 30
0.0
 40
3.0923400000000001
  1
単位
 41
0.5
  0
TEXT
  5
C9
  8
_________2
 62
     7
 10
90.582099999999997
 20
40.930100000000003
 30
0.0
 40
3.0923400000000001
  1
尺度
 41
0.5
  0
TEXT
  5
CA
  8
_________2
 62
     7
 10
95.487858666666668
 20
34.73749999999999
 30
0.0
 40
3.6545800000000002
  1
1 ： 2
 41
0.5
 72
     1
 11
98.898799999999994
 21
34.73749999999999
 31
0.0
  0
TEXT
  5
CB
  8
_________2
 62
     7
 10
114.11799999999999
 20
45.7453
 30
0.0
 40
3.9357000000000002
  1
シンクマット
 41
0.5
  0
TEXT
  5
CC
  8
_________2
 62
     7
 10
44.364200333333329
 20
35.122599999999991
 30
0.0
 40
3.6545800000000002
  1
早川
 41
0.5
 72
     1
 11
46.252400000000002
 21
35.122599999999991
 31
0.0
  0
TEXT
  5
CD
  8
_________2
 62
     7
 10
25.729290666666671
 20
35.122599999999991
 30
0.0
 40
3.6545800000000002
  1
菅原
 41
0.5
 72
     1
 11
27.6784
 21
35.122599999999991
 31
0.0
  0
TEXT
  5
CE
  8
_________2
 62
     7
 10
72.724699999999999
 20
34.73749999999999
 30
0.0
 40
3.6545800000000002
  1
12.11.29
 41
0.5
  0
TEXT
  5
CF
  8
_________2
 62
     7
 10
71.531999999999996
 20
40.930100000000003
 30
0.0
 40
3.0923400000000001
  1
日付
 41
0.5
  0
TEXT
  5
D0
  8
_________2
 62
     7
 10
34.578299999999992
 20
40.930100000000003
 30
0.0
 40
3.0923400000000001
  1
検図
 41
0.5
  0
TEXT
  5
D1
  8
_________2
 62
     7
 10
22.960000000000001
 20
26.730699999999999
 30
0.0
 40
3.0923400000000001
  1
備考
 41
0.5
  0
TEXT
  5
D2
  8
_________2
 62
     7
 10
22.960000000000001
 20
40.930100000000003
 30
0.0
 40
3.0923400000000001
  1
製図
 41
0.5
  0
TEXT
  5
D3
  8
_________2
 62
     7
 10
28.727365333333339
 20
49.456000000000003
 30
0.0
 40
4.4979399999999989
  1
セラトレーディング株式会社
 41
0.5
 72
     1
 11
46.119399999999992
 21
49.456000000000003
 31
0.0
  0
LINE
  5
D4
  8
_________2
 62
     7
 10
188.49000000000001
 20
17.4282
 30
0.0
 11
21.988499999999991
 21
17.4282
 31
0.0
  0
LINE
  5
D5
  8
_________2
 62
     7
 10
21.988499999999991
 20
17.4282
 30
0.0
 11
21.988499999999991
 21
280.42999999999989
 31
0.0
  0
LINE
  5
D6
  8
_________2
 62
     7
 10
21.988499999999991
 20
280.42999999999989
 30
0.0
 11
188.49000000000001
 21
280.42999999999989
 31
0.0
  0
LINE
  5
D7
  8
_________2
 62
     7
 10
188.49000000000001
 20
280.42999999999989
 30
0.0
 11
188.49000000000001
 21
17.4282
 31
0.0
  0
LINE
  5
D8
  8
_________2
 62
     7
 10
70.488799999999998
 20
30.9285
 30
0.0
 11
70.488799999999998
 21
57.428400000000011
 31
0.0
  0
LINE
  5
D9
  8
_________2
 62
     7
 10
89.488600000000005
 20
30.9285
 30
0.0
 11
89.488600000000005
 21
57.428400000000011
 31
0.0
  0
LINE
  5
DA
  8
_________2
 62
     7
 10
108.4889999999999
 20
17.4282
 30
0.0
 11
108.4889999999999
 21
57.428400000000011
 31
0.0
  0
LINE
  5
DB
  8
_________2
 62
     7
 10
33.488300000000002
 20
30.9285
 30
0.0
 11
33.488300000000002
 21
44.928499999999993
 31
0.0
  0
LINE
  5
DC
  8
_________2
 62
     7
 10
21.988499999999991
 20
30.9285
 30
0.0
 11
108.4889999999999
 21
30.9285
 31
0.0
  0
LINE
  5
DD
  8
_________2
 62
     7
 10
21.988499999999991
 20
44.928499999999993
 30
0.0
 11
108.4889999999999
 21
44.928499999999993
 31
0.0
  0
LINE
  5
DE
  8
_________2
 62
     7
 10
108.4889999999999
 20
37.427799999999991
 30
0.0
 11
188.49000000000001
 21
37.427799999999991
 31
0.0
  0
LINE
  5
DF
  8
_________2
 62
     7
 10
21.988499999999991
 20
57.428400000000011
 30
0.0
 11
188.49000000000001
 21
57.428400000000011
 31
0.0
  0
ENDSEC
  0
EOF
