  0
SECTION
  2
HEADER
  9
$ACADVER
  1
AC1015
  9
$ACADMAINTVER
 70
     6
  9
$DWGCODEPAGE
  3
ANSI_932
  9
$INSBASE
 10
0.0
 20
0.0
 30
0.0
  9
$EXTMIN
 10
-4.700859999999999
 20
-21.0714
 30
0.0
  9
$EXTMAX
 10
205.301
 20
275.9309999999999
 30
0.0
  9
$LIMMIN
 10
0.0
 20
0.0
  9
$LIMMAX
 10
12.0
 20
9.0
  9
$ORTHOMODE
 70
     0
  9
$REGENMODE
 70
     1
  9
$FILLMODE
 70
     1
  9
$QTEXTMODE
 70
     0
  9
$MIRRTEXT
 70
     1
  9
$LTSCALE
 40
1.0
  9
$ATTMODE
 70
     1
  9
$TEXTSIZE
 40
0.0
  9
$TRACEWID
 40
0.05
  9
$TEXTSTYLE
  7
STANDARD
  9
$CLAYER
  8
0
  9
$CELTYPE
  6
CONTINUOUS
  9
$CECOLOR
 62
   256
  9
$CELTSCALE
 40
1.0
  9
$DISPSILH
 70
     0
  9
$DIMSCALE
 40
1.0
  9
$DIMASZ
 40
0.18
  9
$DIMEXO
 40
0.0625
  9
$DIMDLI
 40
0.38
  9
$DIMRND
 40
0.0
  9
$DIMDLE
 40
0.0
  9
$DIMEXE
 40
0.18
  9
$DIMTP
 40
0.0
  9
$DIMTM
 40
0.0
  9
$DIMTXT
 40
0.18
  9
$DIMCEN
 40
0.09
  9
$DIMTSZ
 40
0.0
  9
$DIMTOL
 70
     0
  9
$DIMLIM
 70
     0
  9
$DIMTIH
 70
     1
  9
$DIMTOH
 70
     1
  9
$DIMSE1
 70
     0
  9
$DIMSE2
 70
     0
  9
$DIMTAD
 70
     0
  9
$DIMZIN
 70
     0
  9
$DIMBLK
  1

  9
$DIMASO
 70
     1
  9
$DIMSHO
 70
     1
  9
$DIMPOST
  1

  9
$DIMAPOST
  1

  9
$DIMALT
 70
     0
  9
$DIMALTD
 70
     2
  9
$DIMALTF
 40
25.4
  9
$DIMLFAC
 40
1.0
  9
$DIMTOFL
 70
     0
  9
$DIMTVP
 40
0.0
  9
$DIMTIX
 70
     0
  9
$DIMSOXD
 70
     0
  9
$DIMSAH
 70
     0
  9
$DIMBLK1
  1

  9
$DIMBLK2
  1

  9
$DIMSTYLE
  2
STANDARD
  9
$DIMCLRD
 70
     0
  9
$DIMCLRE
 70
     0
  9
$DIMCLRT
 70
     0
  9
$DIMTFAC
 40
1.0
  9
$DIMGAP
 40
0.09
  9
$DIMJUST
 70
     0
  9
$DIMSD1
 70
     0
  9
$DIMSD2
 70
     0
  9
$DIMTOLJ
 70
     1
  9
$DIMTZIN
 70
     0
  9
$DIMALTZ
 70
     0
  9
$DIMALTTZ
 70
     0
  9
$DIMUPT
 70
     0
  9
$DIMDEC
 70
     4
  9
$DIMTDEC
 70
     4
  9
$DIMALTU
 70
     2
  9
$DIMALTTD
 70
     2
  9
$DIMTXSTY
  7
STANDARD
  9
$DIMAUNIT
 70
     0
  9
$DIMADEC
 70
     0
  9
$DIMALTRND
 40
0.0
  9
$DIMAZIN
 70
     0
  9
$DIMDSEP
 70
    46
  9
$DIMATFIT
 70
     3
  9
$DIMFRAC
 70
     0
  9
$DIMLDRBLK
  1

  9
$DIMLUNIT
 70
     2
  9
$DIMLWD
 70
    -2
  9
$DIMLWE
 70
    -2
  9
$DIMTMOVE
 70
     0
  9
$LUNITS
 70
     2
  9
$LUPREC
 70
     4
  9
$SKETCHINC
 40
0.1
  9
$FILLETRAD
 40
0.0
  9
$AUNITS
 70
     0
  9
$AUPREC
 70
     0
  9
$MENU
  1
.
  9
$ELEVATION
 40
0.0
  9
$PELEVATION
 40
0.0
  9
$THICKNESS
 40
0.0
  9
$LIMCHECK
 70
     0
  9
$CHAMFERA
 40
0.0
  9
$CHAMFERB
 40
0.0
  9
$CHAMFERC
 40
0.0
  9
$CHAMFERD
 40
0.0
  9
$SKPOLY
 70
     0
  9
$TDCREATE
 40
2444972.375000000
  9
$TDUCREATE
 40
2444972.000000000
  9
$TDUPDATE
 40
2455216.796097430
  9
$TDUUPDATE
 40
2455216.421097430
  9
$TDINDWG
 40
0.0213572569
  9
$TDUSRTIMER
 40
0.0213572569
  9
$USRTIMER
 70
     1
  9
$ANGBASE
 50
0.0
  9
$ANGDIR
 70
     0
  9
$PDMODE
 70
     0
  9
$PDSIZE
 40
0.0
  9
$PLINEWID
 40
0.0
  9
$SPLFRAME
 70
     0
  9
$SPLINETYPE
 70
     6
  9
$SPLINESEGS
 70
     8
  9
$HANDSEED
  5
147
  9
$SURFTAB1
 70
     6
  9
$SURFTAB2
 70
     6
  9
$SURFTYPE
 70
     6
  9
$SURFU
 70
     6
  9
$SURFV
 70
     6
  9
$UCSBASE
  2

  9
$UCSNAME
  2

  9
$UCSORG
 10
0.0
 20
0.0
 30
0.0
  9
$UCSXDIR
 10
1.0
 20
0.0
 30
0.0
  9
$UCSYDIR
 10
0.0
 20
1.0
 30
0.0
  9
$UCSORTHOREF
  2

  9
$UCSORTHOVIEW
 70
     0
  9
$UCSORGTOP
 10
0.0
 20
0.0
 30
0.0
  9
$UCSORGBOTTOM
 10
0.0
 20
0.0
 30
0.0
  9
$UCSORGLEFT
 10
0.0
 20
0.0
 30
0.0
  9
$UCSORGRIGHT
 10
0.0
 20
0.0
 30
0.0
  9
$UCSORGFRONT
 10
0.0
 20
0.0
 30
0.0
  9
$UCSORGBACK
 10
0.0
 20
0.0
 30
0.0
  9
$PUCSBASE
  2

  9
$PUCSNAME
  2

  9
$PUCSORG
 10
0.0
 20
0.0
 30
0.0
  9
$PUCSXDIR
 10
1.0
 20
0.0
 30
0.0
  9
$PUCSYDIR
 10
0.0
 20
1.0
 30
0.0
  9
$PUCSORTHOREF
  2

  9
$PUCSORTHOVIEW
 70
     0
  9
$PUCSORGTOP
 10
0.0
 20
0.0
 30
0.0
  9
$PUCSORGBOTTOM
 10
0.0
 20
0.0
 30
0.0
  9
$PUCSORGLEFT
 10
0.0
 20
0.0
 30
0.0
  9
$PUCSORGRIGHT
 10
0.0
 20
0.0
 30
0.0
  9
$PUCSORGFRONT
 10
0.0
 20
0.0
 30
0.0
  9
$PUCSORGBACK
 10
0.0
 20
0.0
 30
0.0
  9
$USERI1
 70
     0
  9
$USERI2
 70
     0
  9
$USERI3
 70
     0
  9
$USERI4
 70
     0
  9
$USERI5
 70
     0
  9
$USERR1
 40
0.0
  9
$USERR2
 40
0.0
  9
$USERR3
 40
0.0
  9
$USERR4
 40
0.0
  9
$USERR5
 40
0.0
  9
$WORLDVIEW
 70
     1
  9
$SHADEDGE
 70
     3
  9
$SHADEDIF
 70
    70
  9
$TILEMODE
 70
     1
  9
$MAXACTVP
 70
    48
  9
$PINSBASE
 10
0.0
 20
0.0
 30
0.0
  9
$PLIMCHECK
 70
     0
  9
$PEXTMIN
 10
1.000000000000000E+20
 20
1.000000000000000E+20
 30
1.000000000000000E+20
  9
$PEXTMAX
 10
-1.000000000000000E+20
 20
-1.000000000000000E+20
 30
-1.000000000000000E+20
  9
$PLIMMIN
 10
0.0
 20
0.0
  9
$PLIMMAX
 10
12.0
 20
9.0
  9
$UNITMODE
 70
     0
  9
$VISRETAIN
 70
     1
  9
$PLINEGEN
 70
     0
  9
$PSLTSCALE
 70
     1
  9
$TREEDEPTH
 70
  3020
  9
$CMLSTYLE
  2
STANDARD
  9
$CMLJUST
 70
     0
  9
$CMLSCALE
 40
1.0
  9
$PROXYGRAPHICS
 70
     1
  9
$MEASUREMENT
 70
     0
  9
$CELWEIGHT
370
    -1
  9
$ENDCAPS
280
     0
  9
$JOINSTYLE
280
     0
  9
$LWDISPLAY
290
     0
  9
$INSUNITS
 70
     0
  9
$HYPERLINKBASE
  1

  9
$STYLESHEET
  1

  9
$XEDIT
290
     1
  9
$CEPSNTYPE
380
     0
  9
$PSTYLEMODE
290
     1
  9
$FINGERPRINTGUID
  2
{F8FD539F-4A6C-4282-AD5E-263000611C18}
  9
$VERSIONGUID
  2
{20A11A0A-EDE7-4597-B0B2-9A45023E77C8}
  9
$EXTNAMES
290
     1
  9
$PSVPSCALE
 40
0.0
  9
$OLESTARTUP
290
     0
  0
ENDSEC
  0
SECTION
  2
CLASSES
  0
CLASS
  1
ACDBDICTIONARYWDFLT
  2
AcDbDictionaryWithDefault
  3
AutoCAD 2000
 90
        0
280
     0
281
     0
  0
CLASS
  1
ACDBPLACEHOLDER
  2
AcDbPlaceHolder
  3
AutoCAD 2000
 90
        0
280
     0
281
     0
  0
CLASS
  1
LAYOUT
  2
AcDbLayout
  3
AutoCAD 2000
 90
        0
280
     0
281
     0
  0
ENDSEC
  0
SECTION
  2
TABLES
  0
TABLE
  2
VPORT
  5
8
330
0
100
AcDbSymbolTable
 70
     2
  0
VPORT
  5
146
330
8
100
AcDbSymbolTableRecord
100
AcDbViewportTableRecord
  2
*Active
 70
     0
 10
0.0
 20
0.0
 11
1.0
 21
1.0
 12
148.8479938271509
 22
127.4297999999999
 13
0.0
 23
0.0
 14
1.0
 24
1.0
 15
0.0
 25
0.0
 16
0.0
 26
0.0
 36
1.0
 17
0.0
 27
0.0
 37
0.0
 40
299.4000678935258
 41
1.912109375
 42
50.0
 43
0.0
 44
0.0
 50
0.0
 51
0.0
 71
     0
 72
   100
 73
     1
 74
     1
 75
     0
 76
     0
 77
     0
 78
     0
281
     0
 65
     1
110
0.0
120
0.0
130
0.0
111
1.0
121
0.0
131
0.0
112
0.0
122
1.0
132
0.0
 79
     0
146
0.0
  0
ENDTAB
  0
TABLE
  2
LTYPE
  5
5
330
0
100
AcDbSymbolTable
 70
     2
  0
LTYPE
  5
12
330
5
100
AcDbSymbolTableRecord
100
AcDbLinetypeTableRecord
  2
BYBLOCK
 70
     0
  3

 72
    65
 73
     0
 40
0.0
  0
LTYPE
  5
13
330
5
100
AcDbSymbolTableRecord
100
AcDbLinetypeTableRecord
  2
BYLAYER
 70
     0
  3

 72
    65
 73
     0
 40
0.0
  0
LTYPE
  5
14
330
5
100
AcDbSymbolTableRecord
100
AcDbLinetypeTableRecord
  2
CONTINUOUS
 70
     0
  3
Solid line
 72
    65
 73
     0
 40
0.0
  0
LTYPE
  5
1F
330
5
100
AcDbSymbolTableRecord
100
AcDbLinetypeTableRecord
  2
AIGENLINE001
 70
     0
  3
generate AI->DXF Converter
 72
    65
 73
     4
 40
5.856144999999999
 49
3.5278
 74
     0
 49
-0.776115
 74
     0
 49
0.776115
 74
     0
 49
-0.776115
 74
     0
  0
ENDTAB
  0
TABLE
  2
LAYER
  5
2
330
0
100
AcDbSymbolTable
 70
     2
  0
LAYER
  5
E
330
2
100
AcDbSymbolTableRecord
100
AcDbLayerTableRecord
  2
0
 70
     0
 62
     7
  6
CONTINUOUS
370
    -3
390
13E
  0
LAYER
  5
20
330
2
100
AcDbSymbolTableRecord
100
AcDbLayerTableRecord
  2
_________2
 70
     0
 62
     7
  6
CONTINUOUS
370
    -3
390
13E
  0
ENDTAB
  0
TABLE
  2
STYLE
  5
3
330
0
100
AcDbSymbolTable
 70
     1
  0
STYLE
  5
F
330
3
100
AcDbSymbolTableRecord
100
AcDbTextStyleTableRecord
  2
STANDARD
 70
     0
 40
0.0
 41
0.0
 50
0.0
 71
     0
 42
0.0
  3
TXT
  4
BIGFONT
  0
ENDTAB
  0
TABLE
  2
VIEW
  5
6
330
0
100
AcDbSymbolTable
 70
     0
  0
ENDTAB
  0
TABLE
  2
UCS
  5
7
330
0
100
AcDbSymbolTable
 70
     0
  0
ENDTAB
  0
TABLE
  2
APPID
  5
9
330
0
100
AcDbSymbolTable
 70
     1
  0
APPID
  5
10
330
9
100
AcDbSymbolTableRecord
100
AcDbRegAppTableRecord
  2
ACAD
 70
     0
  0
ENDTAB
  0
TABLE
  2
DIMSTYLE
  5
A
330
0
100
AcDbSymbolTable
 70
     1
100
AcDbDimStyleTable
 71
     0
  0
DIMSTYLE
105
13A
330
A
100
AcDbSymbolTableRecord
100
AcDbDimStyleTableRecord
  2
STANDARD
 70
     0
340
F
  0
ENDTAB
  0
TABLE
  2
BLOCK_RECORD
  5
1
330
0
100
AcDbSymbolTable
 70
     0
  0
BLOCK_RECORD
  5
18
330
1
100
AcDbSymbolTableRecord
100
AcDbBlockTableRecord
  2
*MODEL_SPACE
340
141
  0
BLOCK_RECORD
  5
15
330
1
100
AcDbSymbolTableRecord
100
AcDbBlockTableRecord
  2
*PAPER_SPACE
340
142
  0
ENDTAB
  0
ENDSEC
  0
SECTION
  2
BLOCKS
  0
BLOCK
  5
19
330
18
100
AcDbEntity
  8
0
100
AcDbBlockBegin
  2
*MODEL_SPACE
 70
     0
 10
0.0
 20
0.0
 30
0.0
  3
*MODEL_SPACE
  1

  0
ENDBLK
  5
1A
330
18
100
AcDbEntity
  8
0
100
AcDbBlockEnd
  0
BLOCK
  5
16
330
15
100
AcDbEntity
 67
     1
  8
0
100
AcDbBlockBegin
  2
*PAPER_SPACE
 70
     0
 10
0.0
 20
0.0
 30
0.0
  3
*PAPER_SPACE
  1

  0
ENDBLK
  5
17
330
15
100
AcDbEntity
 67
     1
  8
0
100
AcDbBlockEnd
  0
ENDSEC
  0
SECTION
  2
ENTITIES
  0
TEXT
  5
22
330
18
100
AcDbEntity
  8
0
100
AcDbText
 10
92.85216024242052
 20
121.8118602424205
 30
0.0
 40
3.09234
  1
%%c130
 50
45.0
 41
0.5
 72
     2
 11
96.31430000000001
 21
125.2739999999999
 31
0.0
100
AcDbText
  0
TEXT
  5
23
330
18
100
AcDbEntity
  8
0
100
AcDbText
 10
49.4908
 20
125.4782875
 30
0.0
 40
3.09234
  1
380
 50
90.0
 41
0.5
 72
     1
 11
49.4908
 21
127.411
 31
0.0
100
AcDbText
  0
TEXT
  5
24
330
18
100
AcDbEntity
  8
0
100
AcDbText
 10
55.83169999999999
 20
213.25661
 30
0.0
 40
3.09234
  1
3
 50
90.0
 41
0.5
 72
     1
 11
55.83169999999999
 21
213.772
 31
0.0
100
AcDbText
  0
TEXT
  5
25
330
18
100
AcDbEntity
  8
0
100
AcDbText
 10
55.68100000000001
 20
149.4859824999999
 30
0.0
 40
3.09234
  1
190
 50
90.0
 41
0.5
 72
     1
 11
55.68100000000001
 21
151.161
 31
0.0
100
AcDbText
  0
TEXT
  5
26
330
18
100
AcDbEntity
  8
0
100
AcDbText
 10
141.2002699999999
 20
74.5992
 30
0.0
 40
3.09234
  1
R15
 41
0.5
 72
     2
 11
144.808
 21
74.5992
 31
0.0
100
AcDbText
  0
TEXT
  5
27
330
18
100
AcDbEntity
  8
0
100
AcDbText
 10
82.3747825
 20
184.7359999999999
 30
0.0
 40
3.09234
  1
130
 41
0.5
 72
     1
 11
84.0498
 21
184.7359999999999
 31
0.0
100
AcDbText
  0
TEXT
  5
28
330
18
100
AcDbEntity
  8
0
100
AcDbText
 10
98.3672875
 20
190.747
 30
0.0
 40
3.09234
  1
260
 41
0.5
 72
     1
 11
100.2999999999999
 21
190.747
 31
0.0
100
AcDbText
  0
LINE
  5
29
330
18
100
AcDbEntity
  8
0
100
AcDbLine
 10
89.9548
 20
117.903
 30
0.0
 11
88.80959999999999
 21
115.92
 31
0.0
  0
LINE
  5
2A
330
18
100
AcDbEntity
  8
0
100
AcDbLine
 10
88.80959999999999
 20
115.92
 30
0.0
 11
90.79259999999999
 21
117.0649999999999
 31
0.0
  0
LINE
  5
2B
330
18
100
AcDbEntity
  8
0
100
AcDbLine
 10
90.79259999999999
 20
117.0649999999999
 30
0.0
 11
89.9548
 21
117.903
 31
0.0
  0
LINE
  5
2C
330
18
100
AcDbEntity
  8
0
100
AcDbLine
 10
110.6449999999999
 20
136.9189999999999
 30
0.0
 11
111.7909999999999
 21
138.901
 31
0.0
  0
LINE
  5
2D
330
18
100
AcDbEntity
  8
0
100
AcDbLine
 10
111.7909999999999
 20
138.901
 30
0.0
 11
109.807
 21
137.757
 31
0.0
  0
LINE
  5
2E
330
18
100
AcDbEntity
  8
0
100
AcDbLine
 10
109.807
 20
137.757
 30
0.0
 11
110.6449999999999
 21
136.9189999999999
 31
0.0
  0
LINE
  5
2F
330
18
100
AcDbEntity
  8
0
100
AcDbLine
 10
88.80959999999999
 20
115.92
 30
0.0
 11
111.7909999999999
 21
138.901
 31
0.0
  0
LINE
  5
30
330
18
100
AcDbEntity
  8
0
100
AcDbLine
 10
57.3026
 20
214.107
 30
0.0
 11
57.3026
 21
213.357
 31
0.0
  0
LINE
  5
31
330
18
100
AcDbEntity
  8
0
100
AcDbLine
 10
57.88800000000001
 20
211.145
 30
0.0
 11
57.2954
 21
213.357
 31
0.0
  0
LINE
  5
32
330
18
100
AcDbEntity
  8
0
100
AcDbLine
 10
57.2954
 20
213.357
 30
0.0
 11
56.7028
 21
211.145
 31
0.0
  0
LINE
  5
33
330
18
100
AcDbEntity
  8
0
100
AcDbLine
 10
56.7028
 20
211.145
 30
0.0
 11
57.88800000000001
 21
211.145
 31
0.0
  0
LINE
  5
34
330
18
100
AcDbEntity
  8
0
100
AcDbLine
 10
57.3026
 20
213.357
 30
0.0
 11
57.3026
 21
209.0409999999999
 31
0.0
  0
LINE
  5
35
330
18
100
AcDbEntity
  8
0
100
AcDbLine
 10
56.7173
 20
216.318
 30
0.0
 11
57.3099
 21
214.107
 31
0.0
  0
LINE
  5
36
330
18
100
AcDbEntity
  8
0
100
AcDbLine
 10
57.3099
 20
214.107
 30
0.0
 11
57.9024
 21
216.318
 31
0.0
  0
LINE
  5
37
330
18
100
AcDbEntity
  8
0
100
AcDbLine
 10
57.9024
 20
216.318
 30
0.0
 11
56.7173
 21
216.318
 31
0.0
  0
LINE
  5
38
330
18
100
AcDbEntity
  8
0
100
AcDbLine
 10
57.3026
 20
214.107
 30
0.0
 11
57.3026
 21
218.138
 31
0.0
  0
LINE
  5
39
330
18
100
AcDbEntity
  8
0
100
AcDbLine
 10
66.2997
 20
213.357
 30
0.0
 11
56.3027
 21
213.357
 31
0.0
  0
LINE
  5
3A
330
18
100
AcDbEntity
  8
0
100
AcDbLine
 10
66.2997
 20
214.107
 30
0.0
 11
56.3027
 21
214.107
 31
0.0
  0
LINE
  5
3B
330
18
100
AcDbEntity
  8
0
100
AcDbLine
 10
56.9256
 20
172.6999999999999
 30
0.0
 11
56.333
 21
174.9109999999999
 31
0.0
  0
LINE
  5
3C
330
18
100
AcDbEntity
  8
0
100
AcDbLine
 10
56.333
 20
174.9109999999999
 30
0.0
 11
55.7404
 21
172.6999999999999
 31
0.0
  0
LINE
  5
3D
330
18
100
AcDbEntity
  8
0
100
AcDbLine
 10
55.7404
 20
172.6999999999999
 30
0.0
 11
56.9256
 21
172.6999999999999
 31
0.0
  0
LINE
  5
3E
330
18
100
AcDbEntity
  8
0
100
AcDbLine
 10
55.7549
 20
129.622
 30
0.0
 11
56.3475
 21
127.411
 31
0.0
  0
LINE
  5
3F
330
18
100
AcDbEntity
  8
0
100
AcDbLine
 10
56.3475
 20
127.411
 30
0.0
 11
56.93999999999999
 21
129.622
 31
0.0
  0
LINE
  5
40
330
18
100
AcDbEntity
  8
0
100
AcDbLine
 10
56.93999999999999
 20
129.622
 30
0.0
 11
55.7549
 21
129.622
 31
0.0
  0
LINE
  5
41
330
18
100
AcDbEntity
  8
0
100
AcDbLine
 10
56.333
 20
174.9109999999999
 30
0.0
 11
56.333
 21
127.411
 31
0.0
  0
LINE
  5
42
330
18
100
AcDbEntity
  8
0
100
AcDbLine
 10
61.7498
 20
127.411
 30
0.0
 11
55.3331
 21
127.411
 31
0.0
  0
LINE
  5
43
330
18
100
AcDbEntity
  8
0
100
AcDbLine
 10
50.7354
 20
172.6999999999999
 30
0.0
 11
50.1428
 21
174.9109999999999
 31
0.0
  0
LINE
  5
44
330
18
100
AcDbEntity
  8
0
100
AcDbLine
 10
50.1428
 20
174.9109999999999
 30
0.0
 11
49.5503
 21
172.6999999999999
 31
0.0
  0
LINE
  5
45
330
18
100
AcDbEntity
  8
0
100
AcDbLine
 10
49.5503
 20
172.6999999999999
 30
0.0
 11
50.7354
 21
172.6999999999999
 31
0.0
  0
LINE
  5
46
330
18
100
AcDbEntity
  8
0
100
AcDbLine
 10
49.5647
 20
82.12189999999999
 30
0.0
 11
50.1573
 21
79.9105
 31
0.0
  0
LINE
  5
47
330
18
100
AcDbEntity
  8
0
100
AcDbLine
 10
50.1573
 20
79.9105
 30
0.0
 11
50.74989999999999
 21
82.12189999999999
 31
0.0
  0
LINE
  5
48
330
18
100
AcDbEntity
  8
0
100
AcDbLine
 10
50.74989999999999
 20
82.12189999999999
 30
0.0
 11
49.5647
 21
82.12189999999999
 31
0.0
  0
LINE
  5
49
330
18
100
AcDbEntity
  8
0
100
AcDbLine
 10
50.1428
 20
174.9109999999999
 30
0.0
 11
50.1428
 21
79.9105
 31
0.0
  0
LINE
  5
4A
330
18
100
AcDbEntity
  8
0
100
AcDbLine
 10
69.04980000000001
 20
79.9105
 30
0.0
 11
49.1429
 21
79.9105
 31
0.0
  0
LINE
  5
4B
330
18
100
AcDbEntity
  8
0
100
AcDbLine
 10
69.04980000000001
 20
174.9109999999999
 30
0.0
 11
49.1429
 21
174.9109999999999
 31
0.0
  0
LINE
  5
4C
330
18
100
AcDbEntity
  8
0
100
AcDbLine
 10
133.684
 20
79.86369999999999
 30
0.0
 11
131.702
 21
81.0088
 31
0.0
  0
LINE
  5
4D
330
18
100
AcDbEntity
  8
0
100
AcDbLine
 10
131.702
 20
81.0088
 30
0.0
 11
132.847
 21
79.0262
 31
0.0
  0
LINE
  5
4E
330
18
100
AcDbEntity
  8
0
100
AcDbLine
 10
132.847
 20
79.0262
 30
0.0
 11
133.684
 21
79.86369999999999
 31
0.0
  0
LINE
  5
4F
330
18
100
AcDbEntity
  8
0
100
AcDbLine
 10
138.811
 20
73.8995
 30
0.0
 11
144.808
 21
73.8991
 31
0.0
  0
LINE
  5
50
330
18
100
AcDbEntity
  8
0
100
AcDbLine
 10
131.702
 20
81.0088
 30
0.0
 11
138.811
 21
73.8995
 31
0.0
  0
LINE
  5
51
330
18
100
AcDbEntity
  8
0
100
AcDbLine
 10
70.0113
 20
184.6759999999999
 30
0.0
 11
67.7997
 21
184.084
 31
0.0
  0
LINE
  5
52
330
18
100
AcDbEntity
  8
0
100
AcDbLine
 10
67.7997
 20
184.084
 30
0.0
 11
70.0113
 21
183.4909999999999
 31
0.0
  0
LINE
  5
53
330
18
100
AcDbEntity
  8
0
100
AcDbLine
 10
70.0113
 20
183.4909999999999
 30
0.0
 11
70.0113
 21
184.6759999999999
 31
0.0
  0
LINE
  5
54
330
18
100
AcDbEntity
  8
0
100
AcDbLine
 10
98.0887
 20
183.5059999999999
 30
0.0
 11
100.2999999999999
 21
184.0979999999999
 31
0.0
  0
LINE
  5
55
330
18
100
AcDbEntity
  8
0
100
AcDbLine
 10
100.2999999999999
 20
184.0979999999999
 30
0.0
 11
98.0887
 21
184.6909999999999
 31
0.0
  0
LINE
  5
56
330
18
100
AcDbEntity
  8
0
100
AcDbLine
 10
98.0887
 20
184.6909999999999
 30
0.0
 11
98.0887
 21
183.5059999999999
 31
0.0
  0
LINE
  5
57
330
18
100
AcDbEntity
  8
0
100
AcDbLine
 10
67.7997
 20
184.084
 30
0.0
 11
100.2999999999999
 21
184.084
 31
0.0
  0
LINE
  5
58
330
18
100
AcDbEntity
  8
0
100
AcDbLine
 10
100.2999999999999
 20
179.4529999999999
 30
0.0
 11
100.2999999999999
 21
185.0839999999999
 31
0.0
  0
LINE
  5
59
330
18
100
AcDbEntity
  8
0
  6
AIGENLINE001
100
AcDbLine
 10
100.2999999999999
 20
74.9106
 30
0.0
 11
100.2999999999999
 21
178.7529999999999
 31
0.0
  0
LINE
  5
5A
330
18
100
AcDbEntity
  8
0
100
AcDbLine
 10
70.0113
 20
190.6879999999999
 30
0.0
 11
67.7997
 21
190.0949999999999
 31
0.0
  0
LINE
  5
5B
330
18
100
AcDbEntity
  8
0
100
AcDbLine
 10
67.7997
 20
190.0949999999999
 30
0.0
 11
70.0113
 21
189.503
 31
0.0
  0
LINE
  5
5C
330
18
100
AcDbEntity
  8
0
100
AcDbLine
 10
70.0113
 20
189.503
 30
0.0
 11
70.0113
 21
190.6879999999999
 31
0.0
  0
LINE
  5
5D
330
18
100
AcDbEntity
  8
0
100
AcDbLine
 10
130.5889999999999
 20
189.517
 30
0.0
 11
132.8
 21
190.11
 31
0.0
  0
LINE
  5
5E
330
18
100
AcDbEntity
  8
0
100
AcDbLine
 10
132.8
 20
190.11
 30
0.0
 11
130.5889999999999
 21
190.7019999999999
 31
0.0
  0
LINE
  5
5F
330
18
100
AcDbEntity
  8
0
100
AcDbLine
 10
130.5889999999999
 20
190.7019999999999
 30
0.0
 11
130.5889999999999
 21
189.517
 31
0.0
  0
LINE
  5
60
330
18
100
AcDbEntity
  8
0
100
AcDbLine
 10
67.7997
 20
190.0949999999999
 30
0.0
 11
132.8
 21
190.0949999999999
 31
0.0
  0
LINE
  5
61
330
18
100
AcDbEntity
  8
0
100
AcDbLine
 10
132.8
 20
173.6609999999999
 30
0.0
 11
132.8
 21
191.0949999999999
 31
0.0
  0
LINE
  5
62
330
18
100
AcDbEntity
  8
0
100
AcDbLine
 10
67.7997
 20
173.6609999999999
 30
0.0
 11
67.7997
 21
191.0949999999999
 31
0.0
  0
LINE
  5
63
330
18
100
AcDbEntity
  8
0
  6
AIGENLINE001
100
AcDbLine
 10
62.7998
 20
127.411
 30
0.0
 11
137.8
 21
127.411
 31
0.0
  0
LINE
  5
64
330
18
100
AcDbEntity
  8
0
100
AcDbLine
 10
67.7997
 20
213.357
 30
0.0
 11
67.7997
 21
214.107
 31
0.0
  0
LINE
  5
65
330
18
100
AcDbEntity
  8
0
100
AcDbLine
 10
71.5497
 20
213.357
 30
0.0
 11
71.5497
 21
214.107
 31
0.0
  0
ARC
  5
66
330
18
100
AcDbEntity
  8
0
100
AcDbCircle
 10
73.54980799999999
 20
161.621058
 30
0.0
 40
0.7790150000000001
100
AcDbArc
 50
47.09156899999999
 51
132.9084109999999
  0
ARC
  5
67
330
18
100
AcDbEntity
  8
0
100
AcDbCircle
 10
73.5908
 20
161.6612659999999
 30
0.0
 40
0.7795890000000001
100
AcDbArc
 50
137.1307689999999
 51
222.869231
  0
ARC
  5
68
330
18
100
AcDbEntity
  8
0
100
AcDbCircle
 10
82.04994599999999
 20
165.701256
 30
0.0
 40
0.7790150000000001
100
AcDbArc
 50
227.0915889999999
 51
312.908431
  0
ARC
  5
69
330
18
100
AcDbEntity
  8
0
100
AcDbCircle
 10
82.03951700000001
 20
165.6650289999999
 30
0.0
 40
0.7602680000000001
100
AcDbArc
 50
315.343568
 51
359.7129049999999
  0
ARC
  5
6A
330
18
100
AcDbEntity
  8
0
100
AcDbCircle
 10
82.04062900000002
 20
165.657523
 30
0.0
 40
0.7591560000000001
100
AcDbArc
 50
0.278986
 51
44.690839
  0
LINE
  5
6B
330
18
100
AcDbEntity
  8
0
100
AcDbLine
 10
73.0194
 20
161.131
 30
0.0
 11
81.5196
 21
152.631
 31
0.0
  0
LINE
  5
6C
330
18
100
AcDbEntity
  8
0
100
AcDbLine
 10
82.58029999999999
 20
153.692
 30
0.0
 11
74.0802
 21
162.192
 31
0.0
  0
LINE
  5
6D
330
18
100
AcDbEntity
  8
0
100
AcDbLine
 10
78.0197
 20
168.6309999999999
 30
0.0
 11
81.5196
 21
165.1309999999999
 31
0.0
  0
LINE
  5
6E
330
18
100
AcDbEntity
  8
0
100
AcDbLine
 10
82.58029999999999
 20
166.1909999999999
 30
0.0
 11
79.0801
 21
169.692
 31
0.0
  0
ARC
  5
6F
330
18
100
AcDbEntity
  8
0
100
AcDbCircle
 10
78.54987900000001
 20
169.161459
 30
0.0
 40
0.749821
100
AcDbArc
 50
45.00000500000001
 51
134.999975
  0
ARC
  5
70
330
18
100
AcDbEntity
  8
0
100
AcDbCircle
 10
78.59024999999999
 20
169.161287
 30
0.0
 40
0.7790080000000001
100
AcDbArc
 50
137.091057
 51
222.908943
  0
ARC
  5
71
330
18
100
AcDbEntity
  8
0
100
AcDbCircle
 10
96.049869
 20
156.6611949999999
 30
0.0
 40
0.749821
100
AcDbArc
 50
45.00000500000001
 51
134.999975
  0
ARC
  5
72
330
18
100
AcDbEntity
  8
0
100
AcDbCircle
 10
96.090636
 20
156.661023
 30
0.0
 40
0.779298
100
AcDbArc
 50
137.110904
 51
222.889096
  0
ARC
  5
73
330
18
100
AcDbEntity
  8
0
100
AcDbCircle
 10
104.5500069999999
 20
160.701931
 30
0.0
 40
0.779553
100
AcDbArc
 50
227.111056
 51
312.888964
  0
ARC
  5
74
330
18
100
AcDbEntity
  8
0
100
AcDbCircle
 10
104.5403759999999
 20
160.6653679999999
 30
0.0
 40
0.759991
100
AcDbArc
 50
315.297704
 51
359.668918
  0
ARC
  5
75
330
18
100
AcDbEntity
  8
0
100
AcDbCircle
 10
104.5412449999999
 20
160.6572919999999
 30
0.0
 40
0.759117
100
AcDbArc
 50
0.278062
 51
44.72899
  0
LINE
  5
76
330
18
100
AcDbEntity
  8
0
100
AcDbLine
 10
95.5197
 20
168.6309999999999
 30
0.0
 11
104.0189999999999
 21
160.1309999999999
 31
0.0
  0
LINE
  5
77
330
18
100
AcDbEntity
  8
0
100
AcDbLine
 10
105.081
 20
161.192
 30
0.0
 11
96.5801
 21
169.692
 31
0.0
  0
ARC
  5
78
330
18
100
AcDbEntity
  8
0
100
AcDbCircle
 10
96.049869
 20
169.161459
 30
0.0
 40
0.749821
100
AcDbArc
 50
45.00000500000001
 51
134.999975
  0
ARC
  5
79
330
18
100
AcDbEntity
  8
0
100
AcDbCircle
 10
96.090636
 20
169.161287
 30
0.0
 40
0.779298
100
AcDbArc
 50
137.110904
 51
222.889096
  0
ARC
  5
7A
330
18
100
AcDbEntity
  8
0
100
AcDbCircle
 10
71.549746
 20
171.1613489999999
 30
0.0
 40
3.750011
100
AcDbArc
 50
90.0
 51
179.9999699999999
  0
LINE
  5
7B
330
18
100
AcDbEntity
  8
0
100
AcDbLine
 10
71.5497
 20
214.107
 30
0.0
 11
67.7997
 21
214.107
 31
0.0
  0
LINE
  5
7C
330
18
100
AcDbEntity
  8
0
100
AcDbLine
 10
71.5497
 20
213.357
 30
0.0
 11
67.7997
 21
213.357
 31
0.0
  0
LINE
  5
7D
330
18
100
AcDbEntity
  8
0
100
AcDbLine
 10
129.05
 20
213.357
 30
0.0
 11
129.05
 21
214.107
 31
0.0
  0
LINE
  5
7E
330
18
100
AcDbEntity
  8
0
100
AcDbLine
 10
132.8
 20
213.357
 30
0.0
 11
132.8
 21
214.107
 31
0.0
  0
LINE
  5
7F
330
18
100
AcDbEntity
  8
0
100
AcDbLine
 10
132.8
 20
214.107
 30
0.0
 11
129.05
 21
214.107
 31
0.0
  0
LINE
  5
80
330
18
100
AcDbEntity
  8
0
100
AcDbLine
 10
132.8
 20
213.357
 30
0.0
 11
129.05
 21
213.357
 31
0.0
  0
ARC
  5
81
330
18
100
AcDbEntity
  8
0
100
AcDbCircle
 10
129.05013
 20
171.1615209999999
 30
0.0
 40
3.749839
100
AcDbArc
 50
359.9973779999999
 51
89.997348
  0
ARC
  5
82
330
18
100
AcDbEntity
  8
0
100
AcDbCircle
 10
123.5501729999999
 20
166.661337
 30
0.0
 40
0.749821
100
AcDbArc
 50
45.00000500000001
 51
134.999975
  0
ARC
  5
83
330
18
100
AcDbEntity
  8
0
100
AcDbCircle
 10
123.5909399999999
 20
166.6611649999999
 30
0.0
 40
0.779298
100
AcDbArc
 50
137.110904
 51
222.889096
  0
LINE
  5
84
330
18
100
AcDbEntity
  8
0
100
AcDbLine
 10
123.0199999999999
 20
166.1309999999999
 30
0.0
 11
126.5199999999999
 21
162.631
 31
0.0
  0
ARC
  5
85
330
18
100
AcDbEntity
  8
0
100
AcDbCircle
 10
118.54993
 20
159.161317
 30
0.0
 40
0.749821
100
AcDbArc
 50
45.00000500000001
 51
134.999975
  0
ARC
  5
86
330
18
100
AcDbEntity
  8
0
100
AcDbCircle
 10
118.590697
 20
159.161145
 30
0.0
 40
0.779298
100
AcDbArc
 50
137.110904
 51
222.889096
  0
LINE
  5
87
330
18
100
AcDbEntity
  8
0
100
AcDbLine
 10
127.581
 20
163.692
 30
0.0
 11
124.0799999999999
 21
167.192
 31
0.0
  0
ARC
  5
88
330
18
100
AcDbEntity
  8
0
100
AcDbCircle
 10
127.050068
 20
163.202827
 30
0.0
 40
0.7801200000000001
100
AcDbArc
 50
227.149743
 51
312.850277
  0
ARC
  5
89
330
18
100
AcDbEntity
  8
0
100
AcDbCircle
 10
127.040437
 20
163.1654899999999
 30
0.0
 40
0.759991
100
AcDbArc
 50
315.297704
 51
359.668918
  0
ARC
  5
8A
330
18
100
AcDbEntity
  8
0
100
AcDbCircle
 10
127.041306
 20
163.1574139999999
 30
0.0
 40
0.759117
100
AcDbArc
 50
0.278062
 51
44.72899
  0
LINE
  5
8B
330
18
100
AcDbEntity
  8
0
100
AcDbLine
 10
129.05
 20
174.9109999999999
 30
0.0
 11
71.5497
 21
174.9109999999999
 31
0.0
  0
LINE
  5
8C
330
18
100
AcDbEntity
  8
0
100
AcDbLine
 10
129.05
 20
214.107
 30
0.0
 11
71.5497
 21
214.107
 31
0.0
  0
LINE
  5
8D
330
18
100
AcDbEntity
  8
0
100
AcDbLine
 10
129.05
 20
213.357
 30
0.0
 11
71.5497
 21
213.357
 31
0.0
  0
ARC
  5
8E
330
18
100
AcDbEntity
  8
0
100
AcDbCircle
 10
73.54980799999999
 20
149.1207949999999
 30
0.0
 40
0.7790150000000001
100
AcDbArc
 50
47.09156899999999
 51
132.9084109999999
  0
ARC
  5
8F
330
18
100
AcDbEntity
  8
0
100
AcDbCircle
 10
73.5908
 20
149.1610029999999
 30
0.0
 40
0.7795890000000001
100
AcDbArc
 50
137.1307689999999
 51
222.869231
  0
ARC
  5
90
330
18
100
AcDbEntity
  8
0
100
AcDbCircle
 10
73.54980799999999
 20
136.620876
 30
0.0
 40
0.7790150000000001
100
AcDbArc
 50
47.09156899999999
 51
132.9084109999999
  0
ARC
  5
91
330
18
100
AcDbEntity
  8
0
100
AcDbCircle
 10
73.5908
 20
136.661084
 30
0.0
 40
0.7795890000000001
100
AcDbArc
 50
137.1307689999999
 51
222.869231
  0
ARC
  5
92
330
18
100
AcDbEntity
  8
0
100
AcDbCircle
 10
82.04994599999999
 20
140.701418
 30
0.0
 40
0.7790150000000001
100
AcDbArc
 50
227.0915889999999
 51
312.908431
  0
ARC
  5
93
330
18
100
AcDbEntity
  8
0
100
AcDbCircle
 10
82.04099799999999
 20
140.664581
 30
0.0
 40
0.758787
100
AcDbArc
 50
315.297775
 51
359.7324009999999
  0
ARC
  5
94
330
18
100
AcDbEntity
  8
0
100
AcDbCircle
 10
82.04062900000002
 20
140.657341
 30
0.0
 40
0.7591560000000001
100
AcDbArc
 50
0.278986
 51
44.690839
  0
LINE
  5
95
330
18
100
AcDbEntity
  8
0
100
AcDbLine
 10
73.0194
 20
148.631
 30
0.0
 11
81.5196
 21
140.131
 31
0.0
  0
LINE
  5
96
330
18
100
AcDbEntity
  8
0
100
AcDbLine
 10
82.58029999999999
 20
141.1909999999999
 30
0.0
 11
74.0802
 21
149.6909999999999
 31
0.0
  0
ARC
  5
97
330
18
100
AcDbEntity
  8
0
100
AcDbCircle
 10
77.049875
 20
133.160673
 30
0.0
 40
0.749821
100
AcDbArc
 50
225.0000249999999
 51
314.999995
  0
ARC
  5
98
330
18
100
AcDbEntity
  8
0
100
AcDbCircle
 10
77.04073499999999
 20
133.164715
 30
0.0
 40
0.7591520000000001
100
AcDbArc
 50
315.27207
 51
359.7208779999999
  0
ARC
  5
99
330
18
100
AcDbEntity
  8
0
100
AcDbCircle
 10
77.041567
 20
133.157317
 30
0.0
 40
0.75832
100
AcDbArc
 50
0.279583
 51
44.753795
  0
ARC
  5
9A
330
18
100
AcDbEntity
  8
0
100
AcDbCircle
 10
73.54980799999999
 20
124.120612
 30
0.0
 40
0.7790150000000001
100
AcDbArc
 50
47.09156899999999
 51
132.9084109999999
  0
ARC
  5
9B
330
18
100
AcDbEntity
  8
0
100
AcDbCircle
 10
73.5908
 20
124.1608199999999
 30
0.0
 40
0.7795890000000001
100
AcDbArc
 50
137.1307689999999
 51
222.869231
  0
LINE
  5
9C
330
18
100
AcDbEntity
  8
0
100
AcDbLine
 10
77.5801
 20
133.691
 30
0.0
 11
74.0802
 21
137.1909999999999
 31
0.0
  0
LINE
  5
9D
330
18
100
AcDbEntity
  8
0
100
AcDbLine
 10
73.0194
 20
136.131
 30
0.0
 11
76.5197
 21
132.63
 31
0.0
  0
ARC
  5
9E
330
18
100
AcDbEntity
  8
0
100
AcDbCircle
 10
104.5500069999999
 20
148.202012
 30
0.0
 40
0.779553
100
AcDbArc
 50
227.111056
 51
312.888964
  0
ARC
  5
9F
330
18
100
AcDbEntity
  8
0
100
AcDbCircle
 10
104.5403759999999
 20
148.1654489999999
 30
0.0
 40
0.759991
100
AcDbArc
 50
315.297704
 51
359.668918
  0
ARC
  5
A0
330
18
100
AcDbEntity
  8
0
100
AcDbCircle
 10
104.542043
 20
148.157357
 30
0.0
 40
0.75832
100
AcDbArc
 50
0.279583
 51
44.753795
  0
ARC
  5
A1
330
18
100
AcDbEntity
  8
0
100
AcDbCircle
 10
73.54980799999999
 20
111.6206929999999
 30
0.0
 40
0.7790150000000001
100
AcDbArc
 50
47.09156899999999
 51
132.9084109999999
  0
ARC
  5
A2
330
18
100
AcDbEntity
  8
0
100
AcDbCircle
 10
73.5908
 20
111.6609009999999
 30
0.0
 40
0.7795890000000001
100
AcDbArc
 50
137.1307689999999
 51
222.869231
  0
ARC
  5
A3
330
18
100
AcDbEntity
  8
0
100
AcDbCircle
 10
82.04994599999999
 20
115.701235
 30
0.0
 40
0.7790150000000001
100
AcDbArc
 50
227.0915889999999
 51
312.908431
  0
ARC
  5
A4
330
18
100
AcDbEntity
  8
0
100
AcDbCircle
 10
82.04099799999999
 20
115.664399
 30
0.0
 40
0.758787
100
AcDbArc
 50
315.297775
 51
359.7324009999999
  0
ARC
  5
A5
330
18
100
AcDbEntity
  8
0
100
AcDbCircle
 10
82.04062900000002
 20
115.657158
 30
0.0
 40
0.7591560000000001
100
AcDbArc
 50
0.278986
 51
44.690839
  0
LINE
  5
A6
330
18
100
AcDbEntity
  8
0
100
AcDbLine
 10
82.58029999999999
 20
103.6909999999999
 30
0.0
 11
74.0802
 21
112.1909999999999
 31
0.0
  0
ARC
  5
A7
330
18
100
AcDbEntity
  8
0
100
AcDbCircle
 10
73.54980799999999
 20
99.12043
 30
0.0
 40
0.7790150000000001
100
AcDbArc
 50
47.09156899999999
 51
132.9084109999999
  0
ARC
  5
A8
330
18
100
AcDbEntity
  8
0
100
AcDbCircle
 10
73.5908
 20
99.16063800000001
 30
0.0
 40
0.7795890000000001
100
AcDbArc
 50
137.1307689999999
 51
222.869231
  0
ARC
  5
A9
330
18
100
AcDbEntity
  8
0
100
AcDbCircle
 10
82.04994599999999
 20
90.70145
 30
0.0
 40
0.7793060000000001
100
AcDbArc
 50
227.1114509999999
 51
312.888569
  0
ARC
  5
AA
330
18
100
AcDbEntity
  8
0
100
AcDbCircle
 10
82.041365
 20
90.66406500000001
 30
0.0
 40
0.758419
100
AcDbArc
 50
315.286438
 51
359.743738
  0
ARC
  5
AB
330
18
100
AcDbEntity
  8
0
100
AcDbCircle
 10
82.04062900000002
 20
90.656976
 30
0.0
 40
0.7591560000000001
100
AcDbArc
 50
0.278986
 51
44.690839
  0
LINE
  5
AC
330
18
100
AcDbEntity
  8
0
100
AcDbLine
 10
73.0194
 20
98.63030000000001
 30
0.0
 11
81.5196
 21
90.13049999999999
 31
0.0
  0
LINE
  5
AD
330
18
100
AcDbEntity
  8
0
100
AcDbLine
 10
82.58029999999999
 20
91.19089999999999
 30
0.0
 11
74.0802
 21
99.691
 31
0.0
  0
LINE
  5
AE
330
18
100
AcDbEntity
  8
0
100
AcDbLine
 10
73.0194
 20
111.131
 30
0.0
 11
81.5196
 21
102.6299999999999
 31
0.0
  0
ARC
  5
AF
330
18
100
AcDbEntity
  8
0
100
AcDbCircle
 10
82.04994599999999
 20
103.200972
 30
0.0
 40
0.7790150000000001
100
AcDbArc
 50
227.0915889999999
 51
312.908431
  0
ARC
  5
B0
330
18
100
AcDbEntity
  8
0
100
AcDbCircle
 10
82.040986
 20
103.1641379999999
 30
0.0
 40
0.7587970000000001
100
AcDbArc
 50
315.298264
 51
359.7582089999999
  0
ARC
  5
B1
330
18
100
AcDbEntity
  8
0
100
AcDbCircle
 10
82.04062900000002
 20
103.157239
 30
0.0
 40
0.7591560000000001
100
AcDbArc
 50
0.278986
 51
44.690839
  0
ARC
  5
B2
330
18
100
AcDbEntity
  8
0
100
AcDbCircle
 10
102.550117
 20
107.660948
 30
0.0
 40
0.749821
100
AcDbArc
 50
45.00000500000001
 51
134.999975
  0
ARC
  5
B3
330
18
100
AcDbEntity
  8
0
100
AcDbCircle
 10
102.590884
 20
107.6607759999999
 30
0.0
 40
0.779298
100
AcDbArc
 50
137.110904
 51
222.889096
  0
ARC
  5
B4
330
18
100
AcDbEntity
  8
0
100
AcDbCircle
 10
104.5500069999999
 20
105.701668
 30
0.0
 40
0.779553
100
AcDbArc
 50
227.111056
 51
312.888964
  0
ARC
  5
B5
330
18
100
AcDbEntity
  8
0
100
AcDbCircle
 10
104.5403759999999
 20
105.665105
 30
0.0
 40
0.759991
100
AcDbArc
 50
315.297704
 51
359.668918
  0
ARC
  5
B6
330
18
100
AcDbEntity
  8
0
100
AcDbCircle
 10
104.5412449999999
 20
105.657029
 30
0.0
 40
0.759117
100
AcDbArc
 50
0.278062
 51
44.72899
  0
LINE
  5
B7
330
18
100
AcDbEntity
  8
0
100
AcDbLine
 10
105.081
 20
106.191
 30
0.0
 11
103.0799999999999
 21
108.191
 31
0.0
  0
LINE
  5
B8
330
18
100
AcDbEntity
  8
0
100
AcDbLine
 10
102.0199999999999
 20
107.1299999999999
 30
0.0
 11
104.0189999999999
 21
105.1309999999999
 31
0.0
  0
ARC
  5
B9
330
18
100
AcDbEntity
  8
0
100
AcDbCircle
 10
96.049869
 20
101.6609319999999
 30
0.0
 40
0.749821
100
AcDbArc
 50
45.00000500000001
 51
134.999975
  0
ARC
  5
BA
330
18
100
AcDbEntity
  8
0
100
AcDbCircle
 10
96.090636
 20
101.6607599999999
 30
0.0
 40
0.779298
100
AcDbArc
 50
137.110904
 51
222.889096
  0
ARC
  5
BB
330
18
100
AcDbEntity
  8
0
100
AcDbCircle
 10
96.049869
 20
89.120485
 30
0.0
 40
0.778754
100
AcDbArc
 50
47.09097899999999
 51
132.9090009999999
  0
ARC
  5
BC
330
18
100
AcDbEntity
  8
0
100
AcDbCircle
 10
96.049869
 20
89.16066800000001
 30
0.0
 40
0.749821
100
AcDbArc
 50
134.999975
 51
225.0000249999999
  0
LINE
  5
BD
330
18
100
AcDbEntity
  8
0
100
AcDbLine
 10
99.08050000000001
 20
87.1911
 30
0.0
 11
96.5801
 21
89.69089999999999
 31
0.0
  0
ARC
  5
BE
330
18
100
AcDbEntity
  8
0
100
AcDbCircle
 10
104.5500069999999
 20
93.20140400000001
 30
0.0
 40
0.779553
100
AcDbArc
 50
227.111056
 51
312.888964
  0
ARC
  5
BF
330
18
100
AcDbEntity
  8
0
100
AcDbCircle
 10
104.538892
 20
93.16545299999999
 30
0.0
 40
0.7614760000000001
100
AcDbArc
 50
315.3435009999999
 51
359.649447
  0
ARC
  5
C0
330
18
100
AcDbEntity
  8
0
100
AcDbCircle
 10
104.542043
 20
93.15709400000001
 30
0.0
 40
0.75832
100
AcDbArc
 50
0.279583
 51
44.753795
  0
LINE
  5
C1
330
18
100
AcDbEntity
  8
0
100
AcDbLine
 10
95.5197
 20
101.1299999999999
 30
0.0
 11
104.0189999999999
 21
92.6302
 31
0.0
  0
LINE
  5
C2
330
18
100
AcDbEntity
  8
0
100
AcDbLine
 10
105.081
 20
93.69100000000001
 30
0.0
 11
96.5801
 21
102.191
 31
0.0
  0
LINE
  5
C3
330
18
100
AcDbEntity
  8
0
100
AcDbLine
 10
73.0194
 20
123.6299999999999
 30
0.0
 11
81.5196
 21
115.131
 31
0.0
  0
LINE
  5
C4
330
18
100
AcDbEntity
  8
0
100
AcDbLine
 10
82.58029999999999
 20
116.1909999999999
 30
0.0
 11
74.0802
 21
124.6909999999999
 31
0.0
  0
ARC
  5
C5
330
18
100
AcDbEntity
  8
0
100
AcDbCircle
 10
71.549745
 20
83.66053800000001
 30
0.0
 40
3.750008999999999
100
AcDbArc
 50
179.9999699999999
 51
270.00002
  0
LINE
  5
C6
330
18
100
AcDbEntity
  8
0
100
AcDbLine
 10
95.5197
 20
88.63049999999999
 30
0.0
 11
98.01940000000001
 21
86.1303
 31
0.0
  0
ARC
  5
C7
330
18
100
AcDbEntity
  8
0
100
AcDbCircle
 10
98.549991
 20
86.701899
 30
0.0
 40
0.779844
100
AcDbArc
 50
227.130921
 51
312.8690989999999
  0
ARC
  5
C8
330
18
100
AcDbEntity
  8
0
100
AcDbCircle
 10
98.54072700000001
 20
86.66478599999999
 30
0.0
 40
0.7596220000000001
100
AcDbArc
 50
315.2863659999999
 51
359.6802559999999
  0
ARC
  5
C9
330
18
100
AcDbEntity
  8
0
100
AcDbCircle
 10
98.541229
 20
86.656863
 30
0.0
 40
0.759117
100
AcDbArc
 50
0.278062
 51
44.72899
  0
ARC
  5
CA
330
18
100
AcDbEntity
  8
0
100
AcDbCircle
 10
118.54993
 20
146.620474
 30
0.0
 40
0.779044
100
AcDbArc
 50
47.110826
 51
132.8891539999999
  0
ARC
  5
CB
330
18
100
AcDbEntity
  8
0
100
AcDbCircle
 10
118.54993
 20
146.661054
 30
0.0
 40
0.749821
100
AcDbArc
 50
134.999975
 51
225.0000249999999
  0
LINE
  5
CC
330
18
100
AcDbEntity
  8
0
100
AcDbLine
 10
118.0199999999999
 20
146.131
 30
0.0
 11
126.5199999999999
 21
137.6309999999999
 31
0.0
  0
ARC
  5
CD
330
18
100
AcDbEntity
  8
0
100
AcDbCircle
 10
127.050068
 20
138.2026449999999
 30
0.0
 40
0.7801200000000001
100
AcDbArc
 50
227.149743
 51
312.850277
  0
ARC
  5
CE
330
18
100
AcDbEntity
  8
0
100
AcDbCircle
 10
127.040437
 20
138.165307
 30
0.0
 40
0.759991
100
AcDbArc
 50
315.297704
 51
359.668918
  0
ARC
  5
CF
330
18
100
AcDbEntity
  8
0
100
AcDbCircle
 10
127.041306
 20
138.1572319999999
 30
0.0
 40
0.759117
100
AcDbArc
 50
0.278062
 51
44.72899
  0
LINE
  5
D0
330
18
100
AcDbEntity
  8
0
100
AcDbLine
 10
127.581
 20
138.691
 30
0.0
 11
119.08
 21
147.191
 31
0.0
  0
ARC
  5
D1
330
18
100
AcDbEntity
  8
0
100
AcDbCircle
 10
127.050068
 20
150.702563
 30
0.0
 40
0.7801200000000001
100
AcDbArc
 50
227.149743
 51
312.850277
  0
ARC
  5
D2
330
18
100
AcDbEntity
  8
0
100
AcDbCircle
 10
127.038953
 20
150.6658379999999
 30
0.0
 40
0.7614760000000001
100
AcDbArc
 50
315.3435009999999
 51
359.649447
  0
ARC
  5
D3
330
18
100
AcDbEntity
  8
0
100
AcDbCircle
 10
127.042104
 20
150.6574789999999
 30
0.0
 40
0.75832
100
AcDbArc
 50
0.279583
 51
44.753795
  0
ARC
  5
D4
330
18
100
AcDbEntity
  8
0
100
AcDbCircle
 10
118.54993
 20
134.161134
 30
0.0
 40
0.749821
100
AcDbArc
 50
45.00000500000001
 51
134.999975
  0
ARC
  5
D5
330
18
100
AcDbEntity
  8
0
100
AcDbCircle
 10
118.590697
 20
134.160962
 30
0.0
 40
0.779298
100
AcDbArc
 50
137.110904
 51
222.889096
  0
ARC
  5
D6
330
18
100
AcDbEntity
  8
0
100
AcDbCircle
 10
118.54993
 20
121.620291
 30
0.0
 40
0.779044
100
AcDbArc
 50
47.110826
 51
132.8891539999999
  0
ARC
  5
D7
330
18
100
AcDbEntity
  8
0
100
AcDbCircle
 10
118.54993
 20
121.660871
 30
0.0
 40
0.749821
100
AcDbArc
 50
134.999975
 51
225.0000249999999
  0
LINE
  5
D8
330
18
100
AcDbEntity
  8
0
100
AcDbLine
 10
118.0199999999999
 20
133.631
 30
0.0
 11
126.5199999999999
 21
125.13
 31
0.0
  0
ARC
  5
D9
330
18
100
AcDbEntity
  8
0
100
AcDbCircle
 10
127.050068
 20
125.7023809999999
 30
0.0
 40
0.7801200000000001
100
AcDbArc
 50
227.149743
 51
312.850277
  0
ARC
  5
DA
330
18
100
AcDbEntity
  8
0
100
AcDbCircle
 10
127.038953
 20
125.665656
 30
0.0
 40
0.7614760000000001
100
AcDbArc
 50
315.3435009999999
 51
359.649447
  0
ARC
  5
DB
330
18
100
AcDbEntity
  8
0
100
AcDbCircle
 10
127.042104
 20
125.6572959999999
 30
0.0
 40
0.75832
100
AcDbArc
 50
0.279583
 51
44.753795
  0
LINE
  5
DC
330
18
100
AcDbEntity
  8
0
100
AcDbLine
 10
127.581
 20
126.191
 30
0.0
 11
119.08
 21
134.691
 31
0.0
  0
ARC
  5
DD
330
18
100
AcDbEntity
  8
0
100
AcDbCircle
 10
118.54993
 20
109.160952
 30
0.0
 40
0.749821
100
AcDbArc
 50
45.00000500000001
 51
134.999975
  0
ARC
  5
DE
330
18
100
AcDbEntity
  8
0
100
AcDbCircle
 10
118.590697
 20
109.16078
 30
0.0
 40
0.779298
100
AcDbArc
 50
137.110904
 51
222.889096
  0
ARC
  5
DF
330
18
100
AcDbEntity
  8
0
100
AcDbCircle
 10
127.050068
 20
113.202462
 30
0.0
 40
0.7801200000000001
100
AcDbArc
 50
227.149743
 51
312.850277
  0
ARC
  5
E0
330
18
100
AcDbEntity
  8
0
100
AcDbCircle
 10
127.040437
 20
113.1651249999999
 30
0.0
 40
0.759991
100
AcDbArc
 50
315.297704
 51
359.668918
  0
ARC
  5
E1
330
18
100
AcDbEntity
  8
0
100
AcDbCircle
 10
127.041306
 20
113.157049
 30
0.0
 40
0.759117
100
AcDbArc
 50
0.278062
 51
44.72899
  0
ARC
  5
E2
330
18
100
AcDbEntity
  8
0
100
AcDbCircle
 10
118.54993
 20
96.66103299999999
 30
0.0
 40
0.749821
100
AcDbArc
 50
45.00000500000001
 51
134.999975
  0
ARC
  5
E3
330
18
100
AcDbEntity
  8
0
100
AcDbCircle
 10
118.590697
 20
96.66086100000001
 30
0.0
 40
0.779298
100
AcDbArc
 50
137.110904
 51
222.889096
  0
LINE
  5
E4
330
18
100
AcDbEntity
  8
0
100
AcDbLine
 10
118.0199999999999
 20
96.13050000000001
 30
0.0
 11
126.5199999999999
 21
87.6303
 31
0.0
  0
ARC
  5
E5
330
18
100
AcDbEntity
  8
0
100
AcDbCircle
 10
127.050068
 20
100.7021989999999
 30
0.0
 40
0.7801200000000001
100
AcDbArc
 50
227.149743
 51
312.850277
  0
ARC
  5
E6
330
18
100
AcDbEntity
  8
0
100
AcDbCircle
 10
127.038953
 20
100.6654729999999
 30
0.0
 40
0.7614760000000001
100
AcDbArc
 50
315.3435009999999
 51
359.649447
  0
ARC
  5
E7
330
18
100
AcDbEntity
  8
0
100
AcDbCircle
 10
127.042104
 20
100.657114
 30
0.0
 40
0.75832
100
AcDbArc
 50
0.279583
 51
44.753795
  0
ARC
  5
E8
330
18
100
AcDbEntity
  8
0
100
AcDbCircle
 10
127.050068
 20
88.20267800000001
 30
0.0
 40
0.7804120000000001
100
AcDbArc
 50
227.169613
 51
312.8304069999999
  0
ARC
  5
E9
330
18
100
AcDbEntity
  8
0
100
AcDbCircle
 10
127.040804
 20
88.16478999999999
 30
0.0
 40
0.7596220000000001
100
AcDbArc
 50
315.2863659999999
 51
359.6802559999999
  0
ARC
  5
EA
330
18
100
AcDbEntity
  8
0
100
AcDbCircle
 10
127.041306
 20
88.156867
 30
0.0
 40
0.759117
100
AcDbArc
 50
0.278062
 51
44.72899
  0
LINE
  5
EB
330
18
100
AcDbEntity
  8
0
100
AcDbLine
 10
127.581
 20
88.6911
 30
0.0
 11
119.08
 21
97.19090000000001
 31
0.0
  0
LINE
  5
EC
330
18
100
AcDbEntity
  8
0
100
AcDbLine
 10
118.0199999999999
 20
108.63
 30
0.0
 11
126.5199999999999
 21
100.13
 31
0.0
  0
LINE
  5
ED
330
18
100
AcDbEntity
  8
0
100
AcDbLine
 10
127.581
 20
101.191
 30
0.0
 11
119.08
 21
109.691
 31
0.0
  0
LINE
  5
EE
330
18
100
AcDbEntity
  8
0
100
AcDbLine
 10
118.0199999999999
 20
121.131
 30
0.0
 11
126.5199999999999
 21
112.6309999999999
 31
0.0
  0
LINE
  5
EF
330
18
100
AcDbEntity
  8
0
100
AcDbLine
 10
127.581
 20
113.691
 30
0.0
 11
119.08
 21
122.191
 31
0.0
  0
ARC
  5
F0
330
18
100
AcDbEntity
  8
0
100
AcDbCircle
 10
129.05013
 20
83.660367
 30
0.0
 40
3.749839
100
AcDbArc
 50
270.002652
 51
0.002622
  0
ARC
  5
F1
330
18
100
AcDbEntity
  8
0
100
AcDbCircle
 10
100.2999349999999
 20
127.4109409999999
 30
0.0
 40
16.250104
100
AcDbArc
 50
359.999403
 51
89.99937299999999
  0
ARC
  5
F2
330
18
100
AcDbEntity
  8
0
100
AcDbCircle
 10
100.300199
 20
127.410855
 30
0.0
 40
16.25018999999999
100
AcDbArc
 50
90.00030400000001
 51
180.000314
  0
ARC
  5
F3
330
18
100
AcDbEntity
  8
0
100
AcDbCircle
 10
100.300022
 20
127.410855
 30
0.0
 40
16.25001199999999
100
AcDbArc
 50
180.000314
 51
270.000324
  0
ARC
  5
F4
330
18
100
AcDbEntity
  8
0
100
AcDbCircle
 10
100.3001079999999
 20
127.4107749999999
 30
0.0
 40
16.249932
100
AcDbArc
 50
270.00002
 51
359.9999899999999
  0
LINE
  5
F5
330
18
100
AcDbEntity
  8
0
100
AcDbLine
 10
71.5497
 20
79.9105
 30
0.0
 11
129.05
 21
79.9105
 31
0.0
  0
LINE
  5
F6
330
18
100
AcDbEntity
  8
0
100
AcDbLine
 10
67.7997
 20
171.1609999999999
 30
0.0
 11
67.7997
 21
83.66049999999999
 31
0.0
  0
LINE
  5
F7
330
18
100
AcDbEntity
  8
0
100
AcDbLine
 10
132.8
 20
83.66049999999999
 30
0.0
 11
132.8
 21
171.1609999999999
 31
0.0
  0
ARC
  5
F8
330
18
100
AcDbEntity
  8
0
100
AcDbCircle
 10
82.04994599999999
 20
153.201337
 30
0.0
 40
0.7790150000000001
100
AcDbArc
 50
227.0915889999999
 51
312.908431
  0
ARC
  5
F9
330
18
100
AcDbEntity
  8
0
100
AcDbCircle
 10
82.04099799999999
 20
153.1645
 30
0.0
 40
0.758787
100
AcDbArc
 50
315.297775
 51
359.7324009999999
  0
ARC
  5
FA
330
18
100
AcDbEntity
  8
0
100
AcDbCircle
 10
82.03983
 20
153.1572759999999
 30
0.0
 40
0.7599550000000001
100
AcDbArc
 50
0.277467
 51
44.66605999999999
  0
LINE
  5
FB
330
18
100
AcDbEntity
  8
0
100
AcDbLine
 10
118.0199999999999
 20
158.631
 30
0.0
 11
126.5199999999999
 21
150.131
 31
0.0
  0
LINE
  5
FC
330
18
100
AcDbEntity
  8
0
100
AcDbLine
 10
127.581
 20
151.191
 30
0.0
 11
119.08
 21
159.692
 31
0.0
  0
LINE
  5
FD
330
18
100
AcDbEntity
  8
0
100
AcDbLine
 10
95.5197
 20
156.1309999999999
 30
0.0
 11
104.0189999999999
 21
147.6309999999999
 31
0.0
  0
LINE
  5
FE
330
18
100
AcDbEntity
  8
0
100
AcDbLine
 10
105.081
 20
148.6909999999999
 30
0.0
 11
96.5801
 21
157.191
 31
0.0
  0
LINE
  5
FF
330
18
100
AcDbEntity
  8
_________2
100
AcDbLine
 10
205.301
 20
127.411
 30
0.0
 11
183.551
 21
127.411
 31
0.0
  0
LINE
  5
100
330
18
100
AcDbEntity
  8
_________2
100
AcDbLine
 10
100.2999999999999
 20
-4.09108
 30
0.0
 11
100.2999999999999
 21
-21.0714
 31
0.0
  0
LINE
  5
101
330
18
100
AcDbEntity
  8
_________2
100
AcDbLine
 10
100.2999999999999
 20
275.9309999999999
 30
0.0
 11
100.2999999999999
 21
258.911
 31
0.0
  0
LINE
  5
102
330
18
100
AcDbEntity
  8
_________2
100
AcDbLine
 10
17.0495
 20
127.411
 30
0.0
 11
-4.700859999999999
 21
127.411
 31
0.0
  0
LINE
  5
103
330
18
100
AcDbEntity
  8
_________2
100
AcDbLine
 10
76.741
 20
29.8047
 30
0.0
 11
74.5547
 21
29.8047
 31
0.0
  0
LINE
  5
104
330
18
100
AcDbEntity
  8
_________2
100
AcDbLine
 10
77.2337
 20
29.8047
 30
0.0
 11
76.9815
 21
29.8047
 31
0.0
  0
LINE
  5
105
330
18
100
AcDbEntity
  8
_________2
100
AcDbLine
 10
77.72629999999999
 20
29.8047
 30
0.0
 11
80.6512
 21
29.8047
 31
0.0
  0
LINE
  5
106
330
18
100
AcDbEntity
  8
_________2
100
AcDbLine
 10
77.2337
 20
29.8047
 30
0.0
 11
77.4859
 21
29.8047
 31
0.0
  0
LINE
  5
107
330
18
100
AcDbEntity
  8
_________2
100
AcDbLine
 10
70.83750000000001
 20
29.8047
 30
0.0
 11
68.6505
 21
29.8047
 31
0.0
  0
LINE
  5
108
330
18
100
AcDbEntity
  8
_________2
100
AcDbLine
 10
71.32940000000001
 20
29.8047
 30
0.0
 11
71.0779
 21
29.8047
 31
0.0
  0
LINE
  5
109
330
18
100
AcDbEntity
  8
_________2
100
AcDbLine
 10
71.32940000000001
 20
30.2974
 30
0.0
 11
71.32940000000001
 21
32.4844
 31
0.0
  0
LINE
  5
10A
330
18
100
AcDbEntity
  8
_________2
100
AcDbLine
 10
71.32940000000001
 20
29.8047
 30
0.0
 11
71.32940000000001
 21
30.05689999999999
 31
0.0
  0
LINE
  5
10B
330
18
100
AcDbEntity
  8
_________2
100
AcDbLine
 10
71.82210000000001
 20
29.8047
 30
0.0
 11
74.009
 21
29.8047
 31
0.0
  0
LINE
  5
10C
330
18
100
AcDbEntity
  8
_________2
100
AcDbLine
 10
71.32940000000001
 20
29.8047
 30
0.0
 11
71.58159999999999
 21
29.8047
 31
0.0
  0
LINE
  5
10D
330
18
100
AcDbEntity
  8
_________2
100
AcDbLine
 10
71.32940000000001
 20
29.3128
 30
0.0
 11
71.32940000000001
 21
27.1258
 31
0.0
  0
LINE
  5
10E
330
18
100
AcDbEntity
  8
_________2
100
AcDbLine
 10
71.32940000000001
 20
29.8047
 30
0.0
 11
71.32940000000001
 21
29.5532
 31
0.0
  0
LINE
  5
10F
330
18
100
AcDbEntity
  8
_________2
100
AcDbLine
 10
75.04049999999999
 20
28.5852
 30
0.0
 11
80.2185
 21
27.7204
 31
0.0
  0
LINE
  5
110
330
18
100
AcDbEntity
  8
_________2
100
AcDbLine
 10
75.04049999999999
 20
31.0243
 30
0.0
 11
80.2185
 21
31.8897
 31
0.0
  0
LINE
  5
111
330
18
100
AcDbEntity
  8
_________2
100
AcDbLine
 10
80.2185
 20
27.7204
 30
0.0
 11
80.2185
 21
31.8897
 31
0.0
  0
LINE
  5
112
330
18
100
AcDbEntity
  8
_________2
100
AcDbLine
 10
75.04049999999999
 20
28.5852
 30
0.0
 11
75.04049999999999
 21
31.0243
 31
0.0
  0
ARC
  5
113
330
18
100
AcDbEntity
  8
_________2
100
AcDbCircle
 10
71.28319000000001
 20
29.757787
 30
0.0
 40
1.267370999999999
100
AcDbArc
 50
2.123295
 51
87.909056
  0
ARC
  5
114
330
18
100
AcDbEntity
  8
_________2
100
AcDbCircle
 10
71.37595999999999
 20
29.758213
 30
0.0
 40
1.266955999999999
100
AcDbArc
 50
92.104701
 51
177.8952689999999
  0
ARC
  5
115
330
18
100
AcDbEntity
  8
_________2
100
AcDbCircle
 10
71.37635799999999
 20
29.851671
 30
0.0
 40
1.267368
100
AcDbArc
 50
182.122036
 51
267.877993
  0
ARC
  5
116
330
18
100
AcDbEntity
  8
_________2
100
AcDbCircle
 10
71.28254100000001
 20
29.852348
 30
0.0
 40
1.268043999999999
100
AcDbArc
 50
272.119164
 51
357.8484849999999
  0
ARC
  5
117
330
18
100
AcDbEntity
  8
_________2
100
AcDbCircle
 10
71.32943
 20
29.804743
 30
0.0
 40
2.084984999999999
100
AcDbArc
 50
0.00001
 51
89.99998000000001
  0
ARC
  5
118
330
18
100
AcDbEntity
  8
_________2
100
AcDbCircle
 10
71.409076
 20
29.72581299999999
 30
0.0
 40
2.165379999999999
100
AcDbArc
 50
92.10787600000001
 51
177.911032
  0
ARC
  5
119
330
18
100
AcDbEntity
  8
_________2
100
AcDbCircle
 10
71.409439
 20
29.884752
 30
0.0
 40
2.165783
100
AcDbArc
 50
182.117133
 51
267.882897
  0
ARC
  5
11A
330
18
100
AcDbEntity
  8
_________2
100
AcDbCircle
 10
71.249459
 20
29.88542999999999
 30
0.0
 40
2.166459
100
AcDbArc
 50
272.115468
 51
357.865604
  0
TEXT
  5
11B
330
18
100
AcDbEntity
  8
_________2
100
AcDbText
 10
104.605
 20
1.67949
 30
0.0
 40
3.09234
  1
図番
 41
0.5
100
AcDbText
  0
LINE
  5
11C
330
18
100
AcDbEntity
  8
_________2
100
AcDbLine
 10
103.55
 20
5.908719999999999
 30
0.0
 11
183.551
 21
5.908719999999999
 31
0.0
  0
TEXT
  5
11D
330
18
100
AcDbEntity
  8
_________2
100
AcDbText
 10
104.605
 20
11.67929999999999
 30
0.0
 40
3.09234
  1
品番
 41
0.5
100
AcDbText
  0
TEXT
  5
11E
330
18
100
AcDbEntity
  8
_________2
100
AcDbText
 10
104.605
 20
31.8181
 30
0.0
 40
3.09234
  1
名称
 41
0.5
100
AcDbText
  0
TEXT
  5
11F
330
18
100
AcDbEntity
  8
_________2
100
AcDbText
 10
91.84505833333334
 20
26.82199999999999
 30
0.0
 40
3.65458
  1
mm
 41
0.5
 72
     1
 11
93.3678
 21
26.82199999999999
 31
0.0
100
AcDbText
  0
TEXT
  5
120
330
18
100
AcDbEntity
  8
_________2
100
AcDbText
 10
85.6432
 20
31.8181
 30
0.0
 40
3.09234
  1
単位
 41
0.5
100
AcDbText
  0
TEXT
  5
121
330
18
100
AcDbEntity
  8
_________2
100
AcDbText
 10
85.6432
 20
19.41079999999999
 30
0.0
 40
3.09234
  1
尺度
 41
0.5
100
AcDbText
  0
TEXT
  5
122
330
18
100
AcDbEntity
  8
_________2
100
AcDbText
 10
90.54875866666666
 20
13.2179
 30
0.0
 40
3.65458
  1
1 ： 4
 41
0.5
 72
     1
 11
93.9597
 21
13.2179
 31
0.0
100
AcDbText
  0
TEXT
  5
123
330
18
100
AcDbEntity
  8
_________2
100
AcDbText
 10
138.1384125
 20
9.10786
 30
0.0
 40
3.9357
  1
CET075
 41
0.5
 72
     1
 11
143.55
 21
9.10786
 31
0.0
100
AcDbText
  0
TEXT
  5
124
330
18
100
AcDbEntity
  8
_________2
100
AcDbText
 10
138.1384125
 20
-0.8926299999999999
 30
0.0
 40
3.9357
  1
CET075
 41
0.5
 72
     1
 11
143.55
 21
-0.8926299999999999
 31
0.0
100
AcDbText
  0
TEXT
  5
125
330
18
100
AcDbEntity
  8
_________2
100
AcDbText
 10
109.179
 20
24.2257
 30
0.0
 40
3.9357
  1
シンクマット（取換用）
 41
0.5
100
AcDbText
  0
TEXT
  5
126
330
18
100
AcDbEntity
  8
_________2
100
AcDbText
 10
39.30348099999999
 20
13.603
 30
0.0
 40
3.65458
  1
田尻
 41
0.5
 72
     1
 11
41.3135
 21
13.603
 31
0.0
100
AcDbText
  0
TEXT
  5
127
330
18
100
AcDbEntity
  8
_________2
100
AcDbText
 10
20.79039066666666
 20
13.603
 30
0.0
 40
3.65458
  1
石原
 41
0.5
 72
     1
 11
22.7395
 21
13.603
 31
0.0
100
AcDbText
  0
TEXT
  5
128
330
18
100
AcDbEntity
  8
_________2
100
AcDbText
 10
67.78579999999999
 20
13.2179
 30
0.0
 40
3.65458
  1
09.12.14
 41
0.5
100
AcDbText
  0
TEXT
  5
129
330
18
100
AcDbEntity
  8
_________2
100
AcDbText
 10
66.59310000000001
 20
19.41079999999999
 30
0.0
 40
3.09234
  1
日付
 41
0.5
100
AcDbText
  0
TEXT
  5
12A
330
18
100
AcDbEntity
  8
_________2
100
AcDbText
 10
29.6394
 20
19.41079999999999
 30
0.0
 40
3.09234
  1
検図
 41
0.5
100
AcDbText
  0
TEXT
  5
12B
330
18
100
AcDbEntity
  8
_________2
100
AcDbText
 10
18.0211
 20
5.21143
 30
0.0
 40
3.09234
  1
備考
 41
0.5
100
AcDbText
  0
TEXT
  5
12C
330
18
100
AcDbEntity
  8
_________2
100
AcDbText
 10
18.0211
 20
19.41079999999999
 30
0.0
 40
3.09234
  1
製図
 41
0.5
100
AcDbText
  0
TEXT
  5
12D
330
18
100
AcDbEntity
  8
_________2
100
AcDbText
 10
23.863431
 20
27.9368
 30
0.0
 40
4.497939999999999
  1
セラトレーディング株式会社
 41
0.5
 72
     1
 11
41.1805
 21
27.9368
 31
0.0
100
AcDbText
  0
LINE
  5
12E
330
18
100
AcDbEntity
  8
_________2
100
AcDbLine
 10
183.551
 20
-4.09108
 30
0.0
 11
17.0495
 21
-4.09108
 31
0.0
  0
LINE
  5
12F
330
18
100
AcDbEntity
  8
_________2
100
AcDbLine
 10
17.0495
 20
-4.09108
 30
0.0
 11
17.0495
 21
258.911
 31
0.0
  0
LINE
  5
130
330
18
100
AcDbEntity
  8
_________2
100
AcDbLine
 10
17.0495
 20
258.911
 30
0.0
 11
183.551
 21
258.911
 31
0.0
  0
LINE
  5
131
330
18
100
AcDbEntity
  8
_________2
100
AcDbLine
 10
183.551
 20
258.911
 30
0.0
 11
183.551
 21
-4.09108
 31
0.0
  0
LINE
  5
132
330
18
100
AcDbEntity
  8
_________2
100
AcDbLine
 10
65.5499
 20
9.40896
 30
0.0
 11
65.5499
 21
35.9088
 31
0.0
  0
LINE
  5
133
330
18
100
AcDbEntity
  8
_________2
100
AcDbLine
 10
84.54970000000001
 20
9.40896
 30
0.0
 11
84.54970000000001
 21
35.9088
 31
0.0
  0
LINE
  5
134
330
18
100
AcDbEntity
  8
_________2
100
AcDbLine
 10
103.55
 20
-4.09108
 30
0.0
 11
103.55
 21
35.9088
 31
0.0
  0
LINE
  5
135
330
18
100
AcDbEntity
  8
_________2
100
AcDbLine
 10
28.54929999999999
 20
9.40896
 30
0.0
 11
28.54929999999999
 21
23.4092
 31
0.0
  0
LINE
  5
136
330
18
100
AcDbEntity
  8
_________2
100
AcDbLine
 10
17.0495
 20
9.40896
 30
0.0
 11
103.55
 21
9.40896
 31
0.0
  0
LINE
  5
137
330
18
100
AcDbEntity
  8
_________2
100
AcDbLine
 10
17.0495
 20
23.4092
 30
0.0
 11
103.55
 21
23.4092
 31
0.0
  0
LINE
  5
138
330
18
100
AcDbEntity
  8
_________2
100
AcDbLine
 10
103.55
 20
15.9085
 30
0.0
 11
183.551
 21
15.9085
 31
0.0
  0
LINE
  5
139
330
18
100
AcDbEntity
  8
_________2
100
AcDbLine
 10
17.0495
 20
35.9088
 30
0.0
 11
183.551
 21
35.9088
 31
0.0
  0
ENDSEC
  0
SECTION
  2
OBJECTS
  0
DICTIONARY
  5
C
330
0
100
AcDbDictionary
281
     1
  3
ACAD_GROUP
350
D
  3
ACAD_MLINESTYLE
350
1B
  3
ACAD_PLOTSTYLENAME
350
13D
  3
ACAD_LAYOUT
350
13F
  3
ACAD_PLOTSETTINGS
350
140
  0
DICTIONARY
  5
D
102
{ACAD_REACTORS
330
C
102
}
330
C
100
AcDbDictionary
281
     1
  0
DICTIONARY
  5
1B
102
{ACAD_REACTORS
330
C
102
}
330
C
100
AcDbDictionary
281
     1
  3
STANDARD
350
1C
  0
ACDBDICTIONARYWDFLT
  5
13D
102
{ACAD_REACTORS
330
C
102
}
330
C
100
AcDbDictionary
281
     1
  3
Normal
350
13E
100
AcDbDictionaryWithDefault
340
13E
  0
DICTIONARY
  5
13F
102
{ACAD_REACTORS
330
C
102
}
330
C
100
AcDbDictionary
281
     1
  3
Model
350
141
  3
ﾚｲｱｳﾄ1
350
142
  0
DICTIONARY
  5
140
102
{ACAD_REACTORS
330
C
102
}
330
C
100
AcDbDictionary
281
     1
  0
MLINESTYLE
  5
1C
102
{ACAD_REACTORS
330
1B
102
}
330
1B
100
AcDbMlineStyle
  2
STANDARD
 70
     0
  3

 62
   256
 51
90.0
 52
90.0
 71
     2
 49
0.5
 62
   256
  6
BYLAYER
 49
-0.5
 62
   256
  6
BYLAYER
  0
ACDBPLACEHOLDER
  5
13E
102
{ACAD_REACTORS
330
13D
102
}
330
13D
  0
LAYOUT
  5
141
102
{ACAD_REACTORS
330
13F
102
}
330
13F
100
AcDbPlotSettings
  1

  2
Canon LASER SHOT LBP-880
  4

  6

 40
0.0
 41
0.0
 42
0.0
 43
0.0
 44
0.0
 45
0.0
 46
0.0
 47
0.0
 48
0.0
 49
0.0
140
0.0
141
0.0
142
1.0
143
1.0
 70
  1712
 72
     0
 73
     0
 74
     0
  7

 75
     0
147
1.0
148
0.0
149
0.0
100
AcDbLayout
  1
Model
 70
     1
 71
     0
 10
0.0
 20
0.0
 11
12.0
 21
9.0
 12
0.0
 22
0.0
 32
0.0
 14
0.0
 24
0.0
 34
0.0
 15
0.0
 25
0.0
 35
0.0
146
0.0
 13
0.0
 23
0.0
 33
0.0
 16
1.0
 26
0.0
 36
0.0
 17
0.0
 27
1.0
 37
0.0
 76
     0
330
18
  0
LAYOUT
  5
142
102
{ACAD_REACTORS
330
13F
102
}
330
13F
100
AcDbPlotSettings
  1

  2
Canon LASER SHOT LBP-880
  4

  6

 40
0.0
 41
0.0
 42
0.0
 43
0.0
 44
0.0
 45
0.0
 46
0.0
 47
0.0
 48
0.0
 49
0.0
140
0.0
141
0.0
142
1.0
143
1.0
 70
   688
 72
     0
 73
     0
 74
     5
  7

 75
    16
147
1.0
148
0.0
149
0.0
100
AcDbLayout
  1
ﾚｲｱｳﾄ1
 70
     1
 71
     1
 10
0.0
 20
0.0
 11
12.0
 21
9.0
 12
0.0
 22
0.0
 32
0.0
 14
1.000000000000000E+20
 24
1.000000000000000E+20
 34
1.000000000000000E+20
 15
-1.000000000000000E+20
 25
-1.000000000000000E+20
 35
-1.000000000000000E+20
146
0.0
 13
0.0
 23
0.0
 33
0.0
 16
1.0
 26
0.0
 36
0.0
 17
0.0
 27
1.0
 37
0.0
 76
     0
330
15
  0
ENDSEC
  0
EOF
