  0
SECTION
  2
HEADER
  9
$ACADVER
  1
AC1009
  9
$INSBASE
 10
0.0
 20
0.0
 30
0.0
  9
$EXTMIN
 10
0.238058
 20
0.4482100000000001
 30
0.0
  9
$EXTMAX
 10
210.24000000000001
 20
297.44999999999987
 30
0.0
  9
$LIMMIN
 10
0.0
 20
0.0
  9
$LIMMAX
 10
12.0
 20
9.0
  9
$ORTHOMODE
 70
     0
  9
$REGENMODE
 70
     1
  9
$FILLMODE
 70
     1
  9
$QTEXTMODE
 70
     0
  9
$MIRRTEXT
 70
     1
  9
$DRAGMODE
 70
     2
  9
$LTSCALE
 40
1.0
  9
$OSMODE
 70
    37
  9
$ATTMODE
 70
     1
  9
$TEXTSIZE
 40
0.0
  9
$TRACEWID
 40
0.05
  9
$TEXTSTYLE
  7
STANDARD
  9
$CLAYER
  8
0
  9
$CELTYPE
  6
CONTINUOUS
  9
$CECOLOR
 62
   256
  9
$DIMSCALE
 40
1.0
  9
$DIMASZ
 40
0.18
  9
$DIMEXO
 40
0.0625
  9
$DIMDLI
 40
0.38
  9
$DIMRND
 40
0.0
  9
$DIMDLE
 40
0.0
  9
$DIMEXE
 40
0.18
  9
$DIMTP
 40
0.0
  9
$DIMTM
 40
0.0
  9
$DIMTXT
 40
0.18
  9
$DIMCEN
 40
0.09
  9
$DIMTSZ
 40
0.0
  9
$DIMTOL
 70
     0
  9
$DIMLIM
 70
     0
  9
$DIMTIH
 70
     1
  9
$DIMTOH
 70
     1
  9
$DIMSE1
 70
     0
  9
$DIMSE2
 70
     0
  9
$DIMTAD
 70
     0
  9
$DIMZIN
 70
     0
  9
$DIMBLK
  1

  9
$DIMASO
 70
     1
  9
$DIMSHO
 70
     1
  9
$DIMPOST
  1

  9
$DIMAPOST
  1

  9
$DIMALT
 70
     0
  9
$DIMALTD
 70
     2
  9
$DIMALTF
 40
25.399999999999999
  9
$DIMLFAC
 40
1.0
  9
$DIMTOFL
 70
     0
  9
$DIMTVP
 40
0.0
  9
$DIMTIX
 70
     0
  9
$DIMSOXD
 70
     0
  9
$DIMSAH
 70
     0
  9
$DIMBLK1
  1

  9
$DIMBLK2
  1

  9
$DIMSTYLE
  2
STANDARD
  9
$DIMCLRD
 70
     0
  9
$DIMCLRE
 70
     0
  9
$DIMCLRT
 70
     0
  9
$DIMTFAC
 40
1.0
  9
$DIMGAP
 40
0.09
  9
$LUNITS
 70
     2
  9
$LUPREC
 70
     4
  9
$SKETCHINC
 40
0.1
  9
$FILLETRAD
 40
0.0
  9
$AUNITS
 70
     0
  9
$AUPREC
 70
     0
  9
$MENU
  1
.
  9
$ELEVATION
 40
0.0
  9
$PELEVATION
 40
0.0
  9
$THICKNESS
 40
0.0
  9
$LIMCHECK
 70
     0
  9
$BLIPMODE
 70
     0
  9
$CHAMFERA
 40
0.0
  9
$CHAMFERB
 40
0.0
  9
$SKPOLY
 70
     0
  9
$TDCREATE
 40
2444972.375
  9
$TDUPDATE
 40
2454458.2897303589
  9
$TDINDWG
 40
0.0000128588
  9
$TDUSRTIMER
 40
0.0000128588
  9
$USRTIMER
 70
     1
  9
$ANGBASE
 50
0.0
  9
$ANGDIR
 70
     0
  9
$PDMODE
 70
     0
  9
$PDSIZE
 40
0.0
  9
$PLINEWID
 40
0.0
  9
$COORDS
 70
     1
  9
$SPLFRAME
 70
     0
  9
$SPLINETYPE
 70
     6
  9
$SPLINESEGS
 70
     8
  9
$ATTDIA
 70
     0
  9
$ATTREQ
 70
     1
  9
$HANDLING
 70
     1
  9
$HANDSEED
  5
51C
  9
$SURFTAB1
 70
     6
  9
$SURFTAB2
 70
     6
  9
$SURFTYPE
 70
     6
  9
$SURFU
 70
     6
  9
$SURFV
 70
     6
  9
$UCSNAME
  2

  9
$UCSORG
 10
0.0
 20
0.0
 30
0.0
  9
$UCSXDIR
 10
1.0
 20
0.0
 30
0.0
  9
$UCSYDIR
 10
0.0
 20
1.0
 30
0.0
  9
$PUCSNAME
  2

  9
$PUCSORG
 10
0.0
 20
0.0
 30
0.0
  9
$PUCSXDIR
 10
1.0
 20
0.0
 30
0.0
  9
$PUCSYDIR
 10
0.0
 20
1.0
 30
0.0
  9
$USERI1
 70
     0
  9
$USERI2
 70
     0
  9
$USERI3
 70
     0
  9
$USERI4
 70
     0
  9
$USERI5
 70
     0
  9
$USERR1
 40
0.0
  9
$USERR2
 40
0.0
  9
$USERR3
 40
0.0
  9
$USERR4
 40
0.0
  9
$USERR5
 40
0.0
  9
$WORLDVIEW
 70
     1
  9
$SHADEDGE
 70
     3
  9
$SHADEDIF
 70
    70
  9
$TILEMODE
 70
     1
  9
$MAXACTVP
 70
    48
  9
$PLIMCHECK
 70
     0
  9
$PEXTMIN
 10
1.0000000000000000E+020
 20
1.0000000000000000E+020
 30
1.0000000000000000E+020
  9
$PEXTMAX
 10
-1.0000000000000000E+020
 20
-1.0000000000000000E+020
 30
-1.0000000000000000E+020
  9
$PLIMMIN
 10
0.0
 20
0.0
  9
$PLIMMAX
 10
12.0
 20
9.0
  9
$UNITMODE
 70
     0
  9
$VISRETAIN
 70
     1
  9
$PLINEGEN
 70
     0
  9
$PSLTSCALE
 70
     1
  0
ENDSEC
  0
SECTION
  2
TABLES
  0
TABLE
  2
VPORT
 70
     2
  0
VPORT
  2
*ACTIVE
 70
     0
 10
0.0
 20
0.0
 11
1.0
 21
1.0
 12
200.31472981708251
 22
148.72499999999991
 13
0.0
 23
0.0
 14
1.0
 24
1.0
 15
0.0
 25
0.0
 16
0.0
 26
0.0
 36
1.0
 17
0.0
 27
0.0
 37
0.0
 40
299.79212598425192
 41
2.2894736842105261
 42
50.0
 43
0.0
 44
0.0
 50
0.0
 51
0.0
 71
     0
 72
   100
 73
     1
 74
     1
 75
     0
 76
     0
 77
     0
 78
     0
  0
ENDTAB
  0
TABLE
  2
LTYPE
 70
     2
  0
LTYPE
  2
CONTINUOUS
 70
     0
  3
Solid line
 72
    65
 73
     0
 40
0.0
  0
LTYPE
  2
AIGENLINE001
 70
     0
  3
generate AI->DXF Converter
 72
    65
 73
     4
 40
5.8561449999999988
 49
3.5278
 49
-0.776115
 49
0.776115
 49
-0.776115
  0
ENDTAB
  0
TABLE
  2
LAYER
 70
     2
  0
LAYER
  2
0
 70
     0
 62
     7
  6
CONTINUOUS
  0
LAYER
  2
_________2
 70
     0
 62
     7
  6
CONTINUOUS
  0
ENDTAB
  0
TABLE
  2
STYLE
 70
     1
  0
STYLE
  2
STANDARD
 70
     0
 40
0.0
 41
0.0
 50
0.0
 71
     0
 42
0.0
  3
TXT
  4
EXTFONT.SHX
  0
ENDTAB
  0
TABLE
  2
VIEW
 70
     0
  0
ENDTAB
  0
TABLE
  2
UCS
 70
     0
  0
ENDTAB
  0
TABLE
  2
APPID
 70
     1
  0
APPID
  2
ACAD
 70
     0
  0
ENDTAB
  0
TABLE
  2
DIMSTYLE
 70
     1
  0
DIMSTYLE
  2
STANDARD
 70
     0
  3

  4

  5

  6

  7

 40
1.0
 41
0.18
 42
0.0625
 43
0.38
 44
0.18
 45
0.0
 46
0.0
 47
0.0
 48
0.0
140
0.18
141
0.09
142
0.0
143
25.399999999999999
144
1.0
145
0.0
146
1.0
147
0.09
 71
     0
 72
     0
 73
     1
 74
     1
 75
     0
 76
     0
 77
     0
 78
     0
170
     0
171
     2
172
     0
173
     0
174
     0
175
     0
176
     0
177
     0
178
     0
  0
ENDTAB
  0
ENDSEC
  0
SECTION
  2
BLOCKS
  0
BLOCK
  8
0
  2
$MODEL_SPACE
 70
     0
 10
0.0
 20
0.0
 30
0.0
  3
$MODEL_SPACE
  1

  0
ENDBLK
  5
1A
  8
0
  0
BLOCK
 67
     1
  8
0
  2
$PAPER_SPACE
 70
     0
 10
0.0
 20
0.0
 30
0.0
  3
$PAPER_SPACE
  1

  0
ENDBLK
  5
17
 67
     1
  8
0
  0
ENDSEC
  0
SECTION
  2
ENTITIES
  0
TEXT
  5
22
  8
0
 62
     7
 10
141.06700000000001
 20
146.55843999999999
 30
0.0
 40
3.0923400000000001
  1
436
 50
90.0
 41
0.5
 72
     1
 11
141.06700000000001
 21
148.62
 31
0.0
  0
TEXT
  5
23
  8
0
 62
     7
 10
141.06700000000001
 20
225.62952499999989
 30
0.0
 40
3.0923400000000001
  1
45
 50
90.0
 41
0.5
 72
     1
 11
141.06700000000001
 21
226.91799999999989
 31
0.0
  0
TEXT
  5
24
  8
0
 62
     7
 10
149.404
 20
155.810135
 30
0.0
 40
3.0923400000000001
  1
481
 50
90.0
 41
0.5
 72
     1
 11
149.404
 21
157.614
 31
0.0
  0
TEXT
  5
25
  8
0
 62
     7
 10
107.20399999999989
 20
233.54400000000001
 30
0.0
 40
3.0923400000000001
  1
26六角
 41
0.5
  0
TEXT
  5
26
  8
0
 62
     7
 10
156.0494479999999
 20
205.22499999999991
 30
0.0
 40
3.0923400000000001
  1
ストレーナ
 41
0.5
 72
     2
 11
164.708
 21
205.22499999999991
 31
0.0
  0
TEXT
  5
27
  8
0
 62
     7
 10
135.115398
 20
240.4549999999999
 30
0.0
 40
3.0923400000000001
  1
G 1/2
 41
0.5
 72
     2
 11
141.19699999999989
 21
240.4549999999999
 31
0.0
  0
TEXT
  5
28
  8
0
 62
     7
 10
108.16499999999991
 20
203.42999999999989
 30
0.0
 40
3.0923400000000001
  1
L=420
 41
0.5
  0
TEXT
  5
29
  8
0
 62
     7
 10
111.3851209999999
 20
242.53099999999989
 30
0.0
 40
3.0923400000000001
  1
最大65
 41
0.5
 72
     1
 11
114.5289999999999
 21
242.53099999999989
 31
0.0
  0
TEXT
  5
2A
  8
0
 62
     7
 10
122.8072875
 20
64.915000000000006
 30
0.0
 40
3.0923400000000001
  1
%%c60
 41
0.5
 72
     1
 11
124.73999999999999
 21
64.915000000000006
 31
0.0
  0
TEXT
  5
2B
  8
0
 62
     7
 10
106.726
 20
71.012100000000004
 30
0.0
 40
3.0923400000000001
  1
R 1/2
 41
0.5
  0
LINE
  5
2C
  8
0
 62
     7
 10
81.133700000000005
 20
226.63399999999999
 30
0.0
 11
81.219499999999996
 21
226.6329999999999
 31
0.0
  0
ARC
  5
2D
  8
0
 62
     7
 10
76.710281999999992
 20
229.84642400000001
 30
0.0
 40
3.2131759999999989
 50
269.94301699999988
 51
271.45439199999998
  0
ARC
  5
2E
  8
0
 62
     7
 10
81.836938999999987
 20
229.6594649999999
 30
0.0
 40
1.1227139999999991
 50
45.063921999999998
 51
55.388643000000009
  0
ARC
  5
2F
  8
0
 62
     7
 10
81.351754999999997
 20
228.95133999999999
 30
0.0
 40
1.981109
 50
55.472564000000013
 51
76.493257999999983
  0
ARC
  5
30
  8
0
 62
     7
 10
81.191879999999983
 20
228.5690799999999
 30
0.0
 40
2.3910520000000002
 50
74.907391000000018
 51
89.338111999999995
  0
ARC
  5
31
  8
0
 62
     7
 10
80.862734000000003
 20
229.06884099999999
 30
0.0
 40
1.8544869999999991
 50
101.335645
 51
131.66478000000001
  0
ARC
  5
32
  8
0
 62
     7
 10
81.174720999999977
 20
227.79504399999999
 30
0.0
 40
3.1652450000000001
 50
89.189374999999998
 51
102.34084
  0
ARC
  5
33
  8
0
 62
     7
 10
81.857489000000001
 20
227.90367900000001
 30
0.0
 40
1.093491999999999
 50
304.36018599999989
 51
314.94277699999992
  0
ARC
  5
34
  8
0
 62
     7
 10
81.378182999999993
 20
228.6105609999999
 30
0.0
 40
1.9475469999999999
 50
282.94493299999999
 51
304.26339100000001
  0
ARC
  5
35
  8
0
 62
     7
 10
81.194507999999999
 20
229.09352799999991
 30
0.0
 40
2.4604049999999988
 50
270.582019
 51
284.594247
  0
ARC
  5
36
  8
0
 62
     7
 10
76.067615000000004
 20
227.90160599999999
 30
0.0
 40
1.0909770000000001
 50
225.03547599999999
 51
235.640128
  0
ARC
  5
37
  8
0
 62
     7
 10
76.548105000000007
 20
228.610038
 30
0.0
 40
1.946979999999999
 50
235.73378099999999
 51
257.05896300000001
  0
ARC
  5
38
  8
0
 62
     7
 10
76.732082999999975
 20
229.093896
 30
0.0
 40
2.4607730000000001
 50
255.406868
 51
269.41799199999991
  0
ARC
  5
39
  8
0
 62
     7
 10
76.088086000000004
 20
229.66163299999991
 30
0.0
 40
1.1200760000000001
 50
124.61105999999999
 51
134.95782600000001
  0
ARC
  5
3A
  8
0
 62
     7
 10
76.574519999999993
 20
228.95188300000001
 30
0.0
 40
1.980516999999999
 50
103.50281099999999
 51
124.530286
  0
ARC
  5
3B
  8
0
 62
     7
 10
76.734711000000004
 20
228.56872300000001
 30
0.0
 40
2.391408999999999
 50
90.661871999999988
 51
105.091459
  0
ARC
  5
3C
  8
0
 62
     7
 10
77.062927999999985
 20
229.06688500000001
 30
0.0
 40
1.856563
 50
48.353993000000003
 51
78.651781999999983
  0
ARC
  5
3D
  8
0
 62
     7
 10
76.751835999999997
 20
227.79584299999999
 30
0.0
 40
3.164445999999999
 50
77.657604000000006
 51
90.810259999999985
  0
LINE
  5
3E
  8
0
 62
     7
 10
83.296199999999999
 20
227.13
 30
0.0
 11
82.962699999999984
 21
226.6329999999999
 31
0.0
  0
LINE
  5
3F
  8
0
 62
     7
 10
74.963200000000001
 20
226.6329999999999
 30
0.0
 11
74.6297
 21
227.13
 31
0.0
  0
LINE
  5
40
  8
0
 62
     7
 10
83.296199999999999
 20
230.2939999999999
 30
0.0
 11
83.296199999999999
 21
227.13
 31
0.0
  0
LINE
  5
41
  8
0
 62
     7
 10
74.6297
 20
227.13
 30
0.0
 11
74.6297
 21
230.2939999999999
 31
0.0
  0
LINE
  5
42
  8
0
 62
     7
 10
74.6297
 20
227.13
 30
0.0
 11
75.296700000000001
 21
227.13
 31
0.0
  0
LINE
  5
43
  8
0
 62
     7
 10
82.629900000000006
 20
227.13
 30
0.0
 11
83.296199999999999
 21
227.13
 31
0.0
  0
LINE
  5
44
  8
0
 62
     7
 10
82.629900000000006
 20
230.45400000000001
 30
0.0
 11
83.296199999999999
 21
230.45400000000001
 31
0.0
  0
LINE
  5
45
  8
0
 62
     7
 10
74.6297
 20
230.45400000000001
 30
0.0
 11
75.296700000000001
 21
230.45400000000001
 31
0.0
  0
LINE
  5
46
  8
0
 62
     7
 10
74.6297
 20
230.2939999999999
 30
0.0
 11
74.6297
 21
230.45400000000001
 31
0.0
  0
LINE
  5
47
  8
0
 62
     7
 10
82.246099999999998
 20
230.96000000000001
 30
0.0
 11
83.296199999999999
 21
230.45400000000001
 31
0.0
  0
LINE
  5
48
  8
0
 62
     7
 10
74.6297
 20
230.45400000000001
 30
0.0
 11
75.6798
 21
230.96000000000001
 31
0.0
  0
LINE
  5
49
  8
0
 62
     7
 10
75.6798
 20
230.96000000000001
 30
0.0
 11
82.246099999999998
 21
230.96000000000001
 31
0.0
  0
LINE
  5
4A
  8
0
 62
     7
 10
83.296199999999999
 20
230.2939999999999
 30
0.0
 11
83.296199999999999
 21
230.45400000000001
 31
0.0
  0
LINE
  5
4B
  8
0
 62
     7
 10
78.296700000000001
 20
230.45400000000001
 30
0.0
 11
79.629900000000006
 21
230.45400000000001
 31
0.0
  0
LINE
  5
4C
  8
0
 62
     7
 10
75.296700000000001
 20
230.45400000000001
 30
0.0
 11
75.296700000000001
 21
227.13
 31
0.0
  0
LINE
  5
4D
  8
0
 62
     7
 10
78.296700000000001
 20
229.50699999999989
 30
0.0
 11
78.296700000000001
 21
230.45400000000001
 31
0.0
  0
LINE
  5
4E
  8
0
 62
     7
 10
79.629900000000006
 20
230.45400000000001
 30
0.0
 11
79.629900000000006
 21
229.50699999999989
 31
0.0
  0
LINE
  5
4F
  8
0
 62
     7
 10
82.629900000000006
 20
227.13
 30
0.0
 11
82.629900000000006
 21
230.45400000000001
 31
0.0
  0
LINE
  5
50
  8
0
 62
     7
 10
74.963200000000001
 20
226.6329999999999
 30
0.0
 11
76.791499999999985
 21
226.6329999999999
 31
0.0
  0
LINE
  5
51
  8
0
 62
     7
 10
81.134100000000004
 20
226.6329999999999
 30
0.0
 11
82.962699999999984
 21
226.6329999999999
 31
0.0
  0
ARC
  5
52
  8
0
 62
     7
 10
79.484883999999994
 20
263.1588799999999
 30
0.0
 40
4.1668959999999986
 50
321.33892099999991
 51
51.33554199999999
  0
ARC
  5
53
  8
0
 62
     7
 10
79.470253999999997
 20
263.17370199999999
 30
0.0
 40
4.1875799999999996
 50
308.694389
 51
321.30562099999992
  0
ARC
  5
54
  8
0
 62
     7
 10
78.440838999999997
 20
263.15888100000001
 30
0.0
 40
4.1668940000000001
 50
128.6644179999999
 51
218.6611189999999
  0
ARC
  5
55
  8
0
 62
     7
 10
78.455472
 20
263.17370199999999
 30
0.0
 40
4.1875799999999996
 50
218.694399
 51
231.30563099999989
  0
ARC
  5
56
  8
0
 62
     7
 10
78.946974999999995
 20
263.15890000000002
 30
0.0
 40
4.682709
 50
351.81557099999992
 51
8.1844289999999997
  0
LINE
  5
57
  8
0
 62
     7
 10
83.582000000000008
 20
262.49200000000002
 30
0.0
 11
81.849999999999994
 21
259.49200000000002
 31
0.0
  0
ARC
  5
58
  8
0
 62
     7
 10
78.957775999999996
 20
263.168091
 30
0.0
 40
4.6771190000000002
 50
291.80589900000001
 51
308.19438500000001
  0
LINE
  5
59
  8
0
 62
     7
 10
80.6952
 20
258.82499999999987
 30
0.0
 11
77.230699999999985
 21
258.82499999999987
 31
0.0
  0
LINE
  5
5A
  8
0
 62
     7
 10
81.849999999999994
 20
266.82599999999991
 30
0.0
 11
83.582000000000008
 21
263.82599999999991
 31
0.0
  0
ARC
  5
5B
  8
0
 62
     7
 10
78.941952000000001
 20
263.12230099999988
 30
0.0
 40
4.7084449999999993
 50
51.860502999999987
 51
68.139212000000001
  0
LINE
  5
5C
  8
0
 62
     7
 10
77.230699999999985
 20
267.49200000000002
 30
0.0
 11
80.6952
 21
267.49200000000002
 31
0.0
  0
LINE
  5
5D
  8
0
 62
     7
 10
74.344099999999983
 20
263.82599999999991
 30
0.0
 11
76.075900000000004
 21
266.82599999999991
 31
0.0
  0
ARC
  5
5E
  8
0
 62
     7
 10
78.969100999999995
 20
263.14726400000001
 30
0.0
 40
4.6797519999999988
 50
111.805897
 51
128.18694600000001
  0
ARC
  5
5F
  8
0
 62
     7
 10
78.988613000000001
 20
263.15890000000002
 30
0.0
 40
4.6921299999999997
 50
171.832097
 51
188.16790299999991
  0
LINE
  5
60
  8
0
 62
     7
 10
76.075900000000004
 20
259.49200000000002
 30
0.0
 11
74.344099999999983
 21
262.49200000000002
 31
0.0
  0
ARC
  5
61
  8
0
 62
     7
 10
78.982784999999993
 20
263.19423899999998
 30
0.0
 40
4.7068449999999986
 50
231.86051999999989
 51
248.146637
  0
ARC
  5
62
  8
0
 62
     7
 10
78.962950000000006
 20
263.15889900000002
 30
0.0
 40
4.341882
 50
90.0
 51
179.99996999999991
  0
ARC
  5
63
  8
0
 62
     7
 10
78.962947999999983
 20
263.15889900000002
 30
0.0
 40
4.341880999999999
 50
179.99996999999991
 51
270.00002000000001
  0
ARC
  5
64
  8
0
 62
     7
 10
78.963033999999993
 20
263.15898700000002
 30
0.0
 40
4.3419679999999987
 50
269.99888299999998
 51
359.99885399999999
  0
ARC
  5
65
  8
0
 62
     7
 10
78.963033999999993
 20
263.15881300000001
 30
0.0
 40
4.3419679999999987
 50
0.001146
 51
90.001117000000008
  0
LINE
  5
66
  8
0
  6
AIGENLINE001
 62
     7
 10
67.502399999999994
 20
263.15899999999999
 30
0.0
 11
90.659499999999994
 21
263.15899999999999
 31
0.0
  0
ARC
  5
67
  8
0
 62
     7
 10
73.585943999999998
 20
258.868899
 30
0.0
 40
1.380004
 50
3.856436
 51
5.2914060000000003
  0
ARC
  5
68
  8
0
 62
     7
 10
79.080438999999998
 20
259.30189999999988
 30
0.0
 40
4.1316990000000002
 50
183.764734
 51
184.24365099999989
  0
ARC
  5
69
  8
0
 62
     7
 10
78.493356999999989
 20
259.33080799999988
 30
0.0
 40
3.5484219999999991
 50
184.29491200000001
 51
184.852969
  0
ARC
  5
6A
  8
0
 62
     7
 10
79.075271000000001
 20
259.37080299999991
 30
0.0
 40
4.1316990000000002
 50
183.764734
 51
184.24365099999989
  0
ARC
  5
6B
  8
0
 62
     7
 10
78.488189000000006
 20
259.39971000000003
 30
0.0
 40
3.5484219999999991
 50
184.29491200000001
 51
184.852969
  0
ARC
  5
6C
  8
0
 62
     7
 10
79.070103000000003
 20
259.43970499999989
 30
0.0
 40
4.1316990000000002
 50
183.764734
 51
184.24365099999989
  0
ARC
  5
6D
  8
0
 62
     7
 10
78.483021999999991
 20
259.46861199999989
 30
0.0
 40
3.5484219999999991
 50
184.29491200000001
 51
184.852969
  0
ARC
  5
6E
  8
0
 62
     7
 10
77.985067000000001
 20
259.4291859999999
 30
0.0
 40
3.048913999999999
 50
183.59496799999991
 51
184.25688600000001
  0
ARC
  5
6F
  8
0
 62
     7
 10
77.192207999999994
 20
259.43535200000002
 30
0.0
 40
2.2586930000000001
 50
184.135583
 51
185.01229900000001
  0
ARC
  5
70
  8
0
 62
     7
 10
71.588079000000008
 20
259.02169300000003
 30
0.0
 40
3.360687
 50
4.279304999999999
 51
4.8685359999999989
  0
ARC
  5
71
  8
0
 62
     7
 10
71.744736000000003
 20
259.10079100000002
 30
0.0
 40
3.198551999999999
 50
3.6948530000000002
 51
4.3134920000000001
  0
ARC
  5
72
  8
0
 62
     7
 10
71.582910999999996
 20
259.09059600000001
 30
0.0
 40
3.360687
 50
4.279304999999999
 51
4.8685359999999989
  0
ARC
  5
73
  8
0
 62
     7
 10
71.739568999999989
 20
259.16969299999988
 30
0.0
 40
3.198551999999999
 50
3.6948530000000002
 51
4.3134920000000001
  0
ARC
  5
74
  8
0
 62
     7
 10
71.577742999999984
 20
259.15949799999993
 30
0.0
 40
3.360687
 50
4.279304999999999
 51
4.8685359999999989
  0
ARC
  5
75
  8
0
 62
     7
 10
71.734401000000005
 20
259.23859499999998
 30
0.0
 40
3.198551999999999
 50
3.6948530000000002
 51
4.3134920000000001
  0
ARC
  5
76
  8
0
 62
     7
 10
71.572575999999998
 20
259.22840000000002
 30
0.0
 40
3.360687
 50
4.279304999999999
 51
4.8685359999999989
  0
ARC
  5
77
  8
0
 62
     7
 10
71.729232999999994
 20
259.30749800000001
 30
0.0
 40
3.198551999999999
 50
3.6948530000000002
 51
4.3134920000000001
  0
ARC
  5
78
  8
0
 62
     7
 10
71.567408
 20
259.297303
 30
0.0
 40
3.360687
 50
4.279304999999999
 51
4.8685359999999989
  0
ARC
  5
79
  8
0
 62
     7
 10
77.666203999999993
 20
259.8198779999999
 30
0.0
 40
2.7604570000000002
 50
184.21526299999991
 51
184.93261799999999
  0
ARC
  5
7A
  8
0
 62
     7
 10
77.457571000000002
 20
259.81238999999999
 30
0.0
 40
2.5518499999999991
 50
183.61648299999999
 51
184.39190199999999
  0
ARC
  5
7B
  8
0
 62
     7
 10
77.661035999999996
 20
259.88877999999988
 30
0.0
 40
2.7604570000000002
 50
184.21526299999991
 51
184.93261799999999
  0
ARC
  5
7C
  8
0
 62
     7
 10
77.452403000000004
 20
259.88129199999992
 30
0.0
 40
2.5518499999999991
 50
183.61648299999999
 51
184.39190199999999
  0
ARC
  5
7D
  8
0
 62
     7
 10
78.441335999999993
 20
260.02051999999998
 30
0.0
 40
3.5484219999999991
 50
184.29491200000001
 51
184.852969
  0
ARC
  5
7E
  8
0
 62
     7
 10
77.447234999999992
 20
259.95019400000001
 30
0.0
 40
2.5518499999999991
 50
183.61648299999999
 51
184.39190199999999
  0
ARC
  5
7F
  8
0
 62
     7
 10
78.436168000000009
 20
260.08942200000001
 30
0.0
 40
3.5484219999999991
 50
184.29491200000001
 51
184.852969
  0
ARC
  5
80
  8
0
 62
     7
 10
77.442068000000006
 20
260.01909699999999
 30
0.0
 40
2.5518499999999991
 50
183.61648299999999
 51
184.39190199999999
  0
ARC
  5
81
  8
0
 62
     7
 10
78.431000999999995
 20
260.15832499999999
 30
0.0
 40
3.5484219999999991
 50
184.29491200000001
 51
184.852969
  0
ARC
  5
82
  8
0
 62
     7
 10
71.541224999999983
 20
259.64181400000001
 30
0.0
 40
3.360687
 50
4.279304999999999
 51
4.8685359999999989
  0
ARC
  5
83
  8
0
 62
     7
 10
72.286193999999995
 20
259.76209399999999
 30
0.0
 40
2.608813
 50
3.6249289999999998
 51
4.3834160000000004
  0
ARC
  5
84
  8
0
 62
     7
 10
71.536056999999985
 20
259.71071699999999
 30
0.0
 40
3.360687
 50
4.279304999999999
 51
4.8685359999999989
  0
ARC
  5
85
  8
0
 62
     7
 10
72.281025999999983
 20
259.83099599999991
 30
0.0
 40
2.608813
 50
3.6249289999999998
 51
4.3834160000000004
  0
ARC
  5
86
  8
0
 62
     7
 10
71.530889999999999
 20
259.77961899999991
 30
0.0
 40
3.360687
 50
4.279304999999999
 51
4.8685359999999989
  0
ARC
  5
87
  8
0
 62
     7
 10
72.275857999999985
 20
259.89989800000001
 30
0.0
 40
2.608813
 50
3.6249289999999998
 51
4.3834160000000004
  0
ARC
  5
88
  8
0
 62
     7
 10
72.624228000000002
 20
259.93640199999987
 30
0.0
 40
2.2586930000000001
 50
4.1355629999999994
 51
5.0122790000000004
  0
ARC
  5
89
  8
0
 62
     7
 10
72.270690999999999
 20
259.96880099999993
 30
0.0
 40
2.608813
 50
3.6249289999999998
 51
4.3834160000000004
  0
ARC
  5
8A
  8
0
 62
     7
 10
76.639454999999998
 20
260.32693599999999
 30
0.0
 40
1.774697
 50
184.01602999999989
 51
185.13185100000001
  0
ARC
  5
8B
  8
0
 62
     7
 10
78.404818000000006
 20
260.50283599999989
 30
0.0
 40
3.5484219999999991
 50
184.29491200000001
 51
184.852969
  0
ARC
  5
8C
  8
0
 62
     7
 10
78.348997999999995
 20
260.495948
 30
0.0
 40
3.4922449999999992
 50
183.678549
 51
184.250799
  0
ARC
  5
8D
  8
0
 62
     7
 10
77.614182
 20
260.50924600000002
 30
0.0
 40
2.7604570000000002
 50
184.21526299999991
 51
184.93261799999999
  0
ARC
  5
8E
  8
0
 62
     7
 10
77.964394999999996
 20
260.54087700000002
 30
0.0
 40
3.1120529999999991
 50
183.68627599999999
 51
184.32210900000001
  0
ARC
  5
8F
  8
0
 62
     7
 10
77.609014999999999
 20
260.578148
 30
0.0
 40
2.7604570000000002
 50
184.21526299999991
 51
184.93261799999999
  0
ARC
  5
90
  8
0
 62
     7
 10
77.959226999999998
 20
260.609779
 30
0.0
 40
3.1120529999999991
 50
183.68627599999999
 51
184.32210900000001
  0
ARC
  5
91
  8
0
 62
     7
 10
77.603847000000002
 20
260.64705099999992
 30
0.0
 40
2.7604570000000002
 50
184.21526299999991
 51
184.93261799999999
  0
ARC
  5
92
  8
0
 62
     7
 10
72.213279
 20
260.25047699999988
 30
0.0
 40
2.644677999999999
 50
4.1995409999999991
 51
4.9482999999999988
  0
ARC
  5
93
  8
0
 62
     7
 10
71.656196999999992
 20
260.27247499999987
 30
0.0
 40
3.198551999999999
 50
3.6948530000000002
 51
4.3134920000000001
  0
ARC
  5
94
  8
0
 62
     7
 10
71.775255999999999
 20
260.28735399999999
 30
0.0
 40
3.0787169999999988
 50
4.2040290000000002
 51
4.8536179999999991
  0
ARC
  5
95
  8
0
 62
     7
 10
70.746356000000006
 20
260.27839499999999
 30
0.0
 40
4.1054289999999991
 50
3.763182
 51
4.2451629999999989
  0
ARC
  5
96
  8
0
 62
     7
 10
71.489204000000001
 20
260.33152699999988
 30
0.0
 40
3.360687
 50
4.279304999999999
 51
4.8685359999999989
  0
ARC
  5
97
  8
0
 62
     7
 10
70.741187999999994
 20
260.34729700000003
 30
0.0
 40
4.1054289999999991
 50
3.763182
 51
4.2451629999999989
  0
ARC
  5
98
  8
0
 62
     7
 10
71.484036000000003
 20
260.40042899999997
 30
0.0
 40
3.360687
 50
4.279304999999999
 51
4.8685359999999989
  0
ARC
  5
99
  8
0
 62
     7
 10
70.736020999999994
 20
260.4162
 30
0.0
 40
4.1054289999999991
 50
3.763182
 51
4.2451629999999989
  0
ARC
  5
9A
  8
0
 62
     7
 10
71.478868000000006
 20
260.46933199999989
 30
0.0
 40
3.360687
 50
4.279304999999999
 51
4.8685359999999989
  0
ARC
  5
9B
  8
0
 62
     7
 10
77.077485999999993
 20
260.95189299999998
 30
0.0
 40
2.2586930000000001
 50
184.135583
 51
185.01229900000001
  0
ARC
  5
9C
  8
0
 62
     7
 10
77.369031000000007
 20
260.98441800000001
 30
0.0
 40
2.5518499999999991
 50
183.61648299999999
 51
184.39190199999999
  0
ARC
  5
9D
  8
0
 62
     7
 10
77.07231800000001
 20
261.02079500000002
 30
0.0
 40
2.2586930000000001
 50
184.135583
 51
185.01229900000001
  0
ARC
  5
9E
  8
0
 62
     7
 10
77.363864000000007
 20
261.05332099999993
 30
0.0
 40
2.5518499999999991
 50
183.61648299999999
 51
184.39190199999999
  0
ARC
  5
9F
  8
0
 62
     7
 10
77.067149999999984
 20
261.089697
 30
0.0
 40
2.2586930000000001
 50
184.135583
 51
185.01229900000001
  0
ARC
  5
A0
  8
0
 62
     7
 10
77.358695999999995
 20
261.12222300000002
 30
0.0
 40
2.5518499999999991
 50
183.61648299999999
 51
184.39190199999999
  0
ARC
  5
A1
  8
0
 62
     7
 10
77.061982999999998
 20
261.15859999999992
 30
0.0
 40
2.2586930000000001
 50
184.135583
 51
185.01229900000001
  0
ARC
  5
A2
  8
0
 62
     7
 10
71.457853
 20
260.74494099999998
 30
0.0
 40
3.360687
 50
4.279304999999999
 51
4.8685359999999989
  0
ARC
  5
A3
  8
0
 62
     7
 10
72.202821999999983
 20
260.86522000000002
 30
0.0
 40
2.608813
 50
3.6249289999999998
 51
4.3834160000000004
  0
ARC
  5
A4
  8
0
 62
     7
 10
71.452685000000002
 20
260.81384300000002
 30
0.0
 40
3.360687
 50
4.279304999999999
 51
4.8685359999999989
  0
ARC
  5
A5
  8
0
 62
     7
 10
72.197653999999986
 20
260.934122
 30
0.0
 40
2.608813
 50
3.6249289999999998
 51
4.3834160000000004
  0
ARC
  5
A6
  8
0
 62
     7
 10
72.161257999999989
 20
260.93984499999999
 30
0.0
 40
2.644677999999999
 50
4.1995409999999991
 51
4.9482999999999988
  0
ARC
  5
A7
  8
0
 62
     7
 10
79.427029000000005
 20
259.2619049999999
 30
0.0
 40
3.5484219999999991
 50
355.14705099999992
 51
355.70510799999988
  0
ARC
  5
A8
  8
0
 62
     7
 10
85.218298000000004
 20
258.83327500000001
 30
0.0
 40
2.2586930000000001
 50
174.9877009999999
 51
175.864417
  0
ARC
  5
A9
  8
0
 62
     7
 10
85.571836000000005
 20
258.86567400000001
 30
0.0
 40
2.608813
 50
175.6165639999999
 51
176.37505100000001
  0
ARC
  5
AA
  8
0
 62
     7
 10
85.223465000000004
 20
258.90217799999988
 30
0.0
 40
2.2586930000000001
 50
174.9877009999999
 51
175.864417
  0
ARC
  5
AB
  8
0
 62
     7
 10
85.577003000000005
 20
258.93457599999999
 30
0.0
 40
2.608813
 50
175.6165639999999
 51
176.37505100000001
  0
ARC
  5
AC
  8
0
 62
     7
 10
85.228633000000002
 20
258.97107999999992
 30
0.0
 40
2.2586930000000001
 50
174.9877009999999
 51
175.864417
  0
ARC
  5
AD
  8
0
 62
     7
 10
85.582171000000002
 20
259.00347900000003
 30
0.0
 40
2.608813
 50
175.6165639999999
 51
176.37505100000001
  0
ARC
  5
AE
  8
0
 62
     7
 10
86.126047
 20
258.9738779999999
 30
0.0
 40
3.1533829999999998
 50
175.19515100000001
 51
175.835599
  0
ARC
  5
AF
  8
0
 62
     7
 10
84.754083999999992
 20
259.11371999999989
 30
0.0
 40
1.774697
 50
174.8681489999999
 51
175.98397
  0
ARC
  5
B0
  8
0
 62
     7
 10
80.442143999999985
 20
259.46787799999993
 30
0.0
 40
2.5518499999999991
 50
355.60811799999999
 51
356.38353699999999
  0
ARC
  5
B1
  8
0
 62
     7
 10
80.238679000000005
 20
259.54426899999999
 30
0.0
 40
2.7604570000000002
 50
355.06740200000002
 51
355.78475600000002
  0
ARC
  5
B2
  8
0
 62
     7
 10
80.447311999999997
 20
259.53677999999991
 30
0.0
 40
2.5518499999999991
 50
355.60811799999999
 51
356.38353699999999
  0
ARC
  5
B3
  8
0
 62
     7
 10
80.243847000000002
 20
259.61317100000002
 30
0.0
 40
2.7604570000000002
 50
355.06740200000002
 51
355.78475600000002
  0
ARC
  5
B4
  8
0
 62
     7
 10
80.452479999999994
 20
259.605683
 30
0.0
 40
2.5518499999999991
 50
355.60811799999999
 51
356.38353699999999
  0
ARC
  5
B5
  8
0
 62
     7
 10
80.249014000000003
 20
259.682073
 30
0.0
 40
2.7604570000000002
 50
355.06740200000002
 51
355.78475600000002
  0
ARC
  5
B6
  8
0
 62
     7
 10
80.457646999999994
 20
259.67458499999998
 30
0.0
 40
2.5518499999999991
 50
355.60811799999999
 51
356.38353699999999
  0
ARC
  5
B7
  8
0
 62
     7
 10
80.254182
 20
259.75097599999992
 30
0.0
 40
2.7604570000000002
 50
355.06740200000002
 51
355.78475600000002
  0
ARC
  5
B8
  8
0
 62
     7
 10
86.358490000000003
 20
259.297303
 30
0.0
 40
3.360687
 50
175.1314439999999
 51
175.72067499999989
  0
ARC
  5
B9
  8
0
 62
     7
 10
86.201831999999996
 20
259.37639999999988
 30
0.0
 40
3.198551999999999
 50
175.68648899999991
 51
176.305127
  0
ARC
  5
BA
  8
0
 62
     7
 10
86.363658000000001
 20
259.36620499999992
 30
0.0
 40
3.360687
 50
175.1314439999999
 51
175.72067499999989
  0
ARC
  5
BB
  8
0
 62
     7
 10
86.207000000000008
 20
259.44530200000003
 30
0.0
 40
3.198551999999999
 50
175.68648899999991
 51
176.305127
  0
ARC
  5
BC
  8
0
 62
     7
 10
86.368825000000001
 20
259.4351069999999
 30
0.0
 40
3.360687
 50
175.1314439999999
 51
175.72067499999989
  0
ARC
  5
BD
  8
0
 62
     7
 10
85.623857000000001
 20
259.55538699999988
 30
0.0
 40
2.608813
 50
175.6165639999999
 51
176.37505100000001
  0
ARC
  5
BE
  8
0
 62
     7
 10
86.373992999999999
 20
259.50400999999988
 30
0.0
 40
3.360687
 50
175.1314439999999
 51
175.72067499999989
  0
ARC
  5
BF
  8
0
 62
     7
 10
85.629024999999984
 20
259.62428899999998
 30
0.0
 40
2.608813
 50
175.6165639999999
 51
176.37505100000001
  0
ARC
  5
C0
  8
0
 62
     7
 10
81.690605999999988
 20
259.94799599999999
 30
0.0
 40
1.343002
 50
354.68882500000001
 51
356.16333300000002
  0
ARC
  5
C1
  8
0
 62
     7
 10
79.494896999999995
 20
260.15832499999999
 30
0.0
 40
3.5484219999999991
 50
355.14705099999992
 51
355.70510799999988
  0
ARC
  5
C2
  8
0
 62
     7
 10
80.488997999999995
 20
260.08799900000002
 30
0.0
 40
2.5518499999999991
 50
355.60811799999999
 51
356.38353699999999
  0
ARC
  5
C3
  8
0
 62
     7
 10
79.500065000000006
 20
260.22722700000003
 30
0.0
 40
3.5484219999999991
 50
355.14705099999992
 51
355.70510799999988
  0
ARC
  5
C4
  8
0
 62
     7
 10
80.494166000000007
 20
260.15690099999989
 30
0.0
 40
2.5518499999999991
 50
355.60811799999999
 51
356.38353699999999
  0
ARC
  5
C5
  8
0
 62
     7
 10
79.50523299999999
 20
260.29612900000001
 30
0.0
 40
3.5484219999999991
 50
355.14705099999992
 51
355.70510799999988
  0
ARC
  5
C6
  8
0
 62
     7
 10
80.499332999999993
 20
260.22580399999993
 30
0.0
 40
2.5518499999999991
 50
355.60811799999999
 51
356.38353699999999
  0
ARC
  5
C7
  8
0
 62
     7
 10
79.510400000000004
 20
260.36503199999993
 30
0.0
 40
3.5484219999999991
 50
355.14705099999992
 51
355.70510799999988
  0
ARC
  5
C8
  8
0
 62
     7
 10
78.928485999999992
 20
260.40502700000002
 30
0.0
 40
4.1316990000000002
 50
355.75636900000001
 51
356.23528599999992
  0
ARC
  5
C9
  8
0
 62
     7
 10
79.515568000000002
 20
260.43393399999991
 30
0.0
 40
3.5484219999999991
 50
355.14705099999992
 51
355.70510799999988
  0
ARC
  5
CA
  8
0
 62
     7
 10
85.306837000000002
 20
260.00530400000002
 30
0.0
 40
2.2586930000000001
 50
174.9877009999999
 51
175.864417
  0
ARC
  5
CB
  8
0
 62
     7
 10
85.660375000000002
 20
260.03770299999991
 30
0.0
 40
2.608813
 50
175.6165639999999
 51
176.37505100000001
  0
ARC
  5
CC
  8
0
 62
     7
 10
85.696548000000007
 20
260.045703
 30
0.0
 40
2.6442899999999998
 50
175.0930009999999
 51
175.84931199999991
  0
ARC
  5
CD
  8
0
 62
     7
 10
86.253853000000007
 20
260.06576799999988
 30
0.0
 40
3.198551999999999
 50
175.68648899999991
 51
176.305127
  0
ARC
  5
CE
  8
0
 62
     7
 10
85.701938999999996
 20
260.11267199999998
 30
0.0
 40
2.644677999999999
 50
175.05167999999989
 51
175.8004389999999
  0
ARC
  5
CF
  8
0
 62
     7
 10
86.25902099999999
 20
260.13467000000003
 30
0.0
 40
3.198551999999999
 50
175.68648899999991
 51
176.305127
  0
ARC
  5
D0
  8
0
 62
     7
 10
85.70710600000001
 20
260.18157400000001
 30
0.0
 40
2.644677999999999
 50
175.05167999999989
 51
175.8004389999999
  0
ARC
  5
D1
  8
0
 62
     7
 10
84.621420000000001
 20
260.30310099999991
 30
0.0
 40
1.552797999999999
 50
174.788419
 51
176.06370000000001
  0
ARC
  5
D2
  8
0
 62
     7
 10
79.971838000000005
 20
260.67868099999998
 30
0.0
 40
3.1120529999999991
 50
355.67791099999988
 51
356.31374399999987
  0
ARC
  5
D3
  8
0
 62
     7
 10
80.327218999999999
 20
260.7159529999999
 30
0.0
 40
2.7604570000000002
 50
355.06740200000002
 51
355.78475600000002
  0
ARC
  5
D4
  8
0
 62
     7
 10
80.273262000000003
 20
260.72507200000001
 30
0.0
 40
2.8149429999999991
 50
355.68037599999991
 51
356.39031599999998
  0
ARC
  5
D5
  8
0
 62
     7
 10
80.832565000000002
 20
260.74518599999988
 30
0.0
 40
2.2586930000000001
 50
354.98772100000002
 51
355.86443700000001
  0
ARC
  5
D6
  8
0
 62
     7
 10
80.541018999999991
 20
260.77771100000001
 30
0.0
 40
2.5518499999999991
 50
355.60811799999999
 51
356.38353699999999
  0
ARC
  5
D7
  8
0
 62
     7
 10
80.837731999999988
 20
260.81408799999991
 30
0.0
 40
2.2586930000000001
 50
354.98772100000002
 51
355.86443700000001
  0
ARC
  5
D8
  8
0
 62
     7
 10
80.546187000000003
 20
260.84661399999987
 30
0.0
 40
2.5518499999999991
 50
355.60811799999999
 51
356.38353699999999
  0
ARC
  5
D9
  8
0
 62
     7
 10
80.842900000000014
 20
260.88298999999989
 30
0.0
 40
2.2586930000000001
 50
354.98772100000002
 51
355.86443700000001
  0
ARC
  5
DA
  8
0
 62
     7
 10
86.447029999999984
 20
260.46933199999989
 30
0.0
 40
3.360687
 50
175.1314439999999
 51
175.72067499999989
  0
ARC
  5
DB
  8
0
 62
     7
 10
87.195044999999993
 20
260.48510199999993
 30
0.0
 40
4.1054289999999991
 50
175.75481699999989
 51
176.23679899999991
  0
ARC
  5
DC
  8
0
 62
     7
 10
86.452196999999998
 20
260.53823399999987
 30
0.0
 40
3.360687
 50
175.1314439999999
 51
175.72067499999989
  0
ARC
  5
DD
  8
0
 62
     7
 10
87.200213000000005
 20
260.55400400000002
 30
0.0
 40
4.1054289999999991
 50
175.75481699999989
 51
176.23679899999991
  0
ARC
  5
DE
  8
0
 62
     7
 10
86.457364999999996
 20
260.60713599999991
 30
0.0
 40
3.360687
 50
175.1314439999999
 51
175.72067499999989
  0
ARC
  5
DF
  8
0
 62
     7
 10
87.205380000000005
 20
260.62290699999988
 30
0.0
 40
4.1054289999999991
 50
175.75481699999989
 51
176.23679899999991
  0
ARC
  5
E0
  8
0
 62
     7
 10
86.462532999999993
 20
260.676039
 30
0.0
 40
3.360687
 50
175.1314439999999
 51
175.72067499999989
  0
ARC
  5
E1
  8
0
 62
     7
 10
87.210548000000003
 20
260.69180899999992
 30
0.0
 40
4.1054289999999991
 50
175.75481699999989
 51
176.23679899999991
  0
ARC
  5
E2
  8
0
 62
     7
 10
86.467699999999994
 20
260.74494099999998
 30
0.0
 40
3.360687
 50
175.1314439999999
 51
175.72067499999989
  0
ARC
  5
E3
  8
0
 62
     7
 10
79.583437000000004
 20
261.33035399999989
 30
0.0
 40
3.5484219999999991
 50
355.14705099999992
 51
355.70510799999988
  0
ARC
  5
E4
  8
0
 62
     7
 10
80.577537000000007
 20
261.26002799999992
 30
0.0
 40
2.5518499999999991
 50
355.60811799999999
 51
356.38353699999999
  0
ARC
  5
E5
  8
0
 62
     7
 10
79.588605000000001
 20
261.39925599999992
 30
0.0
 40
3.5484219999999991
 50
355.14705099999992
 51
355.70510799999988
  0
ARC
  5
E6
  8
0
 62
     7
 10
80.023859999999985
 20
261.36804899999998
 30
0.0
 40
3.1120529999999991
 50
355.67791099999988
 51
356.31374399999987
  0
LINE
  5
E7
  8
0
 62
     7
 10
82.962699999999984
 20
258.96199999999999
 30
0.0
 11
82.691900000000004
 21
258.49200000000002
 31
0.0
  0
LINE
  5
E8
  8
0
 62
     7
 10
75.233999999999995
 20
258.49200000000002
 30
0.0
 11
74.962800000000001
 21
258.96199999999999
 31
0.0
  0
LINE
  5
E9
  8
0
 62
     7
 10
74.962800000000001
 20
258.49200000000002
 30
0.0
 11
82.962699999999984
 21
258.49200000000002
 31
0.0
  0
ARC
  5
EA
  8
0
 62
     7
 10
78.972032999999996
 20
277.15596199999999
 30
0.0
 40
32.371400999999992
 50
274.25867199999999
 51
282.71825799999999
  0
ARC
  5
EB
  8
0
 62
     7
 10
78.618581999999989
 20
274.9127509999999
 30
0.0
 40
30.109953000000001
 50
256.96371799999997
 51
266.06061299999999
  0
ARC
  5
EC
  8
0
 62
     7
 10
72.219145999999995
 20
247.59838400000001
 30
0.0
 40
2.0572789999999999
 50
188.16525100000001
 51
259.01358900000002
  0
ARC
  5
ED
  8
0
 62
     7
 10
85.707480000000004
 20
247.597691
 30
0.0
 40
2.0564589999999989
 50
280.97019499999999
 51
351.85100499999987
  0
ARC
  5
EE
  8
0
 62
     7
 10
78.49024
 20
248.41176899999999
 30
0.0
 40
2.4100719999999991
 50
281.16932099999991
 51
358.46732099999991
  0
ARC
  5
EF
  8
0
 62
     7
 10
78.544165000000007
 20
248.3470109999999
 30
0.0
 40
2.3552840000000002
 50
0.007203
 51
8.1472039999999986
  0
ARC
  5
F0
  8
0
 62
     7
 10
79.458815999999985
 20
248.41978
 30
0.0
 40
2.4225789999999998
 50
173.76562399999989
 51
258.32206200000002
  0
LINE
  5
F1
  8
0
 62
     7
 10
87.912000000000006
 20
248.6809999999999
 30
0.0
 11
78.962900000000005
 21
248.6809999999999
 31
0.0
  0
LINE
  5
F2
  8
0
 62
     7
 10
87.912000000000006
 20
248.6809999999999
 30
0.0
 11
87.743200000000016
 21
247.3059999999999
 31
0.0
  0
LINE
  5
F3
  8
0
 62
     7
 10
70.013900000000007
 20
248.6809999999999
 30
0.0
 11
78.962900000000005
 21
248.6809999999999
 31
0.0
  0
LINE
  5
F4
  8
0
 62
     7
 10
70.013900000000007
 20
248.6809999999999
 30
0.0
 11
70.182699999999997
 21
247.3059999999999
 31
0.0
  0
LINE
  5
F5
  8
0
 62
     7
 10
77.379599999999996
 20
253.65899999999999
 30
0.0
 11
77.379599999999996
 21
248.6809999999999
 31
0.0
  0
LINE
  5
F6
  8
0
 62
     7
 10
80.546300000000016
 20
253.65899999999999
 30
0.0
 11
80.546300000000016
 21
248.6809999999999
 31
0.0
  0
LINE
  5
F7
  8
0
 62
     7
 10
76.962699999999998
 20
255.393
 30
0.0
 11
77.049899999999994
 21
255.39699999999999
 31
0.0
  0
LINE
  5
F8
  8
0
 62
     7
 10
77.049899999999994
 20
255.39699999999999
 30
0.0
 11
77.137
 21
255.4009999999999
 31
0.0
  0
LINE
  5
F9
  8
0
 62
     7
 10
77.137
 20
255.4009999999999
 30
0.0
 11
77.222499999999997
 21
255.41399999999999
 31
0.0
  0
LINE
  5
FA
  8
0
 62
     7
 10
77.222499999999997
 20
255.41399999999999
 30
0.0
 11
77.307900000000004
 21
255.4259999999999
 31
0.0
  0
ARC
  5
FB
  8
0
 62
     7
 10
82.602840999999984
 20
235.1005549999999
 30
0.0
 40
21.004131999999998
 50
104.368247
 51
104.601197
  0
ARC
  5
FC
  8
0
 62
     7
 10
62.250087999999998
 20
315.931715
 30
0.0
 40
62.350235999999988
 50
284.05363999999992
 51
284.13165099999998
  0
ARC
  5
FD
  8
0
 62
     7
 10
58.451354000000002
 20
306.99206199999998
 30
0.0
 40
54.922781999999998
 50
290.26320700000002
 51
290.35019599999993
  0
ARC
  5
FE
  8
0
 62
     7
 10
68.213871999999995
 20
280.85029700000001
 30
0.0
 40
27.017751000000001
 50
290.21828299999999
 51
290.39511900000002
  0
ARC
  5
FF
  8
0
 62
     7
 10
86.520448999999985
 20
237.91851799999989
 30
0.0
 40
19.725204999999988
 50
116.55540499999989
 51
116.7917009999999
  0
ARC
  5
100
  8
0
 62
     7
 10
73.637858999999992
 20
263.70435600000002
 30
0.0
 40
9.0996210000000008
 50
296.52777200000003
 51
297.03805199999988
  0
ARC
  5
101
  8
0
 62
     7
 10
84.055327000000005
 20
245.99663699999999
 30
0.0
 40
11.474361999999999
 50
122.79633800000001
 51
123.18808299999991
  0
ARC
  5
102
  8
0
 62
     7
 10
58.179896999999997
 20
285.35952200000003
 30
0.0
 40
35.632263000000002
 50
303.48752100000002
 51
303.61381599999999
  0
ARC
  5
103
  8
0
 62
     7
 10
87.001012000000003
 20
245.047031
 30
0.0
 40
13.996456
 50
130.21990500000001
 51
130.529055
  0
ARC
  5
104
  8
0
 62
     7
 10
90.122100000000003
 20
241.691519
 30
0.0
 40
18.57525
 50
130.65321399999991
 51
130.88754
  0
ARC
  5
105
  8
0
 62
     7
 10
73.942589999999996
 20
259.44604500000003
 30
0.0
 40
5.4810669999999986
 50
318.07649800000002
 51
318.836749
  0
ARC
  5
106
  8
0
 62
     7
 10
70.648893999999999
 20
262.55109099999999
 30
0.0
 40
10.005884
 50
317.86519099999998
 51
318.28148299999992
  0
ARC
  5
107
  8
0
 62
     7
 10
87.279227000000006
 20
249.933898
 30
0.0
 40
10.92892399999999
 50
146.59175799999991
 51
146.96095700000001
  0
ARC
  5
108
  8
0
 62
     7
 10
69.300406000000009
 20
261.82770499999992
 30
0.0
 40
10.628012999999999
 50
326.43312200000003
 51
326.81122099999988
  0
LINE
  5
109
  8
0
 62
     7
 10
78.194699999999983
 20
256.00999999999988
 30
0.0
 11
78.222599999999986
 21
256.07199999999989
 31
0.0
  0
ARC
  5
10A
  8
0
 62
     7
 10
66.629688000000002
 20
261.39060199999989
 30
0.0
 40
12.754745
 50
335.35504700000001
 51
335.66115600000001
  0
ARC
  5
10B
  8
0
 62
     7
 10
88.830607999999998
 20
253.38108199999991
 30
0.0
 40
10.932052000000001
 50
165.06760600000001
 51
165.41490899999991
  0
ARC
  5
10C
  8
0
 62
     7
 10
90.311589999999995
 20
252.99479700000001
 30
0.0
 40
12.462562
 50
164.801061
 51
165.10611900000001
  0
ARC
  5
10D
  8
0
 62
     7
 10
86.793475000000001
 20
255.57060799999999
 30
0.0
 40
8.5365789999999997
 50
174.91732500000001
 51
175.35360800000001
  0
ARC
  5
10E
  8
0
 62
     7
 10
86.919146999999995
 20
255.58783799999989
 30
0.0
 40
8.6602770000000007
 50
174.66973499999989
 51
175.10452699999991
  0
ARC
  5
10F
  8
0
 62
     7
 10
88.922927000000001
 20
257.37613700000003
 30
0.0
 40
10.67205
 50
184.936454
 51
185.28928400000001
  0
ARC
  5
110
  8
0
 62
     7
 10
88.982726999999997
 20
257.39116399999989
 30
0.0
 40
10.732924999999989
 50
184.63823600000001
 51
184.9889049999999
  0
ARC
  5
111
  8
0
 62
     7
 10
87.742544999999993
 20
259.09997799999991
 30
0.0
 40
9.8023259999999972
 50
194.852486
 51
195.24033399999999
  0
ARC
  5
112
  8
0
 62
     7
 10
89.244373999999993
 20
259.51330000000002
 30
0.0
 40
11.359934000000001
 50
194.591632
 51
194.92585399999999
  0
ARC
  5
113
  8
0
 62
     7
 10
68.977486999999996
 20
252.46432999999999
 30
0.0
 40
10.174814
 50
24.300035000000001
 51
24.683761999999991
  0
ARC
  5
114
  8
0
 62
     7
 10
178.37900300000001
 20
301.821099
 30
0.0
 40
109.845383
 50
204.21002799999999
 51
204.245497
  0
ARC
  5
115
  8
0
 62
     7
 10
111.7709879999999
 20
278.93829199999988
 30
0.0
 40
40.23133
 50
213.3279069999999
 51
213.4277899999999
  0
ARC
  5
116
  8
0
 62
     7
 10
81.729990000000001
 20
259.23056400000002
 30
0.0
 40
4.3030390000000001
 50
212.91091299999999
 51
213.84478399999989
  0
ARC
  5
117
  8
0
 62
     7
 10
83.868702999999996
 20
262.07385499999998
 30
0.0
 40
7.7409169999999987
 50
221.4759
 51
222.01589899999999
  0
ARC
  5
118
  8
0
 62
     7
 10
83.192569999999975
 20
261.53551800000002
 30
0.0
 40
6.8779349999999999
 50
221.24047300000001
 51
221.84631899999991
  0
ARC
  5
119
  8
0
 62
     7
 10
80.086027000000001
 20
259.48866299999992
 30
0.0
 40
3.2329249999999989
 50
228.95629700000001
 51
230.29474400000001
  0
ARC
  5
11A
  8
0
 62
     7
 10
73.574360999999996
 20
251.98319100000001
 30
0.0
 40
6.703574999999999
 50
49.103270999999992
 51
49.750661999999998
  0
ARC
  5
11B
  8
0
 62
     7
 10
85.301201000000006
 20
268.41215599999992
 30
0.0
 40
13.515458000000001
 50
236.49322599999991
 51
236.82538600000001
  0
ARC
  5
11C
  8
0
 62
     7
 10
64.137186999999997
 20
236.44226399999999
 30
0.0
 40
24.824984000000001
 50
56.496752000000001
 51
56.678691000000001
  0
ARC
  5
11D
  8
0
 62
     7
 10
81.217500999999984
 20
264.22950600000001
 30
0.0
 40
7.8399380000000001
 50
243.3586379999999
 51
243.948656
  0
ARC
  5
11E
  8
0
 62
     7
 10
87.582040000000006
 20
276.97933799999993
 30
0.0
 40
22.090035999999991
 50
243.22094799999999
 51
243.43194700000001
  0
ARC
  5
11F
  8
0
 62
     7
 10
70.308044999999993
 20
237.59364600000001
 30
0.0
 40
20.983466
 50
69.579453999999984
 51
69.807143000000011
  0
ARC
  5
120
  8
0
 62
     7
 10
60.010289999999998
 20
210.00546600000001
 30
0.0
 40
50.430757999999997
 50
69.645930000000007
 51
69.740667999999999
  0
ARC
  5
121
  8
0
 62
     7
 10
68.969418000000005
 20
223.61830399999991
 30
0.0
 40
34.754373999999999
 50
75.837377000000004
 51
75.97733199999999
  0
ARC
  5
122
  8
0
 62
     7
 10
74.829352
 20
247.593208
 30
0.0
 40
10.07479
 50
75.272429000000002
 51
75.758088000000001
  0
ARC
  5
123
  8
0
 62
     7
 10
78.362348999999995
 20
264.52527400000002
 30
0.0
 40
7.2440699999999989
 50
260.94674500000002
 51
261.63040099999989
  0
ARC
  5
124
  8
0
 62
     7
 10
85.941135000000003
 20
317.73381299999988
 30
0.0
 40
60.988770999999993
 50
261.70001999999999
 51
261.78112599999992
  0
ARC
  5
125
  8
0
 62
     7
 10
82.643902999999995
 20
374.40783299999993
 30
0.0
 40
117.153482
 50
267.26312100000001
 51
267.30579699999998
  0
LINE
  5
126
  8
0
 62
     7
 10
77.049899999999994
 20
257.38799999999992
 30
0.0
 11
76.962699999999998
 21
257.392
 31
0.0
  0
LINE
  5
127
  8
0
 62
     7
 10
80.962800000000001
 20
255.393
 30
0.0
 11
81.071700000000007
 21
255.39699999999999
 31
0.0
  0
LINE
  5
128
  8
0
 62
     7
 10
81.071700000000007
 20
255.39699999999999
 30
0.0
 11
81.180599999999984
 21
255.4009999999999
 31
0.0
  0
LINE
  5
129
  8
0
 62
     7
 10
81.180599999999984
 20
255.4009999999999
 30
0.0
 11
81.287400000000005
 21
255.41399999999999
 31
0.0
  0
LINE
  5
12A
  8
0
 62
     7
 10
81.287400000000005
 20
255.41399999999999
 30
0.0
 11
81.394199999999984
 21
255.4259999999999
 31
0.0
  0
ARC
  5
12B
  8
0
 62
     7
 10
87.995718999999994
 20
223.74407400000001
 30
0.0
 40
32.362727
 50
101.583303
 51
101.77015
  0
LINE
  5
12C
  8
0
 62
     7
 10
81.497500000000002
 20
255.44799999999989
 30
0.0
 11
81.600499999999997
 21
255.4679999999999
 31
0.0
  0
ARC
  5
12D
  8
0
 62
     7
 10
55.410435
 20
344.19569999999987
 30
0.0
 40
92.511950999999996
 50
286.44529399999988
 51
286.50848500000001
  0
ARC
  5
12E
  8
0
 62
     7
 10
100.803298
 20
191.084326
 30
0.0
 40
67.186530000000005
 50
106.4333639999999
 51
106.520375
  0
ARC
  5
12F
  8
0
 62
     7
 10
88.044744999999992
 20
240.15347299999991
 30
0.0
 40
16.594162000000001
 50
111.78283500000001
 51
112.120133
  0
ARC
  5
130
  8
0
 62
     7
 10
78.536873999999997
 20
264.00508300000001
 30
0.0
 40
9.0826729999999998
 50
291.64337899999992
 51
292.25962900000002
  0
ARC
  5
131
  8
0
 62
     7
 10
86.007138999999995
 20
247.96487799999991
 30
0.0
 40
8.6326499999999982
 50
117.213061
 51
117.82669799999989
  0
ARC
  5
132
  8
0
 62
     7
 10
46.423027000000012
 20
323.05432899999988
 30
0.0
 40
76.252048000000002
 50
297.86242199999998
 51
297.93213399999991
  0
ARC
  5
133
  8
0
 62
     7
 10
85.663145999999998
 20
250.5794609999999
 30
0.0
 40
6.2026839999999988
 50
123.791134
 51
124.595241
  0
ARC
  5
134
  8
0
 62
     7
 10
54.270940000000003
 20
296.17224099999999
 30
0.0
 40
49.152892999999999
 50
304.644363
 51
304.74595699999998
  0
ARC
  5
135
  8
0
 62
     7
 10
77.405727999999996
 20
261.28014699999989
 30
0.0
 40
7.3495809999999988
 50
311.59758099999999
 51
312.23280499999998
  0
ARC
  5
136
  8
0
 62
     7
 10
67.201875999999999
 20
272.87592699999988
 30
0.0
 40
22.79504399999999
 50
311.63230199999992
 51
311.83653299999997
  0
ARC
  5
137
  8
0
 62
     7
 10
89.508836000000002
 20
250.12675200000001
 30
0.0
 40
9.1481570000000012
 50
140.45390900000001
 51
140.9307639999999
  0
ARC
  5
138
  8
0
 62
     7
 10
119.00255299999991
 20
225.9021789999999
 30
0.0
 40
47.314993000000001
 50
140.48158699999999
 51
140.57346200000001
  0
ARC
  5
139
  8
0
 62
     7
 10
70.821595000000002
 20
262.605163
 30
0.0
 40
13.414459000000001
 50
330.55087900000001
 51
330.85459300000002
  0
LINE
  5
13A
  8
0
 62
     7
 10
82.537599999999983
 20
256.07199999999989
 30
0.0
 11
82.572699999999998
 21
256.13400000000001
 31
0.0
  0
ARC
  5
13B
  8
0
 62
     7
 10
72.849294999999998
 20
259.41070999999988
 30
0.0
 40
10.260726999999999
 50
341.37646699999988
 51
341.75364000000002
  0
ARC
  5
13C
  8
0
 62
     7
 10
95.771872000000002
 20
251.84104999999991
 30
0.0
 40
13.879372
 50
161.42561499999991
 51
161.70445100000001
  0
ARC
  5
13D
  8
0
 62
     7
 10
87.077258999999984
 20
255.82021099999989
 30
0.0
 40
4.4836269999999994
 50
173.51135300000001
 51
174.34369599999991
  0
ARC
  5
13E
  8
0
 62
     7
 10
104.5521029999999
 20
253.93620199999989
 30
0.0
 40
22.059676
 50
173.60736499999999
 51
173.778413
  0
ARC
  5
13F
  8
0
 62
     7
 10
42.980562999999997
 20
252.04321299999989
 30
0.0
 40
39.886840999999997
 50
6.2597919999999991
 51
6.3543909999999997
  0
ARC
  5
140
  8
0
 62
     7
 10
87.957299000000006
 20
257.05246699999992
 30
0.0
 40
5.3679860000000001
 50
185.65776099999999
 51
186.36028999999999
  0
ARC
  5
141
  8
0
 62
     7
 10
92.338909999999984
 20
259.80000799999988
 30
0.0
 40
10.260726999999999
 50
198.24637999999999
 51
198.62355299999999
  0
ARC
  5
142
  8
0
 62
     7
 10
69.416333999999992
 20
252.23034799999999
 30
0.0
 40
13.879372
 50
18.295528999999998
 51
18.574365
  0
ARC
  5
143
  8
0
 62
     7
 10
6.0765719999999996
 20
213.34455
 30
0.0
 40
87.904202999999995
 50
29.515550000000001
 51
29.562007999999999
  0
ARC
  5
144
  8
0
 62
     7
 10
66.702044999999998
 20
247.86868999999999
 30
0.0
 40
18.138200000000001
 50
29.184954999999999
 51
29.40957199999999
  0
ARC
  5
145
  8
0
 62
     7
 10
87.07030300000001
 20
260.58605299999999
 30
0.0
 40
5.9483420000000002
 50
219.10706999999999
 51
219.8378799999999
  0
ARC
  5
146
  8
0
 62
     7
 10
85.270106999999996
 20
259.20182499999987
 30
0.0
 40
3.6788269999999992
 50
218.881641
 51
220.06331
  0
ARC
  5
147
  8
0
 62
     7
 10
86.322950000000006
 20
261.31636500000002
 30
0.0
 40
5.9084449999999986
 50
227.68974399999991
 51
228.47990999999999
  0
ARC
  5
148
  8
0
 62
     7
 10
87.250271999999995
 20
262.47130600000003
 30
0.0
 40
7.3873269999999991
 50
227.76883699999999
 51
228.40081599999999
  0
ARC
  5
149
  8
0
 62
     7
 10
85.757525000000001
 20
262.16478899999993
 30
0.0
 40
6.222383999999999
 50
235.27949100000001
 51
236.07843099999999
  0
ARC
  5
14A
  8
0
 62
     7
 10
62.771914000000002
 20
228.71310700000001
 30
0.0
 40
34.365273999999999
 50
55.546919999999993
 51
55.692377999999998
  0
ARC
  5
14B
  8
0
 62
     7
 10
88.550259999999994
 20
269.40165899999988
 30
0.0
 40
13.871311999999991
 50
242.09983099999999
 51
242.48237900000001
  0
ARC
  5
14C
  8
0
 62
     7
 10
98.800122000000016
 20
288.86315999999999
 30
0.0
 40
35.866965999999991
 50
242.02864
 51
242.17684399999999
  0
ARC
  5
14D
  8
0
 62
     7
 10
88.627374000000003
 20
274.13527399999998
 30
0.0
 40
18.207039999999999
 50
248.271017
 51
248.57763099999991
  0
ARC
  5
14E
  8
0
 62
     7
 10
90.104325000000003
 20
277.741308
 30
0.0
 40
22.103671999999989
 50
247.9219039999999
 51
248.17512799999989
  0
ARC
  5
14F
  8
0
 62
     7
 10
92.732821999999999
 20
294.414467
 30
0.0
 40
38.732146
 50
253.44766399999989
 51
253.59859700000001
  0
ARC
  5
150
  8
0
 62
     7
 10
46.3508
 20
137.95879600000001
 30
0.0
 40
124.45386000000001
 50
73.499623999999983
 51
73.546596999999991
  0
ARC
  5
151
  8
0
 62
     7
 10
40.891114000000002
 20
54.714732999999988
 30
0.0
 40
206.651062
 50
78.638648000000003
 51
78.667777000000001
  0
ARC
  5
152
  8
0
 62
     7
 10
77.444578000000007
 20
237.98670499999989
 30
0.0
 40
19.770182999999999
 50
78.170325000000005
 51
78.476181999999994
  0
ARC
  5
153
  8
0
 62
     7
 10
82.652743999999998
 20
268.06785500000001
 30
0.0
 40
10.783200000000001
 50
262.725663
 51
263.29737899999992
  0
ARC
  5
154
  8
0
 62
     7
 10
87.836237999999994
 20
314.23051099999992
 30
0.0
 40
57.234962000000003
 50
263.32216299999988
 51
263.42979300000002
  0
ARC
  5
155
  8
0
 62
     7
 10
83.470849999999984
 20
319.129997
 30
0.0
 40
61.788607999999989
 50
267.77475499999991
 51
267.87577700000003
  0
ARC
  5
156
  8
0
 62
     7
 10
70.702725000000001
 20
-14.226369999999999
 30
0.0
 40
271.81220200000001
 50
87.813764000000006
 51
87.836728000000008
  0
LINE
  5
157
  8
0
 62
     7
 10
80.962800000000001
 20
257.392
 30
0.0
 11
80.876000000000005
 21
257.38799999999992
 31
0.0
  0
LINE
  5
158
  8
0
 62
     7
 10
80.876000000000005
 20
257.38799999999992
 30
0.0
 11
80.788899999999984
 21
257.38400000000001
 31
0.0
  0
ARC
  5
159
  8
0
 62
     7
 10
88.815526000000006
 20
201.78855499999989
 30
0.0
 40
56.171737999999991
 50
98.215396000000013
 51
98.303457999999992
  0
ARC
  5
15A
  8
0
 62
     7
 10
79.153318999999996
 20
267.2411029999999
 30
0.0
 40
9.9906419999999994
 50
278.42816399999998
 51
278.92582499999992
  0
ARC
  5
15B
  8
0
 62
     7
 10
83.16897800000001
 20
247.35397499999999
 30
0.0
 40
10.324581
 50
104.30673400000001
 51
104.778792
  0
ARC
  5
15C
  8
0
 62
     7
 10
66.656650999999997
 20
312.67589500000003
 30
0.0
 40
57.052700999999992
 50
283.99345699999998
 51
284.07904699999989
  0
ARC
  5
15D
  8
0
 62
     7
 10
96.478081000000003
 20
213.8892799999999
 30
0.0
 40
46.289563999999991
 50
110.25507500000001
 51
110.3582879999999
  0
ARC
  5
15E
  8
0
 62
     7
 10
62.833564000000003
 20
304.56930599999998
 30
0.0
 40
50.430757999999997
 50
290.25933199999992
 51
290.35406999999998
  0
ARC
  5
15F
  8
0
 62
     7
 10
76.676172999999991
 20
264.34029299999997
 30
0.0
 40
7.9534399999999987
 50
296.49100299999998
 51
297.07482099999999
  0
ARC
  5
160
  8
0
 62
     7
 10
74.626591000000005
 20
268.48627599999992
 30
0.0
 40
12.578352000000001
 50
296.05370099999988
 51
296.42285800000002
  0
ARC
  5
161
  8
0
 62
     7
 10
67.951758999999996
 20
275.5109799999999
 30
0.0
 40
22.014243
 50
303.44845800000002
 51
303.65287799999987
  0
ARC
  5
162
  8
0
 62
     7
 10
75.705714999999984
 20
263.76352300000002
 30
0.0
 40
7.9385000000000003
 50
302.91896400000002
 51
303.48655200000002
  0
ARC
  5
163
  8
0
 62
     7
 10
89.378543000000008
 20
246.17793499999999
 30
0.0
 40
14.382884000000001
 50
130.59275400000001
 51
130.89344800000001
  0
ARC
  5
164
  8
0
 62
     7
 10
73.844484999999992
 20
264.18746199999998
 30
0.0
 40
9.4005860000000006
 50
310.14435400000002
 51
310.604645
  0
ARC
  5
165
  8
0
 62
     7
 10
76.732499000000004
 20
259.78387500000002
 30
0.0
 40
4.2199400000000002
 50
317.75883900000002
 51
318.74940299999992
  0
ARC
  5
166
  8
0
 62
     7
 10
72.715064999999996
 20
263.27127000000002
 30
0.0
 40
9.5392860000000006
 50
318.03502300000008
 51
318.47321899999992
  0
ARC
  5
167
  8
0
 62
     7
 10
76.856268999999983
 20
258.79527599999989
 30
0.0
 40
3.5118649999999998
 50
326.05003900000003
 51
327.19430399999999
  0
ARC
  5
168
  8
0
 62
     7
 10
75.825048999999993
 20
259.39067999999992
 30
0.0
 40
4.700518999999999
 50
326.19472100000002
 51
327.049622
  0
LINE
  5
169
  8
0
 62
     7
 10
79.730900000000005
 20
256.77499999999992
 30
0.0
 11
79.703000000000003
 21
256.71299999999991
 31
0.0
  0
ARC
  5
16A
  8
0
 62
     7
 10
179.8593699999999
 20
211.60576099999989
 30
0.0
 40
109.845383
 50
155.75450299999989
 51
155.78997200000001
  0
ARC
  5
16B
  8
0
 62
     7
 10
89.132649999999998
 20
254.07469800000001
 30
0.0
 40
9.8023259999999972
 50
164.7596659999999
 51
165.147514
  0
ARC
  5
16C
  8
0
 62
     7
 10
90.634478999999985
 20
253.66137699999999
 30
0.0
 40
11.359934000000001
 50
165.0741459999999
 51
165.408368
  0
ARC
  5
16D
  8
0
 62
     7
 10
90.267556999999996
 20
255.539467
 30
0.0
 40
10.67205
 50
174.71071599999991
 51
175.06354599999989
  0
ARC
  5
16E
  8
0
 62
     7
 10
90.327355999999995
 20
255.52443999999991
 30
0.0
 40
10.732924999999989
 50
175.0110949999999
 51
175.36176399999991
  0
ARC
  5
16F
  8
0
 62
     7
 10
93.830545999999984
 20
257.55525499999987
 30
0.0
 40
14.24850199999999
 50
184.68149700000001
 51
184.9456439999999
  0
ARC
  5
170
  8
0
 62
     7
 10
92.400503
 20
257.44855799999999
 30
0.0
 40
12.814596
 50
185.02158399999999
 51
185.312353
  0
ARC
  5
171
  8
0
 62
     7
 10
90.220713000000003
 20
259.01499899999999
 30
0.0
 40
10.932052000000001
 50
194.58509100000001
 51
194.93239399999999
  0
ARC
  5
172
  8
0
 62
     7
 10
91.701695000000001
 20
259.40128399999992
 30
0.0
 40
12.462562
 50
194.89388099999991
 51
195.19893899999991
  0
LINE
  5
173
  8
0
 62
     7
 10
79.6751
 20
256.13400000000001
 30
0.0
 11
79.703000000000003
 21
256.07199999999989
 31
0.0
  0
ARC
  5
174
  8
0
 62
     7
 10
-20.453448999999988
 20
210.96427999999989
 30
0.0
 40
109.845383
 50
24.210007999999991
 51
24.245477999999999
  0
ARC
  5
175
  8
0
 62
     7
 10
72.672027
 20
251.31741400000001
 30
0.0
 40
8.4762599999999981
 50
33.140786999999989
 51
33.614870000000003
  0
ARC
  5
176
  8
0
 62
     7
 10
68.354400999999996
 20
248.43275399999999
 30
0.0
 40
13.668685
 50
33.076025000000001
 51
33.371220999999998
  0
ARC
  5
177
  8
0
 62
     7
 10
86.687376
 20
262.021861
 30
0.0
 40
9.2138419999999996
 50
221.70064400000001
 51
222.15272200000001
  0
ARC
  5
178
  8
0
 62
     7
 10
87.717224999999999
 20
262.80432899999988
 30
0.0
 40
10.503038
 50
221.5469049999999
 51
221.94489299999989
  0
ARC
  5
179
  8
0
 62
     7
 10
87.040379000000016
 20
264.00060899999988
 30
0.0
 40
10.88230899999999
 50
229.02963399999999
 51
229.42961199999999
  0
ARC
  5
17A
  8
0
 62
     7
 10
75.587626999999983
 20
250.56189199999989
 30
0.0
 40
6.7746250000000003
 50
49.13735100000001
 51
49.773843999999997
  0
ARC
  5
17B
  8
0
 62
     7
 10
65.308573999999993
 20
233.31330999999989
 30
0.0
 40
26.775625999999999
 50
56.50338
 51
56.672063999999999
  0
ARC
  5
17C
  8
0
 62
     7
 10
76.122687999999997
 20
249.4981129999999
 30
0.0
 40
7.3111490000000003
 50
56.563980999999998
 51
57.176535999999999
  0
ARC
  5
17D
  8
0
 62
     7
 10
83.562937000000005
 20
262.30001800000002
 30
0.0
 40
7.5193119999999993
 50
243.01651200000001
 51
243.63638199999991
  0
ARC
  5
17E
  8
0
 62
     7
 10
76.159684999999996
 20
247.42116499999989
 30
0.0
 40
9.0996210000000008
 50
62.961947999999992
 51
63.472228000000001
  0
ARC
  5
17F
  8
0
 62
     7
 10
61.274627999999993
 20
204.00254499999991
 30
0.0
 40
54.922781999999998
 50
69.649804000000003
 51
69.736793000000006
  0
ARC
  5
180
  8
0
 62
     7
 10
93.933660999999987
 20
292.01941699999992
 30
0.0
 40
38.957900000000002
 50
249.63199900000001
 51
249.754637
  0
LINE
  5
181
  8
0
 62
     7
 10
80.452600000000004
 20
255.4679999999999
 30
0.0
 11
80.535300000000007
 21
255.44799999999989
 31
0.0
  0
ARC
  5
182
  8
0
 62
     7
 10
78.150043000000011
 20
246.08352999999991
 30
0.0
 40
9.6631780000000003
 50
75.205033
 51
75.709401999999983
  0
LINE
  5
183
  8
0
 62
     7
 10
80.617599999999996
 20
255.4259999999999
 30
0.0
 11
80.703399999999988
 21
255.41399999999999
 31
0.0
  0
LINE
  5
184
  8
0
 62
     7
 10
80.703399999999988
 20
255.41399999999999
 30
0.0
 11
80.788899999999984
 21
255.4009999999999
 31
0.0
  0
LINE
  5
185
  8
0
 62
     7
 10
80.788899999999984
 20
255.4009999999999
 30
0.0
 11
80.876000000000005
 21
255.39699999999999
 31
0.0
  0
LINE
  5
186
  8
0
 62
     7
 10
80.876000000000005
 20
255.39699999999999
 30
0.0
 11
80.962800000000001
 21
255.393
 31
0.0
  0
ARC
  5
187
  8
0
 62
     7
 10
77.515051999999997
 20
242.361963
 30
0.0
 40
15.0403
 50
92.104585999999998
 51
92.556431000000003
  0
ARC
  5
188
  8
0
 62
     7
 10
75.840802999999994
 20
280.583822
 30
0.0
 40
23.218219000000001
 50
272.18418100000002
 51
272.47687599999989
  0
ARC
  5
189
  8
0
 62
     7
 10
75.712523000000004
 20
264.69021900000001
 30
0.0
 40
7.3776469999999996
 50
276.98402900000002
 51
277.89334200000002
  0
ARC
  5
18A
  8
0
 62
     7
 10
74.36035600000001
 20
274.19068499999997
 30
0.0
 40
16.973064000000001
 50
277.21872300000001
 51
277.61512199999999
  0
ARC
  5
18B
  8
0
 62
     7
 10
66.841782999999992
 20
300.38722999999987
 30
0.0
 40
44.104042
 50
282.49232000000001
 51
282.64042899999993
  0
ARC
  5
18C
  8
0
 62
     7
 10
66.020993000000004
 20
302.91191099999992
 30
0.0
 40
46.747191999999998
 50
282.66533900000002
 51
282.80516599999999
  0
ARC
  5
18D
  8
0
 62
     7
 10
100.543014
 20
182.837074
 30
0.0
 40
78.321169999999995
 50
108.053726
 51
108.1340629999999
  0
ARC
  5
18E
  8
0
 62
     7
 10
81.330168999999984
 20
241.44590500000001
 30
0.0
 40
16.643563
 50
108.075373
 51
108.45379299999991
  0
ARC
  5
18F
  8
0
 62
     7
 10
87.091825999999998
 20
232.55579499999999
 30
0.0
 40
27.03067299999999
 50
114.0827189999999
 51
114.3036739999999
  0
ARC
  5
190
  8
0
 62
     7
 10
81.307473999999999
 20
245.13244299999999
 30
0.0
 40
13.188269999999999
 50
113.88870900000001
 51
114.3429449999999
  0
ARC
  5
191
  8
0
 62
     7
 10
82.740964000000005
 20
245.57200399999999
 30
0.0
 40
13.461080000000001
 50
120.68615
 51
121.10310799999991
  0
ARC
  5
192
  8
0
 62
     7
 10
70.843680000000006
 20
265.26435199999992
 30
0.0
 40
9.5461850000000013
 50
300.60067099999992
 51
301.188626
  0
ARC
  5
193
  8
0
 62
     7
 10
68.915704000000005
 20
265.438447
 30
0.0
 40
10.792406
 50
308.48460999999998
 51
308.96991100000002
  0
ARC
  5
194
  8
0
 62
     7
 10
62.902850000000001
 20
272.71403500000002
 30
0.0
 40
20.230174999999988
 50
308.73368099999999
 51
308.99181900000002
  0
ARC
  5
195
  8
0
 62
     7
 10
79.310507000000001
 20
253.4558209999999
 30
0.0
 40
5.1138969999999988
 50
137.157005
 51
138.10783399999991
  0
ARC
  5
196
  8
0
 62
     7
 10
64.492141000000004
 20
266.79642199999989
 30
0.0
 40
14.824909999999999
 50
317.64121399999999
 51
317.96830599999993
  0
ARC
  5
197
  8
0
 62
     7
 10
114.8822939999999
 20
232.1650819999999
 30
0.0
 40
46.501806999999992
 50
147.999199
 51
148.09625299999999
  0
ARC
  5
198
  8
0
 62
     7
 10
61.778033999999998
 20
265.12394699999999
 30
0.0
 40
15.999154999999989
 50
328.12014399999993
 51
328.40158100000002
  0
ARC
  5
199
  8
0
 62
     7
 10
113.574619
 20
242.6366799999999
 30
0.0
 40
40.707673999999997
 50
159.82819199999989
 51
159.93250699999999
  0
ARC
  5
19A
  8
0
 62
     7
 10
99.185861000000003
 20
247.94706099999991
 30
0.0
 40
25.370387999999998
 50
160.0472739999999
 51
160.21438499999999
  0
ARC
  5
19B
  8
0
 62
     7
 10
65.855035000000001
 20
257.635424
 30
0.0
 40
9.5219599999999982
 50
352.92922099999993
 51
353.36351000000002
  0
ARC
  5
19C
  8
0
 62
     7
 10
104.0701729999999
 20
253.07601699999989
 30
0.0
 40
28.964343
 50
173.28403399999999
 51
173.4253709999999
  0
ARC
  5
19D
  8
0
 62
     7
 10
17.981214000000001
 20
249.67889099999999
 30
0.0
 40
57.706938999999998
 50
6.6098070000000009
 51
6.6807479999999977
  0
ARC
  5
19E
  8
0
 62
     7
 10
55.436442999999997
 20
253.87418699999989
 30
0.0
 40
20.018280999999991
 50
6.8172240000000004
 51
7.0218410000000002
  0
ARC
  5
19F
  8
0
 62
     7
 10
83.743781000000013
 20
259.24260600000002
 30
0.0
 40
8.9458419999999972
 50
199.54090099999999
 51
200.01690400000001
  0
ARC
  5
1A0
  8
0
 62
     7
 10
97.429987999999994
 20
264.19396799999998
 30
0.0
 40
23.500149
 50
199.937692
 51
200.119179
  0
ARC
  5
1A1
  8
0
 62
     7
 10
64.889027999999996
 20
249.58506800000001
 30
0.0
 40
12.341122
 50
31.556708
 51
31.921566999999989
  0
ARC
  5
1A2
  8
0
 62
     7
 10
70.489583999999994
 20
252.93136999999999
 30
0.0
 40
5.8180440000000004
 50
31.564391000000001
 51
32.340116999999992
  0
ARC
  5
1A3
  8
0
 62
     7
 10
55.793968000000007
 20
238.004154
 30
0.0
 40
26.631833
 50
42.261600000000001
 51
42.443131000000001
  0
ARC
  5
1A4
  8
0
 62
     7
 10
54.389049
 20
236.70385899999991
 30
0.0
 40
28.546064000000001
 50
42.125864999999997
 51
42.296711000000002
  0
ARC
  5
1A5
  8
0
 62
     7
 10
70.598643999999993
 20
249.54556700000001
 30
0.0
 40
8.0242290000000001
 50
51.152255000000011
 51
51.799983000000012
  0
ARC
  5
1A6
  8
0
 62
     7
 10
80.401467000000011
 20
261.66953899999987
 30
0.0
 40
7.5670179999999991
 50
230.92667999999989
 51
231.61883900000001
  0
ARC
  5
1A7
  8
0
 62
     7
 10
80.233765000000005
 20
263.214045
 30
0.0
 40
8.7419030000000006
 50
238.784347
 51
239.4263959999999
  0
ARC
  5
1A8
  8
0
 62
     7
 10
69.569217000000009
 20
245.34135099999989
 30
0.0
 40
12.070876999999999
 50
58.527445
 51
58.994112999999999
  0
ARC
  5
1A9
  8
0
 62
     7
 10
72.699488000000002
 20
248.42311699999999
 30
0.0
 40
7.8799159999999997
 50
65.50403399999999
 51
66.264271999999991
  0
ARC
  5
1AA
  8
0
 62
     7
 10
69.413321999999994
 20
240.87996799999999
 30
0.0
 40
16.107234999999989
 50
65.621383999999992
 51
65.992184000000009
  0
ARC
  5
1AB
  8
0
 62
     7
 10
71.631138000000007
 20
241.67385899999999
 30
0.0
 40
14.567335
 50
71.861350000000002
 51
72.292863999999994
  0
ARC
  5
1AC
  8
0
 62
     7
 10
84.910730000000001
 20
281.83783199999988
 30
0.0
 40
27.735139
 50
251.62187399999991
 51
251.84896000000001
  0
ARC
  5
1AD
  8
0
 62
     7
 10
43.425541000000003
 20
107.87429299999989
 30
0.0
 40
151.21864500000001
 50
77.412026999999995
 51
77.455224000000001
  0
ARC
  5
1AE
  8
0
 62
     7
 10
66.654018000000008
 20
211.555815
 30
0.0
 40
44.967047999999991
 50
77.36099200000001
 51
77.506258000000003
  0
LINE
  5
1AF
  8
0
 62
     7
 10
76.493099999999984
 20
255.43299999999991
 30
0.0
 11
76.6096
 21
255.41800000000001
 31
0.0
  0
LINE
  5
1B0
  8
0
 62
     7
 10
76.6096
 20
255.41800000000001
 30
0.0
 11
76.725700000000003
 21
255.40299999999999
 31
0.0
  0
LINE
  5
1B1
  8
0
 62
     7
 10
76.725700000000003
 20
255.40299999999999
 30
0.0
 11
76.844200000000001
 21
255.39699999999999
 31
0.0
  0
LINE
  5
1B2
  8
0
 62
     7
 10
76.844200000000001
 20
255.39699999999999
 30
0.0
 11
76.962699999999998
 21
255.393
 31
0.0
  0
ARC
  5
1B3
  8
0
 62
     7
 10
78.266266000000002
 20
258.64252799999991
 30
0.0
 40
5.0360969999999989
 50
223.765895
 51
253.02929199999991
  0
ARC
  5
1B4
  8
0
 62
     7
 10
79.665460999999993
 20
258.63211699999999
 30
0.0
 40
5.0244390000000001
 50
286.94181299999991
 51
316.27117099999992
  0
LINE
  5
1B5
  8
0
 62
     7
 10
83.296199999999999
 20
255.15899999999999
 30
0.0
 11
83.296199999999999
 21
257.65899999999988
 31
0.0
  0
LINE
  5
1B6
  8
0
 62
     7
 10
74.629300000000001
 20
255.15899999999999
 30
0.0
 11
74.629300000000001
 21
257.65899999999988
 31
0.0
  0
LINE
  5
1B7
  8
0
 62
     7
 10
78.979500000000002
 20
253.82599999999999
 30
0.0
 11
81.146100000000004
 21
253.82599999999999
 31
0.0
  0
LINE
  5
1B8
  8
0
 62
     7
 10
76.796300000000002
 20
253.82599999999999
 30
0.0
 11
81.129599999999996
 21
253.82599999999999
 31
0.0
  0
LINE
  5
1B9
  8
0
 62
     7
 10
81.129599999999996
 20
253.65899999999999
 30
0.0
 11
81.129599999999996
 21
253.82599999999999
 31
0.0
  0
LINE
  5
1BA
  8
0
 62
     7
 10
74.629300000000001
 20
257.65899999999988
 30
0.0
 11
83.296199999999999
 21
257.65899999999988
 31
0.0
  0
LINE
  5
1BB
  8
0
 62
     7
 10
76.796300000000002
 20
253.65899999999999
 30
0.0
 11
81.129599999999996
 21
253.65899999999999
 31
0.0
  0
LINE
  5
1BC
  8
0
 62
     7
 10
76.796300000000002
 20
253.65899999999999
 30
0.0
 11
76.796300000000002
 21
253.82599999999999
 31
0.0
  0
LINE
  5
1BD
  8
0
 62
     7
 10
75.233999999999995
 20
257.65899999999988
 30
0.0
 11
75.233999999999995
 21
258.49200000000002
 31
0.0
  0
LINE
  5
1BE
  8
0
 62
     7
 10
82.691900000000004
 20
257.65899999999988
 30
0.0
 11
82.691900000000004
 21
258.49200000000002
 31
0.0
  0
LINE
  5
1BF
  8
0
 62
     7
 10
82.962699999999984
 20
257.65899999999988
 30
0.0
 11
82.962699999999984
 21
258.96199999999999
 31
0.0
  0
LINE
  5
1C0
  8
0
 62
     7
 10
74.962800000000001
 20
257.65899999999988
 30
0.0
 11
74.962800000000001
 21
258.96199999999999
 31
0.0
  0
LINE
  5
1C1
  8
0
  6
AIGENLINE001
 62
     7
 10
78.962900000000005
 20
274.82599999999991
 30
0.0
 11
78.962900000000005
 21
241.80699999999999
 31
0.0
  0
ARC
  5
1C2
  8
0
 62
     7
 10
78.633814999999998
 20
263.44009999999992
 30
0.0
 40
10.333092999999989
 50
280.66614800000002
 51
358.442498
  0
ARC
  5
1C3
  8
0
 62
     7
 10
78.962947
 20
263.15924200000001
 30
0.0
 40
10.000144000000001
 50
0.00001
 51
89.999980000000008
  0
ARC
  5
1C4
  8
0
 62
     7
 10
78.962951000000004
 20
263.15924200000001
 30
0.0
 40
10.000144000000001
 50
90.0
 51
179.99996999999991
  0
ARC
  5
1C5
  8
0
 62
     7
 10
79.292648
 20
263.440515
 30
0.0
 40
10.333669
 50
181.55973599999999
 51
259.329342
  0
LINE
  5
1C6
  8
0
 62
     7
 10
82.096299999999999
 20
225.95500000000001
 30
0.0
 11
82.096299999999999
 21
226.64500000000001
 31
0.0
  0
LINE
  5
1C7
  8
0
 62
     7
 10
75.829599999999985
 20
225.95500000000001
 30
0.0
 11
75.829599999999985
 21
226.64500000000001
 31
0.0
  0
LINE
  5
1C8
  8
0
 62
     7
 10
82.429400000000001
 20
225.37700000000001
 30
0.0
 11
82.429400000000001
 21
226.64500000000001
 31
0.0
  0
LINE
  5
1C9
  8
0
 62
     7
 10
75.496099999999998
 20
225.37700000000001
 30
0.0
 11
75.496099999999998
 21
226.64500000000001
 31
0.0
  0
LINE
  5
1CA
  8
0
  6
AIGENLINE001
 62
     7
 10
78.962900000000005
 20
68.896799999999999
 30
0.0
 11
78.962900000000005
 21
235.66499999999999
 31
0.0
  0
ARC
  5
1CB
  8
0
 62
     7
 10
78.944013999999996
 20
227.607124
 30
0.0
 40
2.021792
 50
14.71995199999999
 51
59.744023000000013
  0
ARC
  5
1CC
  8
0
 62
     7
 10
86.151872999999995
 20
215.22554700000001
 30
0.0
 40
2.0778400000000001
 50
242.102294
 51
327.89630599999992
  0
ARC
  5
1CD
  8
0
 62
     7
 10
86.169201999999999
 20
215.12361899999999
 30
0.0
 40
2.010470999999999
 50
330.0950279999999
 51
359.92666000000003
  0
ARC
  5
1CE
  8
0
 62
     7
 10
86.138557000000006
 20
215.09760099999991
 30
0.0
 40
2.0412490000000001
 50
0.6580819999999999
 51
59.326233000000002
  0
ARC
  5
1CF
  8
0
 62
     7
 10
78.961373999999992
 20
227.61703799999989
 30
0.0
 40
2.0045069999999989
 50
60.029866000000013
 51
89.954960000000014
  0
ARC
  5
1D0
  8
0
 62
     7
 10
78.987831999999997
 20
198.00577699999991
 30
0.0
 40
16.582762999999989
 50
68.075178000000008
 51
78.716886999999986
  0
ARC
  5
1D1
  8
0
 62
     7
 10
97.517246000000014
 20
229.98681599999989
 30
0.0
 40
16.722229999999989
 50
186.4067629999999
 51
209.960218
  0
ARC
  5
1D2
  8
0
 62
     7
 10
97.508606999999998
 20
230.008769
 30
0.0
 40
16.725725000000001
 50
210.0401479999999
 51
231.8637149999999
  0
ARC
  5
1D3
  8
0
 62
     7
 10
78.972680000000011
 20
197.81485199999989
 30
0.0
 40
16.772977999999991
 50
78.793734999999984
 51
111.792061
  0
ARC
  5
1D4
  8
0
 62
     7
 10
78.883100999999996
 20
219.208067
 30
0.0
 40
2.1613129999999998
 50
2.117233999999999
 51
87.882756000000001
  0
ARC
  5
1D5
  8
0
 62
     7
 10
79.042806999999996
 20
219.20805699999991
 30
0.0
 40
2.161322999999999
 50
92.117463999999998
 51
177.88250600000001
  0
ARC
  5
1D6
  8
0
 62
     7
 10
78.962948999999995
 20
219.28791499999991
 30
0.0
 40
2.079988999999999
 50
179.99996999999991
 51
270.00002000000001
  0
ARC
  5
1D7
  8
0
 62
     7
 10
78.962948999999995
 20
219.28791499999991
 30
0.0
 40
2.07999
 50
270.00002000000001
 51
359.99998999999991
  0
ARC
  5
1D8
  8
0
 62
     7
 10
78.870367999999999
 20
219.19533399999989
 30
0.0
 40
2.5072509999999988
 50
2.1161509999999999
 51
87.883838999999995
  0
ARC
  5
1D9
  8
0
 62
     7
 10
79.055153000000004
 20
219.19571199999999
 30
0.0
 40
2.5068599999999992
 50
92.107833000000014
 51
177.89213699999999
  0
ARC
  5
1DA
  8
0
 62
     7
 10
78.962948999999995
 20
219.28791499999991
 30
0.0
 40
2.4129599999999991
 50
179.99996999999991
 51
270.00002000000001
  0
ARC
  5
1DB
  8
0
 62
     7
 10
78.962948999999995
 20
219.287916
 30
0.0
 40
2.4129610000000001
 50
270.00002000000001
 51
359.99998999999991
  0
ARC
  5
1DC
  8
0
 62
     7
 10
108.6713739999999
 20
216.1462149999999
 30
0.0
 40
34.435553999999989
 50
164.45086299999991
 51
171.65525199999999
  0
ARC
  5
1DD
  8
0
 62
     7
 10
49.283907999999997
 20
216.15250499999991
 30
0.0
 40
34.405226999999996
 50
8.3415479999999995
 51
15.552295999999989
  0
ARC
  5
1DE
  8
0
 62
     7
 10
126.1980219999999
 20
216.67293299999989
 30
0.0
 40
51.882649999999998
 50
183.0068499999999
 51
186.306477
  0
ARC
  5
1DF
  8
0
 62
     7
 10
31.234902000000002
 20
216.71274
 30
0.0
 40
52.376671999999999
 50
353.70945599999999
 51
356.97832899999997
  0
ARC
  5
1E0
  8
0
 62
     7
 10
81.129582999999997
 20
205.94356099999999
 30
0.0
 40
5.0214939999999997
 50
64.438978000000006
 51
115.561002
  0
ARC
  5
1E1
  8
0
 62
     7
 10
76.796315000000007
 20
205.942106
 30
0.0
 40
5.0228060000000001
 50
64.446136999999993
 51
115.5538429999999
  0
ARC
  5
1E2
  8
0
 62
     7
 10
76.796315000000007
 20
212.66988199999989
 30
0.0
 40
5.0214939999999997
 50
244.438998
 51
295.56102199999998
  0
ARC
  5
1E3
  8
0
 62
     7
 10
81.129582999999997
 20
212.66988199999989
 30
0.0
 40
5.0214939999999997
 50
244.438998
 51
295.56102199999998
  0
LINE
  5
1E4
  8
0
 62
     7
 10
81.287400000000005
 20
225.95500000000001
 30
0.0
 11
82.429400000000001
 21
225.95500000000001
 31
0.0
  0
LINE
  5
1E5
  8
0
 62
     7
 10
78.962900000000005
 20
210.47399999999999
 30
0.0
 11
78.962900000000005
 21
208.1399999999999
 31
0.0
  0
LINE
  5
1E6
  8
0
 62
     7
 10
74.629300000000001
 20
210.9729999999999
 30
0.0
 11
74.629300000000001
 21
207.63999999999999
 31
0.0
  0
LINE
  5
1E7
  8
0
 62
     7
 10
83.296199999999999
 20
210.9729999999999
 30
0.0
 11
83.296199999999999
 21
207.63999999999999
 31
0.0
  0
LINE
  5
1E8
  8
0
 62
     7
 10
83.296199999999999
 20
207.63999999999999
 30
0.0
 11
74.629300000000001
 21
207.63999999999999
 31
0.0
  0
LINE
  5
1E9
  8
0
 62
     7
 10
75.496099999999998
 20
225.95500000000001
 30
0.0
 11
76.638199999999998
 21
225.95500000000001
 31
0.0
  0
LINE
  5
1EA
  8
0
 62
     7
 10
82.096299999999999
 20
225.95500000000001
 30
0.0
 11
82.429400000000001
 21
225.37700000000001
 31
0.0
  0
LINE
  5
1EB
  8
0
 62
     7
 10
75.829599999999985
 20
225.95500000000001
 30
0.0
 11
75.496099999999998
 21
225.37700000000001
 31
0.0
  0
LINE
  5
1EC
  8
0
 62
     7
 10
82.343299999999985
 20
207.63999999999999
 30
0.0
 11
82.374300000000005
 21
206.6399999999999
 31
0.0
  0
LINE
  5
1ED
  8
0
 62
     7
 10
82.352299999999985
 20
207.34999999999999
 30
0.0
 11
75.573800000000006
 21
207.34999999999999
 31
0.0
  0
LINE
  5
1EE
  8
0
 62
     7
 10
82.374300000000005
 20
206.6399999999999
 30
0.0
 11
81.964500000000001
 21
207.34999999999999
 31
0.0
  0
LINE
  5
1EF
  8
0
 62
     7
 10
81.955600000000004
 20
207.63999999999999
 30
0.0
 11
81.964500000000001
 21
207.34999999999999
 31
0.0
  0
LINE
  5
1F0
  8
0
 62
     7
 10
75.551599999999993
 20
206.6399999999999
 30
0.0
 11
75.961200000000005
 21
207.34999999999999
 31
0.0
  0
LINE
  5
1F1
  8
0
 62
     7
 10
75.582899999999995
 20
207.63999999999999
 30
0.0
 11
75.551599999999993
 21
206.6399999999999
 31
0.0
  0
LINE
  5
1F2
  8
0
 62
     7
 10
75.970500000000001
 20
207.63999999999999
 30
0.0
 11
75.961200000000005
 21
207.34999999999999
 31
0.0
  0
ARC
  5
1F3
  8
0
 62
     7
 10
71.85084599999999
 20
215.09310799999989
 30
0.0
 40
2.078168999999999
 50
122.11657700000001
 51
207.88122999999999
  0
ARC
  5
1F4
  8
0
 62
     7
 10
71.746002000000004
 20
215.12143199999991
 30
0.0
 40
2.0001129999999998
 50
210.00339600000001
 51
299.99443100000002
  0
ARC
  5
1F5
  8
0
 62
     7
 10
60.267803000000001
 20
230.07731200000001
 30
0.0
 40
16.872119000000001
 50
308.39184999999992
 51
353.34110600000002
  0
LINE
  5
1F6
  8
0
  6
AIGENLINE001
 62
     7
 10
87.608800000000002
 20
219.2879999999999
 30
0.0
 11
70.064599999999999
 21
219.2879999999999
 31
0.0
  0
ARC
  5
1F7
  8
0
 62
     7
 10
78.98527
 20
227.60428899999999
 30
0.0
 40
2.0261219999999991
 50
120.3066899999999
 51
165.22929500000001
  0
ARC
  5
1F8
  8
0
 62
     7
 10
78.965552000000002
 20
227.61191700000001
 30
0.0
 40
2.009628999999999
 50
90.074198999999993
 51
119.931062
  0
ARC
  5
1F9
  8
0
 62
     7
 10
79.093735999999993
 20
263.02811299999991
 30
0.0
 40
3.5445559999999992
 50
92.114564999999999
 51
177.88540499999991
  0
ARC
  5
1FA
  8
0
 62
     7
 10
78.962947999999983
 20
263.15889900000002
 30
0.0
 40
3.4113549999999999
 50
179.99996999999991
 51
270.00002000000001
  0
ARC
  5
1FB
  8
0
 62
     7
 10
78.962947999999983
 20
263.15890000000002
 30
0.0
 40
3.4113559999999992
 50
270.00002000000001
 51
359.99998999999991
  0
ARC
  5
1FC
  8
0
 62
     7
 10
78.832171000000002
 20
263.028122
 30
0.0
 40
3.5445459999999991
 50
2.1144359999999991
 51
87.885554000000013
  0
ARC
  5
1FD
  8
0
 62
     7
 10
78.962777000000003
 20
263.158727
 30
0.0
 40
2.0165999999999991
 50
89.995106000000007
 51
179.99507600000001
  0
ARC
  5
1FE
  8
0
 62
     7
 10
78.962948999999995
 20
263.15889900000002
 30
0.0
 40
2.016770999999999
 50
179.99996999999991
 51
270.00002000000001
  0
ARC
  5
1FF
  8
0
 62
     7
 10
78.962948999999995
 20
263.15890000000002
 30
0.0
 40
2.016772
 50
270.00002000000001
 51
359.99998999999991
  0
ARC
  5
200
  8
0
 62
     7
 10
78.963121000000001
 20
263.158727
 30
0.0
 40
2.0165999999999991
 50
0.004904
 51
90.004874000000001
  0
ARC
  5
201
  8
0
 62
     7
 10
79.02735899999999
 20
263.09449000000001
 30
0.0
 40
1.765406
 50
92.090865000000008
 51
177.90910500000001
  0
ARC
  5
202
  8
0
 62
     7
 10
79.028505999999993
 20
263.22409900000002
 30
0.0
 40
1.766581999999999
 50
182.11512499999989
 51
267.87329399999987
  0
ARC
  5
203
  8
0
 62
     7
 10
78.962776000000005
 20
263.158728
 30
0.0
 40
1.6999930000000001
 50
270.00582500000002
 51
0.005796
  0
ARC
  5
204
  8
0
 62
     7
 10
78.962948999999995
 20
263.15889900000002
 30
0.0
 40
1.6998209999999989
 50
0.00001
 51
89.999980000000008
  0
ARC
  5
205
  8
0
 62
     7
 10
78.962948999999995
 20
263.15889900000002
 30
0.0
 40
1.8500279999999989
 50
90.0
 51
179.99996999999991
  0
ARC
  5
206
  8
0
 62
     7
 10
78.962948999999995
 20
263.15889900000002
 30
0.0
 40
1.8500279999999989
 50
179.99996999999991
 51
270.00002000000001
  0
ARC
  5
207
  8
0
 62
     7
 10
78.962948999999995
 20
263.15890000000002
 30
0.0
 40
1.8500279999999989
 50
270.00002000000001
 51
359.99998999999991
  0
ARC
  5
208
  8
0
 62
     7
 10
78.962948999999995
 20
263.15889900000002
 30
0.0
 40
1.8500279999999989
 50
0.00001
 51
89.999980000000008
  0
ARC
  5
209
  8
0
 62
     7
 10
78.962777000000003
 20
263.158727
 30
0.0
 40
2.000062999999999
 50
89.995064999999997
 51
179.995036
  0
ARC
  5
20A
  8
0
 62
     7
 10
78.962948999999995
 20
263.15889900000002
 30
0.0
 40
2.0002349999999991
 50
179.99996999999991
 51
270.00002000000001
  0
ARC
  5
20B
  8
0
 62
     7
 10
78.962948999999995
 20
263.15890000000002
 30
0.0
 40
2.0002349999999991
 50
270.00002000000001
 51
359.99998999999991
  0
ARC
  5
20C
  8
0
 62
     7
 10
78.963121000000001
 20
263.158727
 30
0.0
 40
2.000062999999999
 50
0.004945
 51
90.004914999999997
  0
LINE
  5
20D
  8
0
 62
     7
 10
131.46100000000001
 20
219.2879999999999
 30
0.0
 11
142.73599999999999
 21
219.2879999999999
 31
0.0
  0
LINE
  5
20E
  8
0
 62
     7
 10
142.42099999999991
 20
217.077
 30
0.0
 11
141.82900000000001
 21
219.2879999999999
 31
0.0
  0
LINE
  5
20F
  8
0
 62
     7
 10
141.82900000000001
 20
219.2879999999999
 30
0.0
 11
141.23699999999991
 21
217.077
 31
0.0
  0
LINE
  5
210
  8
0
 62
     7
 10
141.23699999999991
 20
217.077
 30
0.0
 11
142.42099999999991
 21
217.077
 31
0.0
  0
LINE
  5
211
  8
0
 62
     7
 10
142.42099999999991
 20
232.078
 30
0.0
 11
141.82900000000001
 21
234.28800000000001
 31
0.0
  0
LINE
  5
212
  8
0
 62
     7
 10
141.82900000000001
 20
234.28800000000001
 30
0.0
 11
141.23699999999991
 21
232.078
 31
0.0
  0
LINE
  5
213
  8
0
 62
     7
 10
141.23699999999991
 20
232.078
 30
0.0
 11
142.42099999999991
 21
232.078
 31
0.0
  0
LINE
  5
214
  8
0
 62
     7
 10
141.25200000000001
 20
221.499
 30
0.0
 11
141.84399999999991
 21
219.2879999999999
 31
0.0
  0
LINE
  5
215
  8
0
 62
     7
 10
141.84399999999991
 20
219.2879999999999
 30
0.0
 11
142.43600000000001
 21
221.499
 31
0.0
  0
LINE
  5
216
  8
0
 62
     7
 10
142.43600000000001
 20
221.499
 30
0.0
 11
141.25200000000001
 21
221.499
 31
0.0
  0
LINE
  5
217
  8
0
 62
     7
 10
141.25200000000001
 20
76.165000000000006
 30
0.0
 11
141.84399999999991
 21
73.954300000000003
 31
0.0
  0
LINE
  5
218
  8
0
 62
     7
 10
141.84399999999991
 20
73.954300000000003
 30
0.0
 11
142.43600000000001
 21
76.165000000000006
 31
0.0
  0
LINE
  5
219
  8
0
 62
     7
 10
142.43600000000001
 20
76.165000000000006
 30
0.0
 11
141.25200000000001
 21
76.165000000000006
 31
0.0
  0
LINE
  5
21A
  8
0
 62
     7
 10
141.83699999999999
 20
234.28800000000001
 30
0.0
 11
141.83699999999999
 21
73.954300000000003
 31
0.0
  0
ARC
  5
21B
  8
0
 62
     7
 10
80.623637000000002
 20
64.384874999999994
 30
0.0
 40
15.01737399999999
 50
64.692104000000015
 51
82.665796999999984
  0
ARC
  5
21C
  8
0
 62
     7
 10
85.564495999999977
 20
74.900257999999994
 30
0.0
 40
3.3988269999999989
 50
0.8834079999999998
 51
65.329154000000003
  0
ARC
  5
21D
  8
0
 62
     7
 10
77.299110999999996
 20
64.39479399999999
 30
0.0
 40
15.00713399999999
 50
97.327089999999984
 51
115.3137879999999
  0
ARC
  5
21E
  8
0
 62
     7
 10
72.396416000000002
 20
74.877223999999998
 30
0.0
 40
3.4344449999999989
 50
115.04123800000001
 51
178.735649
  0
LINE
  5
21F
  8
0
 62
     7
 10
75.385199999999998
 20
79.279399999999995
 30
0.0
 11
78.962900000000005
 21
79.279399999999995
 31
0.0
  0
LINE
  5
220
  8
0
 62
     7
 10
78.962900000000005
 20
79.279399999999995
 30
0.0
 11
82.540700000000001
 21
79.279399999999995
 31
0.0
  0
LINE
  5
221
  8
0
 62
     7
 10
88.962900000000005
 20
74.952699999999993
 30
0.0
 11
88.962900000000005
 21
73.954300000000003
 31
0.0
  0
LINE
  5
222
  8
0
 62
     7
 10
68.962800000000001
 20
73.954300000000003
 30
0.0
 11
88.962900000000005
 21
73.954300000000003
 31
0.0
  0
LINE
  5
223
  8
0
 62
     7
 10
68.962800000000001
 20
74.952699999999993
 30
0.0
 11
68.962800000000001
 21
73.954300000000003
 31
0.0
  0
LINE
  5
224
  8
0
 62
     7
 10
82.239800000000002
 20
71.025599999999997
 30
0.0
 11
82.331400000000002
 21
73.954300000000003
 31
0.0
  0
LINE
  5
225
  8
0
 62
     7
 10
81.840299999999985
 20
70.626300000000001
 30
0.0
 11
81.944400000000002
 21
73.954300000000003
 31
0.0
  0
LINE
  5
226
  8
0
 62
     7
 10
81.840299999999985
 20
70.626300000000001
 30
0.0
 11
82.239800000000002
 21
71.025599999999997
 31
0.0
  0
LINE
  5
227
  8
0
 62
     7
 10
75.686000000000007
 20
71.025599999999997
 30
0.0
 11
75.594499999999996
 21
73.954300000000003
 31
0.0
  0
LINE
  5
228
  8
0
 62
     7
 10
76.0852
 20
70.626300000000001
 30
0.0
 11
75.981200000000001
 21
73.954300000000003
 31
0.0
  0
LINE
  5
229
  8
0
 62
     7
 10
76.0852
 20
70.626300000000001
 30
0.0
 11
75.686000000000007
 21
71.025599999999997
 31
0.0
  0
LINE
  5
22A
  8
0
 62
     7
 10
81.840299999999985
 20
70.626300000000001
 30
0.0
 11
76.0852
 21
70.626300000000001
 31
0.0
  0
LINE
  5
22B
  8
0
 62
     7
 10
75.686000000000007
 20
71.025599999999997
 30
0.0
 11
82.239800000000002
 21
71.025599999999997
 31
0.0
  0
LINE
  5
22C
  8
0
 62
     7
 10
135.72799999999989
 20
73.954300000000003
 30
0.0
 11
151.1629999999999
 21
73.954300000000003
 31
0.0
  0
LINE
  5
22D
  8
0
 62
     7
 10
128.31700000000001
 20
234.28800000000001
 30
0.0
 11
151.1629999999999
 21
234.28800000000001
 31
0.0
  0
LINE
  5
22E
  8
0
 62
     7
 10
150.84999999999991
 20
232.078
 30
0.0
 11
150.2579999999999
 21
234.28800000000001
 31
0.0
  0
LINE
  5
22F
  8
0
 62
     7
 10
150.2579999999999
 20
234.28800000000001
 30
0.0
 11
149.666
 21
232.078
 31
0.0
  0
LINE
  5
230
  8
0
 62
     7
 10
149.666
 20
232.078
 30
0.0
 11
150.84999999999991
 21
232.078
 31
0.0
  0
LINE
  5
231
  8
0
 62
     7
 10
149.68000000000001
 20
76.165000000000006
 30
0.0
 11
150.27199999999999
 21
73.954300000000003
 31
0.0
  0
LINE
  5
232
  8
0
 62
     7
 10
150.27199999999999
 20
73.954300000000003
 30
0.0
 11
150.86399999999989
 21
76.165000000000006
 31
0.0
  0
LINE
  5
233
  8
0
 62
     7
 10
150.86399999999989
 20
76.165000000000006
 30
0.0
 11
149.68000000000001
 21
76.165000000000006
 31
0.0
  0
LINE
  5
234
  8
0
 62
     7
 10
150.2649999999999
 20
234.28800000000001
 30
0.0
 11
150.2649999999999
 21
73.954300000000003
 31
0.0
  0
LINE
  5
235
  8
0
 62
     7
 10
117.884
 20
229.857
 30
0.0
 11
119.914
 21
228.80000000000001
 31
0.0
  0
LINE
  5
236
  8
0
 62
     7
 10
119.914
 20
228.80000000000001
 30
0.0
 11
118.6839999999999
 21
230.72999999999999
 31
0.0
  0
LINE
  5
237
  8
0
 62
     7
 10
118.6839999999999
 20
230.72999999999999
 30
0.0
 11
117.884
 21
229.857
 31
0.0
  0
LINE
  5
238
  8
0
 62
     7
 10
119.914
 20
228.80000000000001
 30
0.0
 11
115.6279999999999
 21
232.72699999999989
 31
0.0
  0
LINE
  5
239
  8
0
 62
     7
 10
115.6279999999999
 20
232.72699999999989
 30
0.0
 11
107.1779999999999
 21
232.72699999999989
 31
0.0
  0
LINE
  5
23A
  8
0
 62
     7
 10
127.417
 20
230.4609999999999
 30
0.0
 11
126.877
 21
230.4609999999999
 31
0.0
  0
LINE
  5
23B
  8
0
 62
     7
 10
127.417
 20
227.13
 30
0.0
 11
126.877
 21
227.13
 31
0.0
  0
LINE
  5
23C
  8
0
 62
     7
 10
82.374300000000005
 20
233.95599999999999
 30
0.0
 11
75.551599999999993
 21
233.95599999999999
 31
0.0
  0
LINE
  5
23D
  8
0
 62
     7
 10
75.884399999999999
 20
234.28800000000001
 30
0.0
 11
82.041499999999999
 21
234.28800000000001
 31
0.0
  0
LINE
  5
23E
  8
0
 62
     7
 10
82.374300000000005
 20
231.53700000000001
 30
0.0
 11
78.962900000000005
 21
231.53700000000001
 31
0.0
  0
LINE
  5
23F
  8
0
 62
     7
 10
75.551599999999993
 20
231.53700000000001
 30
0.0
 11
78.962900000000005
 21
231.53700000000001
 31
0.0
  0
LINE
  5
240
  8
0
 62
     7
 10
75.551599999999993
 20
230.96000000000001
 30
0.0
 11
75.884399999999999
 21
231.53700000000001
 31
0.0
  0
LINE
  5
241
  8
0
 62
     7
 10
75.551599999999993
 20
230.96000000000001
 30
0.0
 11
75.551599999999993
 21
233.95599999999999
 31
0.0
  0
ARC
  5
242
  8
0
 62
     7
 10
79.081404000000006
 20
263.04044499999998
 30
0.0
 40
3.1992050000000001
 50
92.121922999999995
 51
177.87804700000001
  0
ARC
  5
243
  8
0
 62
     7
 10
79.081000000000003
 20
263.276951
 30
0.0
 40
3.1987869999999989
 50
182.115002
 51
267.88502699999992
  0
ARC
  5
244
  8
0
 62
     7
 10
78.962947999999983
 20
263.15890000000002
 30
0.0
 40
3.0785569999999991
 50
270.00002000000001
 51
359.99998999999991
  0
ARC
  5
245
  8
0
 62
     7
 10
78.962947999999983
 20
263.15889900000002
 30
0.0
 40
3.0785569999999991
 50
0.00001
 51
89.999980000000008
  0
LINE
  5
246
  8
0
 62
     7
 10
75.884399999999999
 20
231.53700000000001
 30
0.0
 11
75.884399999999999
 21
234.28800000000001
 31
0.0
  0
LINE
  5
247
  8
0
 62
     7
 10
75.551599999999993
 20
233.95599999999999
 30
0.0
 11
75.884399999999999
 21
234.28800000000001
 31
0.0
  0
LINE
  5
248
  8
0
 62
     7
 10
82.374300000000005
 20
230.96000000000001
 30
0.0
 11
82.374300000000005
 21
233.95599999999999
 31
0.0
  0
LINE
  5
249
  8
0
 62
     7
 10
82.041499999999999
 20
231.53700000000001
 30
0.0
 11
82.041499999999999
 21
234.28800000000001
 31
0.0
  0
LINE
  5
24A
  8
0
 62
     7
 10
82.374300000000005
 20
230.96000000000001
 30
0.0
 11
82.041499999999999
 21
231.53700000000001
 31
0.0
  0
LINE
  5
24B
  8
0
 62
     7
 10
82.374300000000005
 20
233.95599999999999
 30
0.0
 11
82.041499999999999
 21
234.28800000000001
 31
0.0
  0
LINE
  5
24C
  8
0
 62
     7
 10
128.15100000000001
 20
233.95599999999999
 30
0.0
 11
121.3279999999999
 21
233.95599999999999
 31
0.0
  0
LINE
  5
24D
  8
0
 62
     7
 10
124.73999999999999
 20
226.6329999999999
 30
0.0
 11
128.733
 21
226.6329999999999
 31
0.0
  0
LINE
  5
24E
  8
0
 62
     7
 10
128.23400000000001
 20
230.96000000000001
 30
0.0
 11
124.73999999999999
 21
230.96000000000001
 31
0.0
  0
LINE
  5
24F
  8
0
 62
     7
 10
124.73999999999999
 20
230.96000000000001
 30
0.0
 11
128.733
 21
230.96000000000001
 31
0.0
  0
LINE
  5
250
  8
0
 62
     7
 10
121.6609999999999
 20
234.28800000000001
 30
0.0
 11
127.818
 21
234.28800000000001
 31
0.0
  0
LINE
  5
251
  8
0
 62
     7
 10
128.15100000000001
 20
231.53700000000001
 30
0.0
 11
124.73999999999999
 21
231.53700000000001
 31
0.0
  0
LINE
  5
252
  8
0
 62
     7
 10
121.3279999999999
 20
231.53700000000001
 30
0.0
 11
124.73999999999999
 21
231.53700000000001
 31
0.0
  0
LINE
  5
253
  8
0
 62
     7
 10
121.3279999999999
 20
230.96000000000001
 30
0.0
 11
121.6609999999999
 21
231.53700000000001
 31
0.0
  0
LINE
  5
254
  8
0
 62
     7
 10
120.746
 20
230.96000000000001
 30
0.0
 11
124.73999999999999
 21
230.96000000000001
 31
0.0
  0
LINE
  5
255
  8
0
 62
     7
 10
121.245
 20
230.96000000000001
 30
0.0
 11
124.73999999999999
 21
230.96000000000001
 31
0.0
  0
LINE
  5
256
  8
0
 62
     7
 10
121.3279999999999
 20
230.96000000000001
 30
0.0
 11
121.3279999999999
 21
233.95599999999999
 31
0.0
  0
LINE
  5
257
  8
0
 62
     7
 10
121.6609999999999
 20
231.53700000000001
 30
0.0
 11
121.6609999999999
 21
234.28800000000001
 31
0.0
  0
LINE
  5
258
  8
0
 62
     7
 10
121.3279999999999
 20
233.95599999999999
 30
0.0
 11
121.6609999999999
 21
234.28800000000001
 31
0.0
  0
LINE
  5
259
  8
0
 62
     7
 10
124.73999999999999
 20
226.6329999999999
 30
0.0
 11
120.746
 21
226.6329999999999
 31
0.0
  0
LINE
  5
25A
  8
0
 62
     7
 10
126.877
 20
227.13
 30
0.0
 11
126.877
 21
230.4609999999999
 31
0.0
  0
ARC
  5
25B
  8
0
 62
     7
 10
124.7394279999999
 20
231.574895
 30
0.0
 40
4.9325019999999986
 50
244.31714500000001
 51
295.68287500000002
  0
ARC
  5
25C
  8
0
 62
     7
 10
124.7394279999999
 20
226.049724
 30
0.0
 40
4.9017460000000002
 50
64.144113000000004
 51
115.8558669999999
  0
LINE
  5
25D
  8
0
 62
     7
 10
122.062
 20
227.13
 30
0.0
 11
122.602
 21
227.13
 31
0.0
  0
LINE
  5
25E
  8
0
 62
     7
 10
122.602
 20
227.13
 30
0.0
 11
122.602
 21
230.4609999999999
 31
0.0
  0
LINE
  5
25F
  8
0
 62
     7
 10
122.062
 20
230.4609999999999
 30
0.0
 11
122.602
 21
230.4609999999999
 31
0.0
  0
LINE
  5
260
  8
0
 62
     7
 10
122.062
 20
227.13
 30
0.0
 11
122.062
 21
230.4609999999999
 31
0.0
  0
LINE
  5
261
  8
0
 62
     7
 10
120.746
 20
226.6329999999999
 30
0.0
 11
119.914
 21
227.1329999999999
 31
0.0
  0
ARC
  5
262
  8
0
 62
     7
 10
120.57173
 20
229.0864959999999
 30
0.0
 40
2.4593940000000001
 50
274.05174399999999
 51
307.28374300000002
  0
LINE
  5
263
  8
0
 62
     7
 10
119.914
 20
227.1329999999999
 30
0.0
 11
119.914
 21
230.4609999999999
 31
0.0
  0
LINE
  5
264
  8
0
 62
     7
 10
120.746
 20
230.96000000000001
 30
0.0
 11
119.914
 21
230.4609999999999
 31
0.0
  0
ARC
  5
265
  8
0
 62
     7
 10
120.3400399999999
 20
227.90671800000001
 30
0.0
 40
3.080058999999999
 50
56.019038999999992
 51
82.435531999999995
  0
ARC
  5
266
  8
0
 62
     7
 10
129.1339429999999
 20
227.91956499999989
 30
0.0
 40
3.0666839999999991
 50
97.505791000000016
 51
124.0395989999999
  0
ARC
  5
267
  8
0
 62
     7
 10
128.907927
 20
229.08861899999999
 30
0.0
 40
2.4615680000000002
 50
232.7313769999999
 51
265.933176
  0
LINE
  5
268
  8
0
 62
     7
 10
128.15100000000001
 20
230.96000000000001
 30
0.0
 11
128.15100000000001
 21
233.95599999999999
 31
0.0
  0
LINE
  5
269
  8
0
 62
     7
 10
127.818
 20
231.53700000000001
 30
0.0
 11
127.818
 21
234.28800000000001
 31
0.0
  0
LINE
  5
26A
  8
0
 62
     7
 10
128.15100000000001
 20
230.96000000000001
 30
0.0
 11
127.818
 21
231.53700000000001
 31
0.0
  0
LINE
  5
26B
  8
0
 62
     7
 10
127.417
 20
227.13
 30
0.0
 11
127.417
 21
230.4609999999999
 31
0.0
  0
LINE
  5
26C
  8
0
 62
     7
 10
128.15100000000001
 20
233.95599999999999
 30
0.0
 11
127.818
 21
234.28800000000001
 31
0.0
  0
LINE
  5
26D
  8
0
 62
     7
 10
128.733
 20
226.6329999999999
 30
0.0
 11
129.566
 21
227.1329999999999
 31
0.0
  0
LINE
  5
26E
  8
0
 62
     7
 10
129.566
 20
227.1329999999999
 30
0.0
 11
129.566
 21
230.4609999999999
 31
0.0
  0
LINE
  5
26F
  8
0
 62
     7
 10
128.733
 20
230.96000000000001
 30
0.0
 11
129.566
 21
230.4609999999999
 31
0.0
  0
LINE
  5
270
  8
0
 62
     7
 10
129.15399999999991
 20
234.93799999999999
 30
0.0
 11
128.15100000000001
 21
232.88
 31
0.0
  0
LINE
  5
271
  8
0
 62
     7
 10
128.15100000000001
 20
232.88
 30
0.0
 11
130.048
 21
234.16099999999989
 31
0.0
  0
LINE
  5
272
  8
0
 62
     7
 10
130.048
 20
234.16099999999989
 30
0.0
 11
129.15399999999991
 21
234.93799999999999
 31
0.0
  0
LINE
  5
273
  8
0
 62
     7
 10
127.916
 20
225.684
 30
0.0
 11
125.834
 21
226.6329999999999
 31
0.0
  0
LINE
  5
274
  8
0
 62
     7
 10
125.834
 20
226.6329999999999
 30
0.0
 11
127.16200000000001
 21
224.77000000000001
 31
0.0
  0
LINE
  5
275
  8
0
 62
     7
 10
127.16200000000001
 20
224.77000000000001
 30
0.0
 11
127.916
 21
225.684
 31
0.0
  0
LINE
  5
276
  8
0
 62
     7
 10
125.834
 20
226.6329999999999
 30
0.0
 11
152.75899999999999
 21
204.42699999999999
 31
0.0
  0
LINE
  5
277
  8
0
 62
     7
 10
152.75899999999999
 20
204.42699999999999
 30
0.0
 11
164.8359999999999
 21
204.42699999999999
 31
0.0
  0
LINE
  5
278
  8
0
 62
     7
 10
128.15100000000001
 20
232.88
 30
0.0
 11
134.03700000000001
 21
239.65700000000001
 31
0.0
  0
LINE
  5
279
  8
0
 62
     7
 10
134.03700000000001
 20
239.65700000000001
 30
0.0
 11
141.32599999999999
 21
239.65700000000001
 31
0.0
  0
LINE
  5
27A
  8
0
 62
     7
 10
119.206
 20
199.7579999999999
 30
0.0
 11
121.3279999999999
 21
198.90199999999999
 31
0.0
  0
LINE
  5
27B
  8
0
 62
     7
 10
121.3279999999999
 20
198.90199999999999
 30
0.0
 11
119.91799999999991
 21
200.70500000000001
 31
0.0
  0
LINE
  5
27C
  8
0
 62
     7
 10
119.91799999999991
 20
200.70500000000001
 30
0.0
 11
119.206
 21
199.7579999999999
 31
0.0
  0
LINE
  5
27D
  8
0
 62
     7
 10
121.3279999999999
 20
198.90199999999999
 30
0.0
 11
116.26299999999991
 21
202.714
 31
0.0
  0
LINE
  5
27E
  8
0
 62
     7
 10
116.26299999999991
 20
202.714
 30
0.0
 11
108.22199999999999
 21
202.714
 31
0.0
  0
ARC
  5
27F
  8
0
 62
     7
 10
126.40048
 20
64.385280000000009
 30
0.0
 40
15.016926
 50
64.692104999999984
 51
82.666976999999989
  0
ARC
  5
280
  8
0
 62
     7
 10
131.34190699999999
 20
74.900834000000003
 30
0.0
 40
3.3980579999999998
 50
0.873901
 51
65.334098999999995
  0
ARC
  5
281
  8
0
 62
     7
 10
123.07610099999989
 20
64.393046999999996
 30
0.0
 40
15.008932
 50
97.328175999999999
 51
115.3127009999999
  0
ARC
  5
282
  8
0
 62
     7
 10
118.17361200000001
 20
74.876981000000001
 30
0.0
 40
3.434822
 50
115.045152
 51
178.73173499999999
  0
LINE
  5
283
  8
0
 62
     7
 10
121.3589999999999
 20
207.63999999999999
 30
0.0
 11
121.3279999999999
 21
206.64099999999991
 31
0.0
  0
LINE
  5
284
  8
0
 62
     7
 10
128.119
 20
207.63999999999999
 30
0.0
 11
128.15100000000001
 21
206.64099999999991
 31
0.0
  0
LINE
  5
285
  8
0
 62
     7
 10
121.746
 20
207.63999999999999
 30
0.0
 11
121.73699999999999
 21
207.34999999999999
 31
0.0
  0
LINE
  5
286
  8
0
 62
     7
 10
127.7329999999999
 20
207.63999999999999
 30
0.0
 11
127.7419999999999
 21
207.34999999999999
 31
0.0
  0
LINE
  5
287
  8
0
 62
     7
 10
121.16200000000001
 20
79.279399999999995
 30
0.0
 11
124.73999999999999
 21
79.279399999999995
 31
0.0
  0
LINE
  5
288
  8
0
 62
     7
 10
124.73999999999999
 20
79.279399999999995
 30
0.0
 11
128.31700000000001
 21
79.279399999999995
 31
0.0
  0
LINE
  5
289
  8
0
 62
     7
 10
134.74000000000001
 20
74.952699999999993
 30
0.0
 11
134.74000000000001
 21
73.954300000000003
 31
0.0
  0
LINE
  5
28A
  8
0
 62
     7
 10
114.7399999999999
 20
73.954300000000003
 30
0.0
 11
134.74000000000001
 21
73.954300000000003
 31
0.0
  0
LINE
  5
28B
  8
0
 62
     7
 10
114.7399999999999
 20
74.952699999999993
 30
0.0
 11
114.7399999999999
 21
73.954300000000003
 31
0.0
  0
LINE
  5
28C
  8
0
 62
     7
 10
128.01599999999991
 20
71.025599999999997
 30
0.0
 11
128.108
 21
73.954300000000003
 31
0.0
  0
LINE
  5
28D
  8
0
 62
     7
 10
127.617
 20
70.626300000000001
 30
0.0
 11
127.7209999999999
 21
73.954300000000003
 31
0.0
  0
LINE
  5
28E
  8
0
 62
     7
 10
127.617
 20
70.626300000000001
 30
0.0
 11
128.01599999999991
 21
71.025599999999997
 31
0.0
  0
LINE
  5
28F
  8
0
 62
     7
 10
121.46299999999989
 20
71.025599999999997
 30
0.0
 11
121.371
 21
73.954300000000003
 31
0.0
  0
LINE
  5
290
  8
0
 62
     7
 10
121.86199999999999
 20
70.626300000000001
 30
0.0
 11
121.7579999999999
 21
73.954300000000003
 31
0.0
  0
LINE
  5
291
  8
0
 62
     7
 10
121.86199999999999
 20
70.626300000000001
 30
0.0
 11
121.46299999999989
 21
71.025599999999997
 31
0.0
  0
LINE
  5
292
  8
0
 62
     7
 10
127.617
 20
70.626300000000001
 30
0.0
 11
121.86199999999999
 21
70.626300000000001
 31
0.0
  0
LINE
  5
293
  8
0
 62
     7
 10
82.374300000000005
 20
206.64099999999991
 30
0.0
 11
82.374300000000005
 21
79.279399999999995
 31
0.0
  0
LINE
  5
294
  8
0
 62
     7
 10
75.551599999999993
 20
206.64099999999991
 30
0.0
 11
75.551599999999993
 21
79.279399999999995
 31
0.0
  0
LINE
  5
295
  8
0
 62
     7
 10
128.15100000000001
 20
206.64099999999991
 30
0.0
 11
128.15100000000001
 21
79.279399999999995
 31
0.0
  0
LINE
  5
296
  8
0
 62
     7
 10
128.15100000000001
 20
206.64099999999991
 30
0.0
 11
127.7419999999999
 21
207.34999999999999
 31
0.0
  0
LINE
  5
297
  8
0
 62
     7
 10
128.1279999999999
 20
207.34999999999999
 30
0.0
 11
121.34999999999999
 21
207.34999999999999
 31
0.0
  0
LINE
  5
298
  8
0
 62
     7
 10
121.3279999999999
 20
206.64099999999991
 30
0.0
 11
121.73699999999999
 21
207.34999999999999
 31
0.0
  0
LINE
  5
299
  8
0
 62
     7
 10
121.3279999999999
 20
206.64099999999991
 30
0.0
 11
121.3279999999999
 21
79.279399999999995
 31
0.0
  0
LINE
  5
29A
  8
0
 62
     7
 10
121.46299999999989
 20
71.025599999999997
 30
0.0
 11
128.01599999999991
 21
71.025599999999997
 31
0.0
  0
LINE
  5
29B
  8
0
 62
     7
 10
129.39899999999989
 20
219.2879999999999
 30
0.0
 11
129.39799999999991
 21
219.36799999999999
 31
0.0
  0
LINE
  5
29C
  8
0
 62
     7
 10
129.39799999999991
 20
219.36799999999999
 30
0.0
 11
129.39799999999991
 21
219.44799999999989
 31
0.0
  0
LINE
  5
29D
  8
0
 62
     7
 10
129.39799999999991
 20
219.44799999999989
 30
0.0
 11
129.39699999999999
 21
219.52799999999991
 31
0.0
  0
LINE
  5
29E
  8
0
 62
     7
 10
129.39699999999999
 20
219.52799999999991
 30
0.0
 11
129.39599999999999
 21
219.608
 31
0.0
  0
LINE
  5
29F
  8
0
 62
     7
 10
129.39599999999999
 20
219.608
 30
0.0
 11
129.39400000000001
 21
219.6879999999999
 31
0.0
  0
LINE
  5
2A0
  8
0
 62
     7
 10
129.39400000000001
 20
219.6879999999999
 30
0.0
 11
129.39199999999991
 21
219.76900000000001
 31
0.0
  0
LINE
  5
2A1
  8
0
 62
     7
 10
129.39199999999991
 20
219.76900000000001
 30
0.0
 11
129.3899999999999
 21
219.8479999999999
 31
0.0
  0
LINE
  5
2A2
  8
0
 62
     7
 10
129.3899999999999
 20
219.8479999999999
 30
0.0
 11
129.387
 21
219.92799999999991
 31
0.0
  0
LINE
  5
2A3
  8
0
 62
     7
 10
129.387
 20
219.92799999999991
 30
0.0
 11
129.3839999999999
 21
220.0079999999999
 31
0.0
  0
LINE
  5
2A4
  8
0
 62
     7
 10
129.3839999999999
 20
220.0079999999999
 30
0.0
 11
129.38199999999989
 21
220.08799999999999
 31
0.0
  0
LINE
  5
2A5
  8
0
 62
     7
 10
129.38199999999989
 20
220.08799999999999
 30
0.0
 11
129.3779999999999
 21
220.16800000000001
 31
0.0
  0
LINE
  5
2A6
  8
0
 62
     7
 10
129.3779999999999
 20
220.16800000000001
 30
0.0
 11
129.37399999999991
 21
220.24799999999991
 31
0.0
  0
LINE
  5
2A7
  8
0
 62
     7
 10
129.37399999999991
 20
220.24799999999991
 30
0.0
 11
129.37
 21
220.32799999999989
 31
0.0
  0
LINE
  5
2A8
  8
0
 62
     7
 10
129.37
 20
220.32799999999989
 30
0.0
 11
129.36600000000001
 21
220.4079999999999
 31
0.0
  0
LINE
  5
2A9
  8
0
 62
     7
 10
129.36600000000001
 20
220.4079999999999
 30
0.0
 11
129.3609999999999
 21
220.488
 31
0.0
  0
LINE
  5
2AA
  8
0
 62
     7
 10
129.3609999999999
 20
220.488
 30
0.0
 11
129.35599999999999
 21
220.56800000000001
 31
0.0
  0
LINE
  5
2AB
  8
0
 62
     7
 10
129.35599999999999
 20
220.56800000000001
 30
0.0
 11
129.35099999999991
 21
220.6329999999999
 31
0.0
  0
LINE
  5
2AC
  8
0
 62
     7
 10
129.35099999999991
 20
220.6329999999999
 30
0.0
 11
129.34700000000001
 21
220.697
 31
0.0
  0
LINE
  5
2AD
  8
0
 62
     7
 10
129.34700000000001
 20
220.697
 30
0.0
 11
129.34200000000001
 21
220.76099999999991
 31
0.0
  0
LINE
  5
2AE
  8
0
 62
     7
 10
129.34200000000001
 20
220.76099999999991
 30
0.0
 11
129.33799999999991
 21
220.82599999999999
 31
0.0
  0
LINE
  5
2AF
  8
0
 62
     7
 10
129.33799999999991
 20
220.82599999999999
 30
0.0
 11
129.33199999999999
 21
220.8899999999999
 31
0.0
  0
LINE
  5
2B0
  8
0
 62
     7
 10
129.33199999999999
 20
220.8899999999999
 30
0.0
 11
129.32699999999991
 21
220.95500000000001
 31
0.0
  0
LINE
  5
2B1
  8
0
 62
     7
 10
129.32699999999991
 20
220.95500000000001
 30
0.0
 11
129.322
 21
221.01900000000001
 31
0.0
  0
LINE
  5
2B2
  8
0
 62
     7
 10
129.322
 20
221.01900000000001
 30
0.0
 11
129.316
 21
221.084
 31
0.0
  0
LINE
  5
2B3
  8
0
 62
     7
 10
129.316
 20
221.084
 30
0.0
 11
129.31
 21
221.14799999999991
 31
0.0
  0
LINE
  5
2B4
  8
0
 62
     7
 10
129.31
 20
221.14799999999991
 30
0.0
 11
129.30399999999989
 21
221.21199999999999
 31
0.0
  0
LINE
  5
2B5
  8
0
 62
     7
 10
129.30399999999989
 20
221.21199999999999
 30
0.0
 11
129.29699999999991
 21
221.2759999999999
 31
0.0
  0
LINE
  5
2B6
  8
0
 62
     7
 10
129.29699999999991
 20
221.2759999999999
 30
0.0
 11
129.291
 21
221.34099999999989
 31
0.0
  0
LINE
  5
2B7
  8
0
 62
     7
 10
129.291
 20
221.34099999999989
 30
0.0
 11
129.28399999999991
 21
221.40499999999989
 31
0.0
  0
LINE
  5
2B8
  8
0
 62
     7
 10
129.28399999999991
 20
221.40499999999989
 30
0.0
 11
129.27699999999999
 21
221.47
 31
0.0
  0
LINE
  5
2B9
  8
0
 62
     7
 10
129.27699999999999
 20
221.47
 30
0.0
 11
129.26900000000001
 21
221.53399999999999
 31
0.0
  0
LINE
  5
2BA
  8
0
 62
     7
 10
129.26900000000001
 20
221.53399999999999
 30
0.0
 11
129.26300000000001
 21
221.59800000000001
 31
0.0
  0
LINE
  5
2BB
  8
0
 62
     7
 10
129.26300000000001
 20
221.59800000000001
 30
0.0
 11
129.25599999999989
 21
221.655
 31
0.0
  0
LINE
  5
2BC
  8
0
 62
     7
 10
129.25599999999989
 20
221.655
 30
0.0
 11
129.24899999999991
 21
221.71199999999999
 31
0.0
  0
LINE
  5
2BD
  8
0
 62
     7
 10
129.24899999999991
 20
221.71199999999999
 30
0.0
 11
129.24100000000001
 21
221.768
 31
0.0
  0
LINE
  5
2BE
  8
0
 62
     7
 10
129.24100000000001
 20
221.768
 30
0.0
 11
129.23400000000001
 21
221.8249999999999
 31
0.0
  0
LINE
  5
2BF
  8
0
 62
     7
 10
129.23400000000001
 20
221.8249999999999
 30
0.0
 11
129.22599999999991
 21
221.88099999999989
 31
0.0
  0
LINE
  5
2C0
  8
0
 62
     7
 10
129.22599999999991
 20
221.88099999999989
 30
0.0
 11
129.2179999999999
 21
221.93799999999999
 31
0.0
  0
LINE
  5
2C1
  8
0
 62
     7
 10
129.2179999999999
 20
221.93799999999999
 30
0.0
 11
129.21000000000001
 21
221.994
 31
0.0
  0
LINE
  5
2C2
  8
0
 62
     7
 10
129.21000000000001
 20
221.994
 30
0.0
 11
129.20099999999991
 21
222.0509999999999
 31
0.0
  0
LINE
  5
2C3
  8
0
 62
     7
 10
129.20099999999991
 20
222.0509999999999
 30
0.0
 11
129.19200000000001
 21
222.107
 31
0.0
  0
LINE
  5
2C4
  8
0
 62
     7
 10
129.19200000000001
 20
222.107
 30
0.0
 11
129.18199999999999
 21
222.1629999999999
 31
0.0
  0
LINE
  5
2C5
  8
0
 62
     7
 10
129.18199999999999
 20
222.1629999999999
 30
0.0
 11
129.17199999999991
 21
222.21899999999999
 31
0.0
  0
LINE
  5
2C6
  8
0
 62
     7
 10
129.17199999999991
 20
222.21899999999999
 30
0.0
 11
129.161
 21
222.27500000000001
 31
0.0
  0
LINE
  5
2C7
  8
0
 62
     7
 10
129.161
 20
222.27500000000001
 30
0.0
 11
129.15000000000001
 21
222.33099999999999
 31
0.0
  0
LINE
  5
2C8
  8
0
 62
     7
 10
129.15000000000001
 20
222.33099999999999
 30
0.0
 11
129.13799999999989
 21
222.387
 31
0.0
  0
LINE
  5
2C9
  8
0
 62
     7
 10
129.13799999999989
 20
222.387
 30
0.0
 11
129.125
 21
222.44200000000001
 31
0.0
  0
LINE
  5
2CA
  8
0
 62
     7
 10
129.125
 20
222.44200000000001
 30
0.0
 11
129.11199999999999
 21
222.49799999999991
 31
0.0
  0
LINE
  5
2CB
  8
0
 62
     7
 10
129.11199999999999
 20
222.49799999999991
 30
0.0
 11
129.09700000000001
 21
222.55799999999991
 31
0.0
  0
LINE
  5
2CC
  8
0
 62
     7
 10
129.09700000000001
 20
222.55799999999991
 30
0.0
 11
129.08099999999999
 21
222.619
 31
0.0
  0
LINE
  5
2CD
  8
0
 62
     7
 10
129.08099999999999
 20
222.619
 30
0.0
 11
129.06399999999999
 21
222.68000000000001
 31
0.0
  0
LINE
  5
2CE
  8
0
 62
     7
 10
129.06399999999999
 20
222.68000000000001
 30
0.0
 11
129.04599999999991
 21
222.74000000000001
 31
0.0
  0
LINE
  5
2CF
  8
0
 62
     7
 10
129.04599999999991
 20
222.74000000000001
 30
0.0
 11
129.02799999999991
 21
222.80000000000001
 31
0.0
  0
LINE
  5
2D0
  8
0
 62
     7
 10
129.02799999999991
 20
222.80000000000001
 30
0.0
 11
129.0089999999999
 21
222.8609999999999
 31
0.0
  0
LINE
  5
2D1
  8
0
 62
     7
 10
129.0089999999999
 20
222.8609999999999
 30
0.0
 11
128.99000000000001
 21
222.91999999999999
 31
0.0
  0
LINE
  5
2D2
  8
0
 62
     7
 10
128.99000000000001
 20
222.91999999999999
 30
0.0
 11
128.97
 21
222.97999999999999
 31
0.0
  0
LINE
  5
2D3
  8
0
 62
     7
 10
128.97
 20
222.97999999999999
 30
0.0
 11
128.9489999999999
 21
223.03999999999991
 31
0.0
  0
LINE
  5
2D4
  8
0
 62
     7
 10
128.9489999999999
 20
223.03999999999991
 30
0.0
 11
128.92799999999991
 21
223.09899999999999
 31
0.0
  0
LINE
  5
2D5
  8
0
 62
     7
 10
128.92799999999991
 20
223.09899999999999
 30
0.0
 11
128.90600000000001
 21
223.15899999999999
 31
0.0
  0
LINE
  5
2D6
  8
0
 62
     7
 10
128.90600000000001
 20
223.15899999999999
 30
0.0
 11
128.8839999999999
 21
223.2169999999999
 31
0.0
  0
LINE
  5
2D7
  8
0
 62
     7
 10
128.8839999999999
 20
223.2169999999999
 30
0.0
 11
128.86199999999991
 21
223.27699999999999
 31
0.0
  0
LINE
  5
2D8
  8
0
 62
     7
 10
128.86199999999991
 20
223.27699999999999
 30
0.0
 11
128.83899999999991
 21
223.3359999999999
 31
0.0
  0
LINE
  5
2D9
  8
0
 62
     7
 10
128.83899999999991
 20
223.3359999999999
 30
0.0
 11
128.81700000000001
 21
223.39400000000001
 31
0.0
  0
LINE
  5
2DA
  8
0
 62
     7
 10
128.81700000000001
 20
223.39400000000001
 30
0.0
 11
128.7939999999999
 21
223.45299999999989
 31
0.0
  0
LINE
  5
2DB
  8
0
 62
     7
 10
128.7939999999999
 20
223.45299999999989
 30
0.0
 11
128.77099999999999
 21
223.511
 31
0.0
  0
LINE
  5
2DC
  8
0
 62
     7
 10
128.77099999999999
 20
223.511
 30
0.0
 11
128.74799999999991
 21
223.56999999999999
 31
0.0
  0
LINE
  5
2DD
  8
0
 62
     7
 10
128.74799999999991
 20
223.56999999999999
 30
0.0
 11
128.7239999999999
 21
223.6279999999999
 31
0.0
  0
LINE
  5
2DE
  8
0
 62
     7
 10
128.7239999999999
 20
223.6279999999999
 30
0.0
 11
128.70099999999991
 21
223.68599999999989
 31
0.0
  0
LINE
  5
2DF
  8
0
 62
     7
 10
128.70099999999991
 20
223.68599999999989
 30
0.0
 11
128.678
 21
223.74499999999989
 31
0.0
  0
LINE
  5
2E0
  8
0
 62
     7
 10
128.678
 20
223.74499999999989
 30
0.0
 11
128.655
 21
223.803
 31
0.0
  0
LINE
  5
2E1
  8
0
 62
     7
 10
128.655
 20
223.803
 30
0.0
 11
128.63200000000001
 21
223.8609999999999
 31
0.0
  0
LINE
  5
2E2
  8
0
 62
     7
 10
128.63200000000001
 20
223.8609999999999
 30
0.0
 11
128.60900000000001
 21
223.91900000000001
 31
0.0
  0
LINE
  5
2E3
  8
0
 62
     7
 10
128.60900000000001
 20
223.91900000000001
 30
0.0
 11
128.58600000000001
 21
223.97799999999989
 31
0.0
  0
LINE
  5
2E4
  8
0
 62
     7
 10
128.58600000000001
 20
223.97799999999989
 30
0.0
 11
128.56399999999991
 21
224.03599999999989
 31
0.0
  0
LINE
  5
2E5
  8
0
 62
     7
 10
128.56399999999991
 20
224.03599999999989
 30
0.0
 11
128.542
 21
224.095
 31
0.0
  0
LINE
  5
2E6
  8
0
 62
     7
 10
128.542
 20
224.095
 30
0.0
 11
128.52000000000001
 21
224.15299999999999
 31
0.0
  0
LINE
  5
2E7
  8
0
 62
     7
 10
128.52000000000001
 20
224.15299999999999
 30
0.0
 11
128.49799999999999
 21
224.21199999999999
 31
0.0
  0
LINE
  5
2E8
  8
0
 62
     7
 10
128.49799999999999
 20
224.21199999999999
 30
0.0
 11
128.47799999999989
 21
224.2709999999999
 31
0.0
  0
LINE
  5
2E9
  8
0
 62
     7
 10
128.47799999999989
 20
224.2709999999999
 30
0.0
 11
128.458
 21
224.33099999999999
 31
0.0
  0
LINE
  5
2EA
  8
0
 62
     7
 10
128.458
 20
224.33099999999999
 30
0.0
 11
128.4379999999999
 21
224.38999999999999
 31
0.0
  0
LINE
  5
2EB
  8
0
 62
     7
 10
128.4379999999999
 20
224.38999999999999
 30
0.0
 11
128.41800000000001
 21
224.44900000000001
 31
0.0
  0
LINE
  5
2EC
  8
0
 62
     7
 10
128.41800000000001
 20
224.44900000000001
 30
0.0
 11
128.40000000000001
 21
224.50999999999991
 31
0.0
  0
LINE
  5
2ED
  8
0
 62
     7
 10
128.40000000000001
 20
224.50999999999991
 30
0.0
 11
128.38200000000001
 21
224.56999999999991
 31
0.0
  0
LINE
  5
2EE
  8
0
 62
     7
 10
128.38200000000001
 20
224.56999999999991
 30
0.0
 11
128.36500000000001
 21
224.63
 31
0.0
  0
LINE
  5
2EF
  8
0
 62
     7
 10
128.36500000000001
 20
224.63
 30
0.0
 11
128.34700000000001
 21
224.69099999999989
 31
0.0
  0
LINE
  5
2F0
  8
0
 62
     7
 10
128.34700000000001
 20
224.69099999999989
 30
0.0
 11
128.33199999999999
 21
224.75099999999989
 31
0.0
  0
LINE
  5
2F1
  8
0
 62
     7
 10
128.33199999999999
 20
224.75099999999989
 30
0.0
 11
128.316
 21
224.81200000000001
 31
0.0
  0
LINE
  5
2F2
  8
0
 62
     7
 10
128.316
 20
224.81200000000001
 30
0.0
 11
128.30099999999999
 21
224.87299999999999
 31
0.0
  0
LINE
  5
2F3
  8
0
 62
     7
 10
128.30099999999999
 20
224.87299999999999
 30
0.0
 11
128.285
 21
224.934
 31
0.0
  0
LINE
  5
2F4
  8
0
 62
     7
 10
128.285
 20
224.934
 30
0.0
 11
128.27099999999999
 21
224.995
 31
0.0
  0
LINE
  5
2F5
  8
0
 62
     7
 10
128.27099999999999
 20
224.995
 30
0.0
 11
128.25699999999989
 21
225.0559999999999
 31
0.0
  0
LINE
  5
2F6
  8
0
 62
     7
 10
128.25699999999989
 20
225.0559999999999
 30
0.0
 11
128.244
 21
225.11799999999999
 31
0.0
  0
LINE
  5
2F7
  8
0
 62
     7
 10
128.244
 20
225.11799999999999
 30
0.0
 11
128.23099999999999
 21
225.179
 31
0.0
  0
LINE
  5
2F8
  8
0
 62
     7
 10
128.23099999999999
 20
225.179
 30
0.0
 11
128.21899999999991
 21
225.2409999999999
 31
0.0
  0
LINE
  5
2F9
  8
0
 62
     7
 10
128.21899999999991
 20
225.2409999999999
 30
0.0
 11
128.20599999999999
 21
225.30199999999999
 31
0.0
  0
LINE
  5
2FA
  8
0
 62
     7
 10
128.20599999999999
 20
225.30199999999999
 30
0.0
 11
128.19499999999991
 21
225.364
 31
0.0
  0
LINE
  5
2FB
  8
0
 62
     7
 10
115.986
 20
215.59899999999999
 30
0.0
 11
115.982
 21
215.66900000000001
 31
0.0
  0
LINE
  5
2FC
  8
0
 62
     7
 10
115.982
 20
215.66900000000001
 30
0.0
 11
115.971
 21
215.73899999999989
 31
0.0
  0
LINE
  5
2FD
  8
0
 62
     7
 10
115.971
 20
215.73899999999989
 30
0.0
 11
115.952
 21
215.80799999999991
 31
0.0
  0
LINE
  5
2FE
  8
0
 62
     7
 10
115.952
 20
215.80799999999991
 30
0.0
 11
115.9259999999999
 21
215.87499999999989
 31
0.0
  0
LINE
  5
2FF
  8
0
 62
     7
 10
115.9259999999999
 20
215.87499999999989
 30
0.0
 11
115.8929999999999
 21
215.94
 31
0.0
  0
LINE
  5
300
  8
0
 62
     7
 10
115.8929999999999
 20
215.94
 30
0.0
 11
115.85299999999999
 21
216.00200000000001
 31
0.0
  0
LINE
  5
301
  8
0
 62
     7
 10
115.85299999999999
 20
216.00200000000001
 30
0.0
 11
115.806
 21
216.06200000000001
 31
0.0
  0
LINE
  5
302
  8
0
 62
     7
 10
115.806
 20
216.06200000000001
 30
0.0
 11
115.7529999999999
 21
216.11799999999991
 31
0.0
  0
LINE
  5
303
  8
0
 62
     7
 10
115.7529999999999
 20
216.11799999999991
 30
0.0
 11
115.694
 21
216.1699999999999
 31
0.0
  0
LINE
  5
304
  8
0
 62
     7
 10
115.694
 20
216.1699999999999
 30
0.0
 11
115.6299999999999
 21
216.21700000000001
 31
0.0
  0
LINE
  5
305
  8
0
 62
     7
 10
115.6299999999999
 20
216.21700000000001
 30
0.0
 11
115.56100000000001
 21
216.25999999999991
 31
0.0
  0
LINE
  5
306
  8
0
 62
     7
 10
115.56100000000001
 20
216.25999999999991
 30
0.0
 11
115.48699999999999
 21
216.298
 31
0.0
  0
LINE
  5
307
  8
0
 62
     7
 10
115.48699999999999
 20
216.298
 30
0.0
 11
115.4099999999999
 21
216.33000000000001
 31
0.0
  0
LINE
  5
308
  8
0
 62
     7
 10
115.4099999999999
 20
216.33000000000001
 30
0.0
 11
115.32899999999989
 21
216.35699999999991
 31
0.0
  0
LINE
  5
309
  8
0
 62
     7
 10
115.32899999999989
 20
216.35699999999991
 30
0.0
 11
115.246
 21
216.37899999999999
 31
0.0
  0
LINE
  5
30A
  8
0
 62
     7
 10
115.246
 20
216.37899999999999
 30
0.0
 11
115.161
 21
216.39400000000001
 31
0.0
  0
LINE
  5
30B
  8
0
 62
     7
 10
115.161
 20
216.39400000000001
 30
0.0
 11
115.075
 21
216.40299999999991
 31
0.0
  0
LINE
  5
30C
  8
0
 62
     7
 10
115.075
 20
216.40299999999991
 30
0.0
 11
114.988
 21
216.40599999999989
 31
0.0
  0
LINE
  5
30D
  8
0
 62
     7
 10
114.988
 20
216.40599999999989
 30
0.0
 11
114.901
 21
216.40299999999991
 31
0.0
  0
LINE
  5
30E
  8
0
 62
     7
 10
114.901
 20
216.40299999999991
 30
0.0
 11
114.815
 21
216.39400000000001
 31
0.0
  0
LINE
  5
30F
  8
0
 62
     7
 10
114.815
 20
216.39400000000001
 30
0.0
 11
114.7299999999999
 21
216.37899999999999
 31
0.0
  0
LINE
  5
310
  8
0
 62
     7
 10
114.7299999999999
 20
216.37899999999999
 30
0.0
 11
114.64700000000001
 21
216.35699999999991
 31
0.0
  0
LINE
  5
311
  8
0
 62
     7
 10
114.64700000000001
 20
216.35699999999991
 30
0.0
 11
114.566
 21
216.33000000000001
 31
0.0
  0
LINE
  5
312
  8
0
 62
     7
 10
114.566
 20
216.33000000000001
 30
0.0
 11
114.4889999999999
 21
216.298
 31
0.0
  0
LINE
  5
313
  8
0
 62
     7
 10
114.4889999999999
 20
216.298
 30
0.0
 11
114.41500000000001
 21
216.25999999999991
 31
0.0
  0
LINE
  5
314
  8
0
 62
     7
 10
114.41500000000001
 20
216.25999999999991
 30
0.0
 11
114.346
 21
216.21700000000001
 31
0.0
  0
LINE
  5
315
  8
0
 62
     7
 10
114.346
 20
216.21700000000001
 30
0.0
 11
114.282
 21
216.1699999999999
 31
0.0
  0
LINE
  5
316
  8
0
 62
     7
 10
114.282
 20
216.1699999999999
 30
0.0
 11
114.223
 21
216.11799999999991
 31
0.0
  0
LINE
  5
317
  8
0
 62
     7
 10
114.223
 20
216.11799999999991
 30
0.0
 11
114.1699999999999
 21
216.06200000000001
 31
0.0
  0
LINE
  5
318
  8
0
 62
     7
 10
114.1699999999999
 20
216.06200000000001
 30
0.0
 11
114.12299999999991
 21
216.00200000000001
 31
0.0
  0
LINE
  5
319
  8
0
 62
     7
 10
114.12299999999991
 20
216.00200000000001
 30
0.0
 11
114.083
 21
215.94
 31
0.0
  0
LINE
  5
31A
  8
0
 62
     7
 10
114.083
 20
215.94
 30
0.0
 11
114.05
 21
215.87499999999989
 31
0.0
  0
LINE
  5
31B
  8
0
 62
     7
 10
114.05
 20
215.87499999999989
 30
0.0
 11
114.024
 21
215.80799999999991
 31
0.0
  0
LINE
  5
31C
  8
0
 62
     7
 10
114.024
 20
215.80799999999991
 30
0.0
 11
114.005
 21
215.73899999999989
 31
0.0
  0
LINE
  5
31D
  8
0
 62
     7
 10
114.005
 20
215.73899999999989
 30
0.0
 11
113.9929999999999
 21
215.66900000000001
 31
0.0
  0
LINE
  5
31E
  8
0
 62
     7
 10
113.9929999999999
 20
215.66900000000001
 30
0.0
 11
113.9899999999999
 21
215.59899999999999
 31
0.0
  0
LINE
  5
31F
  8
0
 62
     7
 10
113.9899999999999
 20
215.59899999999999
 30
0.0
 11
113.9929999999999
 21
215.529
 31
0.0
  0
LINE
  5
320
  8
0
 62
     7
 10
113.9929999999999
 20
215.529
 30
0.0
 11
114.005
 21
215.459
 31
0.0
  0
LINE
  5
321
  8
0
 62
     7
 10
114.005
 20
215.459
 30
0.0
 11
114.024
 21
215.3899999999999
 31
0.0
  0
LINE
  5
322
  8
0
 62
     7
 10
114.024
 20
215.3899999999999
 30
0.0
 11
114.05
 21
215.32299999999989
 31
0.0
  0
LINE
  5
323
  8
0
 62
     7
 10
114.05
 20
215.32299999999989
 30
0.0
 11
114.083
 21
215.2579999999999
 31
0.0
  0
LINE
  5
324
  8
0
 62
     7
 10
114.083
 20
215.2579999999999
 30
0.0
 11
114.12299999999991
 21
215.19499999999991
 31
0.0
  0
LINE
  5
325
  8
0
 62
     7
 10
114.12299999999991
 20
215.19499999999991
 30
0.0
 11
114.1699999999999
 21
215.13599999999991
 31
0.0
  0
LINE
  5
326
  8
0
 62
     7
 10
114.1699999999999
 20
215.13599999999991
 30
0.0
 11
114.223
 21
215.08000000000001
 31
0.0
  0
LINE
  5
327
  8
0
 62
     7
 10
114.223
 20
215.08000000000001
 30
0.0
 11
114.282
 21
215.029
 31
0.0
  0
LINE
  5
328
  8
0
 62
     7
 10
114.282
 20
215.029
 30
0.0
 11
114.346
 21
214.98099999999991
 31
0.0
  0
LINE
  5
329
  8
0
 62
     7
 10
114.346
 20
214.98099999999991
 30
0.0
 11
114.41500000000001
 21
214.9379999999999
 31
0.0
  0
LINE
  5
32A
  8
0
 62
     7
 10
114.41500000000001
 20
214.9379999999999
 30
0.0
 11
114.4889999999999
 21
214.90100000000001
 31
0.0
  0
LINE
  5
32B
  8
0
 62
     7
 10
114.4889999999999
 20
214.90100000000001
 30
0.0
 11
114.566
 21
214.86799999999999
 31
0.0
  0
LINE
  5
32C
  8
0
 62
     7
 10
114.566
 20
214.86799999999999
 30
0.0
 11
114.64700000000001
 21
214.84099999999989
 31
0.0
  0
LINE
  5
32D
  8
0
 62
     7
 10
114.64700000000001
 20
214.84099999999989
 30
0.0
 11
114.7299999999999
 21
214.81999999999999
 31
0.0
  0
LINE
  5
32E
  8
0
 62
     7
 10
114.7299999999999
 20
214.81999999999999
 30
0.0
 11
114.815
 21
214.80399999999989
 31
0.0
  0
LINE
  5
32F
  8
0
 62
     7
 10
114.815
 20
214.80399999999989
 30
0.0
 11
114.901
 21
214.7949999999999
 31
0.0
  0
LINE
  5
330
  8
0
 62
     7
 10
114.901
 20
214.7949999999999
 30
0.0
 11
114.988
 21
214.792
 31
0.0
  0
LINE
  5
331
  8
0
 62
     7
 10
114.988
 20
214.792
 30
0.0
 11
115.075
 21
214.7949999999999
 31
0.0
  0
LINE
  5
332
  8
0
 62
     7
 10
115.075
 20
214.7949999999999
 30
0.0
 11
115.161
 21
214.80399999999989
 31
0.0
  0
LINE
  5
333
  8
0
 62
     7
 10
115.161
 20
214.80399999999989
 30
0.0
 11
115.246
 21
214.81999999999999
 31
0.0
  0
LINE
  5
334
  8
0
 62
     7
 10
115.246
 20
214.81999999999999
 30
0.0
 11
115.32899999999989
 21
214.84099999999989
 31
0.0
  0
LINE
  5
335
  8
0
 62
     7
 10
115.32899999999989
 20
214.84099999999989
 30
0.0
 11
115.4099999999999
 21
214.86799999999999
 31
0.0
  0
LINE
  5
336
  8
0
 62
     7
 10
115.4099999999999
 20
214.86799999999999
 30
0.0
 11
115.48699999999999
 21
214.90100000000001
 31
0.0
  0
LINE
  5
337
  8
0
 62
     7
 10
115.48699999999999
 20
214.90100000000001
 30
0.0
 11
115.56100000000001
 21
214.9379999999999
 31
0.0
  0
LINE
  5
338
  8
0
 62
     7
 10
115.56100000000001
 20
214.9379999999999
 30
0.0
 11
115.6299999999999
 21
214.98099999999991
 31
0.0
  0
LINE
  5
339
  8
0
 62
     7
 10
115.6299999999999
 20
214.98099999999991
 30
0.0
 11
115.694
 21
215.029
 31
0.0
  0
LINE
  5
33A
  8
0
 62
     7
 10
115.694
 20
215.029
 30
0.0
 11
115.7529999999999
 21
215.08000000000001
 31
0.0
  0
LINE
  5
33B
  8
0
 62
     7
 10
115.7529999999999
 20
215.08000000000001
 30
0.0
 11
115.806
 21
215.13599999999991
 31
0.0
  0
LINE
  5
33C
  8
0
 62
     7
 10
115.806
 20
215.13599999999991
 30
0.0
 11
115.85299999999999
 21
215.19499999999991
 31
0.0
  0
LINE
  5
33D
  8
0
 62
     7
 10
115.85299999999999
 20
215.19499999999991
 30
0.0
 11
115.8929999999999
 21
215.2579999999999
 31
0.0
  0
LINE
  5
33E
  8
0
 62
     7
 10
115.8929999999999
 20
215.2579999999999
 30
0.0
 11
115.9259999999999
 21
215.32299999999989
 31
0.0
  0
LINE
  5
33F
  8
0
 62
     7
 10
115.9259999999999
 20
215.32299999999989
 30
0.0
 11
115.952
 21
215.3899999999999
 31
0.0
  0
LINE
  5
340
  8
0
 62
     7
 10
115.952
 20
215.3899999999999
 30
0.0
 11
115.971
 21
215.459
 31
0.0
  0
LINE
  5
341
  8
0
 62
     7
 10
115.971
 20
215.459
 30
0.0
 11
115.982
 21
215.529
 31
0.0
  0
LINE
  5
342
  8
0
 62
     7
 10
115.982
 20
215.529
 30
0.0
 11
115.986
 21
215.59899999999999
 31
0.0
  0
LINE
  5
343
  8
0
 62
     7
 10
114.988
 20
217.78999999999999
 30
0.0
 11
115.075
 21
217.79599999999999
 31
0.0
  0
LINE
  5
344
  8
0
 62
     7
 10
115.075
 20
217.79599999999999
 30
0.0
 11
115.161
 21
217.8129999999999
 31
0.0
  0
LINE
  5
345
  8
0
 62
     7
 10
115.161
 20
217.8129999999999
 30
0.0
 11
115.246
 21
217.84099999999989
 31
0.0
  0
LINE
  5
346
  8
0
 62
     7
 10
115.246
 20
217.84099999999989
 30
0.0
 11
115.32899999999989
 21
217.88099999999989
 31
0.0
  0
LINE
  5
347
  8
0
 62
     7
 10
115.32899999999989
 20
217.88099999999989
 30
0.0
 11
115.4099999999999
 21
217.93100000000001
 31
0.0
  0
LINE
  5
348
  8
0
 62
     7
 10
115.4099999999999
 20
217.93100000000001
 30
0.0
 11
115.48699999999999
 21
217.99100000000001
 31
0.0
  0
LINE
  5
349
  8
0
 62
     7
 10
115.48699999999999
 20
217.99100000000001
 30
0.0
 11
115.56100000000001
 21
218.06099999999989
 31
0.0
  0
LINE
  5
34A
  8
0
 62
     7
 10
115.56100000000001
 20
218.06099999999989
 30
0.0
 11
115.6299999999999
 21
218.14099999999999
 31
0.0
  0
LINE
  5
34B
  8
0
 62
     7
 10
115.6299999999999
 20
218.14099999999999
 30
0.0
 11
115.694
 21
218.22900000000001
 31
0.0
  0
LINE
  5
34C
  8
0
 62
     7
 10
115.694
 20
218.22900000000001
 30
0.0
 11
115.7529999999999
 21
218.32499999999999
 31
0.0
  0
LINE
  5
34D
  8
0
 62
     7
 10
115.7529999999999
 20
218.32499999999999
 30
0.0
 11
115.806
 21
218.429
 31
0.0
  0
LINE
  5
34E
  8
0
 62
     7
 10
115.806
 20
218.429
 30
0.0
 11
115.85299999999999
 21
218.53899999999999
 31
0.0
  0
LINE
  5
34F
  8
0
 62
     7
 10
115.85299999999999
 20
218.53899999999999
 30
0.0
 11
115.8929999999999
 21
218.65499999999989
 31
0.0
  0
LINE
  5
350
  8
0
 62
     7
 10
115.8929999999999
 20
218.65499999999989
 30
0.0
 11
115.9259999999999
 21
218.7759999999999
 31
0.0
  0
LINE
  5
351
  8
0
 62
     7
 10
115.9259999999999
 20
218.7759999999999
 30
0.0
 11
115.952
 21
218.90000000000001
 31
0.0
  0
LINE
  5
352
  8
0
 62
     7
 10
115.952
 20
218.90000000000001
 30
0.0
 11
115.971
 21
219.02799999999999
 31
0.0
  0
LINE
  5
353
  8
0
 62
     7
 10
115.971
 20
219.02799999999999
 30
0.0
 11
115.982
 21
219.15799999999999
 31
0.0
  0
LINE
  5
354
  8
0
 62
     7
 10
115.982
 20
219.15799999999999
 30
0.0
 11
115.986
 21
219.2879999999999
 31
0.0
  0
LINE
  5
355
  8
0
 62
     7
 10
115.986
 20
219.2879999999999
 30
0.0
 11
115.982
 21
219.41800000000001
 31
0.0
  0
LINE
  5
356
  8
0
 62
     7
 10
115.982
 20
219.41800000000001
 30
0.0
 11
115.971
 21
219.54799999999989
 31
0.0
  0
LINE
  5
357
  8
0
 62
     7
 10
115.971
 20
219.54799999999989
 30
0.0
 11
115.952
 21
219.6759999999999
 31
0.0
  0
LINE
  5
358
  8
0
 62
     7
 10
115.952
 20
219.6759999999999
 30
0.0
 11
115.9259999999999
 21
219.7999999999999
 31
0.0
  0
LINE
  5
359
  8
0
 62
     7
 10
115.9259999999999
 20
219.7999999999999
 30
0.0
 11
115.8929999999999
 21
219.92099999999991
 31
0.0
  0
LINE
  5
35A
  8
0
 62
     7
 10
115.8929999999999
 20
219.92099999999991
 30
0.0
 11
115.85299999999999
 21
220.03699999999989
 31
0.0
  0
LINE
  5
35B
  8
0
 62
     7
 10
115.85299999999999
 20
220.03699999999989
 30
0.0
 11
115.806
 21
220.14699999999999
 31
0.0
  0
LINE
  5
35C
  8
0
 62
     7
 10
115.806
 20
220.14699999999999
 30
0.0
 11
115.7529999999999
 21
220.25099999999989
 31
0.0
  0
LINE
  5
35D
  8
0
 62
     7
 10
115.7529999999999
 20
220.25099999999989
 30
0.0
 11
115.694
 21
220.34700000000001
 31
0.0
  0
LINE
  5
35E
  8
0
 62
     7
 10
115.694
 20
220.34700000000001
 30
0.0
 11
115.6299999999999
 21
220.435
 31
0.0
  0
LINE
  5
35F
  8
0
 62
     7
 10
115.6299999999999
 20
220.435
 30
0.0
 11
115.56100000000001
 21
220.5149999999999
 31
0.0
  0
LINE
  5
360
  8
0
 62
     7
 10
115.56100000000001
 20
220.5149999999999
 30
0.0
 11
115.48699999999999
 21
220.58500000000001
 31
0.0
  0
LINE
  5
361
  8
0
 62
     7
 10
115.48699999999999
 20
220.58500000000001
 30
0.0
 11
115.4099999999999
 21
220.6459999999999
 31
0.0
  0
LINE
  5
362
  8
0
 62
     7
 10
115.4099999999999
 20
220.6459999999999
 30
0.0
 11
115.32899999999989
 21
220.696
 31
0.0
  0
LINE
  5
363
  8
0
 62
     7
 10
115.32899999999989
 20
220.696
 30
0.0
 11
115.246
 21
220.73500000000001
 31
0.0
  0
LINE
  5
364
  8
0
 62
     7
 10
115.246
 20
220.73500000000001
 30
0.0
 11
115.161
 21
220.76299999999989
 31
0.0
  0
LINE
  5
365
  8
0
 62
     7
 10
115.161
 20
220.76299999999989
 30
0.0
 11
115.075
 21
220.78
 31
0.0
  0
LINE
  5
366
  8
0
 62
     7
 10
115.075
 20
220.78
 30
0.0
 11
114.988
 21
220.78599999999989
 31
0.0
  0
LINE
  5
367
  8
0
 62
     7
 10
114.988
 20
220.78599999999989
 30
0.0
 11
114.901
 21
220.78
 31
0.0
  0
LINE
  5
368
  8
0
 62
     7
 10
114.901
 20
220.78
 30
0.0
 11
114.815
 21
220.76299999999989
 31
0.0
  0
LINE
  5
369
  8
0
 62
     7
 10
114.815
 20
220.76299999999989
 30
0.0
 11
114.7299999999999
 21
220.73500000000001
 31
0.0
  0
LINE
  5
36A
  8
0
 62
     7
 10
114.7299999999999
 20
220.73500000000001
 30
0.0
 11
114.64700000000001
 21
220.696
 31
0.0
  0
LINE
  5
36B
  8
0
 62
     7
 10
114.64700000000001
 20
220.696
 30
0.0
 11
114.566
 21
220.6459999999999
 31
0.0
  0
LINE
  5
36C
  8
0
 62
     7
 10
114.566
 20
220.6459999999999
 30
0.0
 11
114.4889999999999
 21
220.58500000000001
 31
0.0
  0
LINE
  5
36D
  8
0
 62
     7
 10
114.4889999999999
 20
220.58500000000001
 30
0.0
 11
114.41500000000001
 21
220.5149999999999
 31
0.0
  0
LINE
  5
36E
  8
0
 62
     7
 10
114.41500000000001
 20
220.5149999999999
 30
0.0
 11
114.346
 21
220.435
 31
0.0
  0
LINE
  5
36F
  8
0
 62
     7
 10
114.346
 20
220.435
 30
0.0
 11
114.282
 21
220.34700000000001
 31
0.0
  0
LINE
  5
370
  8
0
 62
     7
 10
114.282
 20
220.34700000000001
 30
0.0
 11
114.223
 21
220.25099999999989
 31
0.0
  0
LINE
  5
371
  8
0
 62
     7
 10
114.223
 20
220.25099999999989
 30
0.0
 11
114.1699999999999
 21
220.14699999999999
 31
0.0
  0
LINE
  5
372
  8
0
 62
     7
 10
114.1699999999999
 20
220.14699999999999
 30
0.0
 11
114.12299999999991
 21
220.03699999999989
 31
0.0
  0
LINE
  5
373
  8
0
 62
     7
 10
114.12299999999991
 20
220.03699999999989
 30
0.0
 11
114.083
 21
219.92099999999991
 31
0.0
  0
LINE
  5
374
  8
0
 62
     7
 10
114.083
 20
219.92099999999991
 30
0.0
 11
114.05
 21
219.7999999999999
 31
0.0
  0
LINE
  5
375
  8
0
 62
     7
 10
114.05
 20
219.7999999999999
 30
0.0
 11
114.024
 21
219.6759999999999
 31
0.0
  0
LINE
  5
376
  8
0
 62
     7
 10
114.024
 20
219.6759999999999
 30
0.0
 11
114.005
 21
219.54799999999989
 31
0.0
  0
LINE
  5
377
  8
0
 62
     7
 10
114.005
 20
219.54799999999989
 30
0.0
 11
113.9929999999999
 21
219.41800000000001
 31
0.0
  0
LINE
  5
378
  8
0
 62
     7
 10
113.9929999999999
 20
219.41800000000001
 30
0.0
 11
113.9899999999999
 21
219.2879999999999
 31
0.0
  0
LINE
  5
379
  8
0
 62
     7
 10
113.9899999999999
 20
219.2879999999999
 30
0.0
 11
113.9929999999999
 21
219.15799999999999
 31
0.0
  0
LINE
  5
37A
  8
0
 62
     7
 10
113.9929999999999
 20
219.15799999999999
 30
0.0
 11
114.005
 21
219.02799999999999
 31
0.0
  0
LINE
  5
37B
  8
0
 62
     7
 10
114.005
 20
219.02799999999999
 30
0.0
 11
114.024
 21
218.90000000000001
 31
0.0
  0
LINE
  5
37C
  8
0
 62
     7
 10
114.024
 20
218.90000000000001
 30
0.0
 11
114.05
 21
218.7759999999999
 31
0.0
  0
LINE
  5
37D
  8
0
 62
     7
 10
114.05
 20
218.7759999999999
 30
0.0
 11
114.083
 21
218.65499999999989
 31
0.0
  0
LINE
  5
37E
  8
0
 62
     7
 10
114.083
 20
218.65499999999989
 30
0.0
 11
114.12299999999991
 21
218.53899999999999
 31
0.0
  0
LINE
  5
37F
  8
0
 62
     7
 10
114.12299999999991
 20
218.53899999999999
 30
0.0
 11
114.1699999999999
 21
218.429
 31
0.0
  0
LINE
  5
380
  8
0
 62
     7
 10
114.1699999999999
 20
218.429
 30
0.0
 11
114.223
 21
218.32499999999999
 31
0.0
  0
LINE
  5
381
  8
0
 62
     7
 10
114.223
 20
218.32499999999999
 30
0.0
 11
114.282
 21
218.22900000000001
 31
0.0
  0
LINE
  5
382
  8
0
 62
     7
 10
114.282
 20
218.22900000000001
 30
0.0
 11
114.346
 21
218.14099999999999
 31
0.0
  0
LINE
  5
383
  8
0
 62
     7
 10
114.346
 20
218.14099999999999
 30
0.0
 11
114.41500000000001
 21
218.06099999999989
 31
0.0
  0
LINE
  5
384
  8
0
 62
     7
 10
114.41500000000001
 20
218.06099999999989
 30
0.0
 11
114.4889999999999
 21
217.99100000000001
 31
0.0
  0
LINE
  5
385
  8
0
 62
     7
 10
114.4889999999999
 20
217.99100000000001
 30
0.0
 11
114.566
 21
217.93100000000001
 31
0.0
  0
LINE
  5
386
  8
0
 62
     7
 10
114.566
 20
217.93100000000001
 30
0.0
 11
114.64700000000001
 21
217.88099999999989
 31
0.0
  0
LINE
  5
387
  8
0
 62
     7
 10
114.64700000000001
 20
217.88099999999989
 30
0.0
 11
114.7299999999999
 21
217.84099999999989
 31
0.0
  0
LINE
  5
388
  8
0
 62
     7
 10
114.7299999999999
 20
217.84099999999989
 30
0.0
 11
114.815
 21
217.8129999999999
 31
0.0
  0
LINE
  5
389
  8
0
 62
     7
 10
114.815
 20
217.8129999999999
 30
0.0
 11
114.901
 21
217.79599999999999
 31
0.0
  0
LINE
  5
38A
  8
0
 62
     7
 10
114.901
 20
217.79599999999999
 30
0.0
 11
114.988
 21
217.78999999999999
 31
0.0
  0
LINE
  5
38B
  8
0
 62
     7
 10
115.986
 20
222.977
 30
0.0
 11
115.982
 21
223.048
 31
0.0
  0
LINE
  5
38C
  8
0
 62
     7
 10
115.982
 20
223.048
 30
0.0
 11
115.971
 21
223.11699999999999
 31
0.0
  0
LINE
  5
38D
  8
0
 62
     7
 10
115.971
 20
223.11699999999999
 30
0.0
 11
115.952
 21
223.18599999999989
 31
0.0
  0
LINE
  5
38E
  8
0
 62
     7
 10
115.952
 20
223.18599999999989
 30
0.0
 11
115.9259999999999
 21
223.25299999999999
 31
0.0
  0
LINE
  5
38F
  8
0
 62
     7
 10
115.9259999999999
 20
223.25299999999999
 30
0.0
 11
115.8929999999999
 21
223.3179999999999
 31
0.0
  0
LINE
  5
390
  8
0
 62
     7
 10
115.8929999999999
 20
223.3179999999999
 30
0.0
 11
115.85299999999999
 21
223.38
 31
0.0
  0
LINE
  5
391
  8
0
 62
     7
 10
115.85299999999999
 20
223.38
 30
0.0
 11
115.806
 21
223.43999999999991
 31
0.0
  0
LINE
  5
392
  8
0
 62
     7
 10
115.806
 20
223.43999999999991
 30
0.0
 11
115.7529999999999
 21
223.49600000000001
 31
0.0
  0
LINE
  5
393
  8
0
 62
     7
 10
115.7529999999999
 20
223.49600000000001
 30
0.0
 11
115.694
 21
223.54799999999989
 31
0.0
  0
LINE
  5
394
  8
0
 62
     7
 10
115.694
 20
223.54799999999989
 30
0.0
 11
115.6299999999999
 21
223.59499999999991
 31
0.0
  0
LINE
  5
395
  8
0
 62
     7
 10
115.6299999999999
 20
223.59499999999991
 30
0.0
 11
115.56100000000001
 21
223.63800000000001
 31
0.0
  0
LINE
  5
396
  8
0
 62
     7
 10
115.56100000000001
 20
223.63800000000001
 30
0.0
 11
115.48699999999999
 21
223.6759999999999
 31
0.0
  0
LINE
  5
397
  8
0
 62
     7
 10
115.48699999999999
 20
223.6759999999999
 30
0.0
 11
115.4099999999999
 21
223.708
 31
0.0
  0
LINE
  5
398
  8
0
 62
     7
 10
115.4099999999999
 20
223.708
 30
0.0
 11
115.32899999999989
 21
223.73500000000001
 31
0.0
  0
LINE
  5
399
  8
0
 62
     7
 10
115.32899999999989
 20
223.73500000000001
 30
0.0
 11
115.246
 21
223.75700000000001
 31
0.0
  0
LINE
  5
39A
  8
0
 62
     7
 10
115.246
 20
223.75700000000001
 30
0.0
 11
115.161
 21
223.77199999999999
 31
0.0
  0
LINE
  5
39B
  8
0
 62
     7
 10
115.161
 20
223.77199999999999
 30
0.0
 11
115.075
 21
223.78099999999989
 31
0.0
  0
LINE
  5
39C
  8
0
 62
     7
 10
115.075
 20
223.78099999999989
 30
0.0
 11
114.988
 21
223.78399999999999
 31
0.0
  0
LINE
  5
39D
  8
0
 62
     7
 10
114.988
 20
223.78399999999999
 30
0.0
 11
114.901
 21
223.78099999999989
 31
0.0
  0
LINE
  5
39E
  8
0
 62
     7
 10
114.901
 20
223.78099999999989
 30
0.0
 11
114.815
 21
223.77199999999999
 31
0.0
  0
LINE
  5
39F
  8
0
 62
     7
 10
114.815
 20
223.77199999999999
 30
0.0
 11
114.7299999999999
 21
223.75700000000001
 31
0.0
  0
LINE
  5
3A0
  8
0
 62
     7
 10
114.7299999999999
 20
223.75700000000001
 30
0.0
 11
114.64700000000001
 21
223.73500000000001
 31
0.0
  0
LINE
  5
3A1
  8
0
 62
     7
 10
114.64700000000001
 20
223.73500000000001
 30
0.0
 11
114.566
 21
223.708
 31
0.0
  0
LINE
  5
3A2
  8
0
 62
     7
 10
114.566
 20
223.708
 30
0.0
 11
114.4889999999999
 21
223.6759999999999
 31
0.0
  0
LINE
  5
3A3
  8
0
 62
     7
 10
114.4889999999999
 20
223.6759999999999
 30
0.0
 11
114.41500000000001
 21
223.63800000000001
 31
0.0
  0
LINE
  5
3A4
  8
0
 62
     7
 10
114.41500000000001
 20
223.63800000000001
 30
0.0
 11
114.346
 21
223.59499999999991
 31
0.0
  0
LINE
  5
3A5
  8
0
 62
     7
 10
114.346
 20
223.59499999999991
 30
0.0
 11
114.282
 21
223.54799999999989
 31
0.0
  0
LINE
  5
3A6
  8
0
 62
     7
 10
114.282
 20
223.54799999999989
 30
0.0
 11
114.223
 21
223.49600000000001
 31
0.0
  0
LINE
  5
3A7
  8
0
 62
     7
 10
114.223
 20
223.49600000000001
 30
0.0
 11
114.1699999999999
 21
223.43999999999991
 31
0.0
  0
LINE
  5
3A8
  8
0
 62
     7
 10
114.1699999999999
 20
223.43999999999991
 30
0.0
 11
114.12299999999991
 21
223.38
 31
0.0
  0
LINE
  5
3A9
  8
0
 62
     7
 10
114.12299999999991
 20
223.38
 30
0.0
 11
114.083
 21
223.3179999999999
 31
0.0
  0
LINE
  5
3AA
  8
0
 62
     7
 10
114.083
 20
223.3179999999999
 30
0.0
 11
114.05
 21
223.25299999999999
 31
0.0
  0
LINE
  5
3AB
  8
0
 62
     7
 10
114.05
 20
223.25299999999999
 30
0.0
 11
114.024
 21
223.18599999999989
 31
0.0
  0
LINE
  5
3AC
  8
0
 62
     7
 10
114.024
 20
223.18599999999989
 30
0.0
 11
114.005
 21
223.11699999999999
 31
0.0
  0
LINE
  5
3AD
  8
0
 62
     7
 10
114.005
 20
223.11699999999999
 30
0.0
 11
113.9929999999999
 21
223.048
 31
0.0
  0
LINE
  5
3AE
  8
0
 62
     7
 10
113.9929999999999
 20
223.048
 30
0.0
 11
113.9899999999999
 21
222.977
 31
0.0
  0
LINE
  5
3AF
  8
0
 62
     7
 10
113.9899999999999
 20
222.977
 30
0.0
 11
113.9929999999999
 21
222.90700000000001
 31
0.0
  0
LINE
  5
3B0
  8
0
 62
     7
 10
113.9929999999999
 20
222.90700000000001
 30
0.0
 11
114.005
 21
222.83699999999999
 31
0.0
  0
LINE
  5
3B1
  8
0
 62
     7
 10
114.005
 20
222.83699999999999
 30
0.0
 11
114.024
 21
222.76799999999989
 31
0.0
  0
LINE
  5
3B2
  8
0
 62
     7
 10
114.024
 20
222.76799999999989
 30
0.0
 11
114.05
 21
222.70099999999991
 31
0.0
  0
LINE
  5
3B3
  8
0
 62
     7
 10
114.05
 20
222.70099999999991
 30
0.0
 11
114.083
 21
222.636
 31
0.0
  0
LINE
  5
3B4
  8
0
 62
     7
 10
114.083
 20
222.636
 30
0.0
 11
114.12299999999991
 21
222.57400000000001
 31
0.0
  0
LINE
  5
3B5
  8
0
 62
     7
 10
114.12299999999991
 20
222.57400000000001
 30
0.0
 11
114.1699999999999
 21
222.51400000000001
 31
0.0
  0
LINE
  5
3B6
  8
0
 62
     7
 10
114.1699999999999
 20
222.51400000000001
 30
0.0
 11
114.223
 21
222.458
 31
0.0
  0
LINE
  5
3B7
  8
0
 62
     7
 10
114.223
 20
222.458
 30
0.0
 11
114.282
 21
222.40700000000001
 31
0.0
  0
LINE
  5
3B8
  8
0
 62
     7
 10
114.282
 20
222.40700000000001
 30
0.0
 11
114.346
 21
222.35900000000001
 31
0.0
  0
LINE
  5
3B9
  8
0
 62
     7
 10
114.346
 20
222.35900000000001
 30
0.0
 11
114.41500000000001
 21
222.31599999999989
 31
0.0
  0
LINE
  5
3BA
  8
0
 62
     7
 10
114.41500000000001
 20
222.31599999999989
 30
0.0
 11
114.4889999999999
 21
222.279
 31
0.0
  0
LINE
  5
3BB
  8
0
 62
     7
 10
114.4889999999999
 20
222.279
 30
0.0
 11
114.566
 21
222.2459999999999
 31
0.0
  0
LINE
  5
3BC
  8
0
 62
     7
 10
114.566
 20
222.2459999999999
 30
0.0
 11
114.64700000000001
 21
222.21899999999999
 31
0.0
  0
LINE
  5
3BD
  8
0
 62
     7
 10
114.64700000000001
 20
222.21899999999999
 30
0.0
 11
114.7299999999999
 21
222.19799999999989
 31
0.0
  0
LINE
  5
3BE
  8
0
 62
     7
 10
114.7299999999999
 20
222.19799999999989
 30
0.0
 11
114.815
 21
222.18299999999999
 31
0.0
  0
LINE
  5
3BF
  8
0
 62
     7
 10
114.815
 20
222.18299999999999
 30
0.0
 11
114.901
 21
222.17400000000001
 31
0.0
  0
LINE
  5
3C0
  8
0
 62
     7
 10
114.901
 20
222.17400000000001
 30
0.0
 11
114.988
 21
222.1699999999999
 31
0.0
  0
LINE
  5
3C1
  8
0
 62
     7
 10
114.988
 20
222.1699999999999
 30
0.0
 11
115.075
 21
222.17400000000001
 31
0.0
  0
LINE
  5
3C2
  8
0
 62
     7
 10
115.075
 20
222.17400000000001
 30
0.0
 11
115.161
 21
222.18299999999999
 31
0.0
  0
LINE
  5
3C3
  8
0
 62
     7
 10
115.161
 20
222.18299999999999
 30
0.0
 11
115.246
 21
222.19799999999989
 31
0.0
  0
LINE
  5
3C4
  8
0
 62
     7
 10
115.246
 20
222.19799999999989
 30
0.0
 11
115.32899999999989
 21
222.21899999999999
 31
0.0
  0
LINE
  5
3C5
  8
0
 62
     7
 10
115.32899999999989
 20
222.21899999999999
 30
0.0
 11
115.4099999999999
 21
222.2459999999999
 31
0.0
  0
LINE
  5
3C6
  8
0
 62
     7
 10
115.4099999999999
 20
222.2459999999999
 30
0.0
 11
115.48699999999999
 21
222.279
 31
0.0
  0
LINE
  5
3C7
  8
0
 62
     7
 10
115.48699999999999
 20
222.279
 30
0.0
 11
115.56100000000001
 21
222.31599999999989
 31
0.0
  0
LINE
  5
3C8
  8
0
 62
     7
 10
115.56100000000001
 20
222.31599999999989
 30
0.0
 11
115.6299999999999
 21
222.35900000000001
 31
0.0
  0
LINE
  5
3C9
  8
0
 62
     7
 10
115.6299999999999
 20
222.35900000000001
 30
0.0
 11
115.694
 21
222.40700000000001
 31
0.0
  0
LINE
  5
3CA
  8
0
 62
     7
 10
115.694
 20
222.40700000000001
 30
0.0
 11
115.7529999999999
 21
222.458
 31
0.0
  0
LINE
  5
3CB
  8
0
 62
     7
 10
115.7529999999999
 20
222.458
 30
0.0
 11
115.806
 21
222.51400000000001
 31
0.0
  0
LINE
  5
3CC
  8
0
 62
     7
 10
115.806
 20
222.51400000000001
 30
0.0
 11
115.85299999999999
 21
222.57400000000001
 31
0.0
  0
LINE
  5
3CD
  8
0
 62
     7
 10
115.85299999999999
 20
222.57400000000001
 30
0.0
 11
115.8929999999999
 21
222.636
 31
0.0
  0
LINE
  5
3CE
  8
0
 62
     7
 10
115.8929999999999
 20
222.636
 30
0.0
 11
115.9259999999999
 21
222.70099999999991
 31
0.0
  0
LINE
  5
3CF
  8
0
 62
     7
 10
115.9259999999999
 20
222.70099999999991
 30
0.0
 11
115.952
 21
222.76799999999989
 31
0.0
  0
LINE
  5
3D0
  8
0
 62
     7
 10
115.952
 20
222.76799999999989
 30
0.0
 11
115.971
 21
222.83699999999999
 31
0.0
  0
LINE
  5
3D1
  8
0
 62
     7
 10
115.971
 20
222.83699999999999
 30
0.0
 11
115.982
 21
222.90700000000001
 31
0.0
  0
LINE
  5
3D2
  8
0
 62
     7
 10
115.982
 20
222.90700000000001
 30
0.0
 11
115.986
 21
222.977
 31
0.0
  0
LINE
  5
3D3
  8
0
 62
     7
 10
119.73699999999999
 20
223.428
 30
0.0
 11
119.7089999999999
 21
223.423
 31
0.0
  0
LINE
  5
3D4
  8
0
 62
     7
 10
119.7089999999999
 20
223.423
 30
0.0
 11
119.68000000000001
 21
223.41900000000001
 31
0.0
  0
LINE
  5
3D5
  8
0
 62
     7
 10
119.68000000000001
 20
223.41900000000001
 30
0.0
 11
119.651
 21
223.41399999999999
 31
0.0
  0
LINE
  5
3D6
  8
0
 62
     7
 10
119.651
 20
223.41399999999999
 30
0.0
 11
119.622
 21
223.41
 31
0.0
  0
LINE
  5
3D7
  8
0
 62
     7
 10
119.622
 20
223.41
 30
0.0
 11
119.5929999999999
 21
223.40499999999989
 31
0.0
  0
LINE
  5
3D8
  8
0
 62
     7
 10
119.5929999999999
 20
223.40499999999989
 30
0.0
 11
119.56399999999999
 21
223.40100000000001
 31
0.0
  0
LINE
  5
3D9
  8
0
 62
     7
 10
119.56399999999999
 20
223.40100000000001
 30
0.0
 11
119.5349999999999
 21
223.39699999999999
 31
0.0
  0
LINE
  5
3DA
  8
0
 62
     7
 10
119.5349999999999
 20
223.39699999999999
 30
0.0
 11
119.506
 21
223.39299999999989
 31
0.0
  0
LINE
  5
3DB
  8
0
 62
     7
 10
119.506
 20
223.39299999999989
 30
0.0
 11
119.477
 21
223.38900000000001
 31
0.0
  0
LINE
  5
3DC
  8
0
 62
     7
 10
119.477
 20
223.38900000000001
 30
0.0
 11
119.44799999999989
 21
223.38499999999991
 31
0.0
  0
LINE
  5
3DD
  8
0
 62
     7
 10
119.44799999999989
 20
223.38499999999991
 30
0.0
 11
119.419
 21
223.38099999999989
 31
0.0
  0
LINE
  5
3DE
  8
0
 62
     7
 10
119.419
 20
223.38099999999989
 30
0.0
 11
119.3899999999999
 21
223.37700000000001
 31
0.0
  0
LINE
  5
3DF
  8
0
 62
     7
 10
119.3899999999999
 20
223.37700000000001
 30
0.0
 11
119.361
 21
223.37299999999991
 31
0.0
  0
LINE
  5
3E0
  8
0
 62
     7
 10
119.361
 20
223.37299999999991
 30
0.0
 11
119.33199999999999
 21
223.369
 31
0.0
  0
LINE
  5
3E1
  8
0
 62
     7
 10
119.33199999999999
 20
223.369
 30
0.0
 11
119.303
 21
223.3659999999999
 31
0.0
  0
LINE
  5
3E2
  8
0
 62
     7
 10
119.303
 20
223.3659999999999
 30
0.0
 11
119.274
 21
223.36199999999999
 31
0.0
  0
LINE
  5
3E3
  8
0
 62
     7
 10
119.274
 20
223.36199999999999
 30
0.0
 11
119.2429999999999
 21
223.35799999999989
 31
0.0
  0
LINE
  5
3E4
  8
0
 62
     7
 10
119.2429999999999
 20
223.35799999999989
 30
0.0
 11
119.212
 21
223.35499999999999
 31
0.0
  0
LINE
  5
3E5
  8
0
 62
     7
 10
119.212
 20
223.35499999999999
 30
0.0
 11
119.181
 21
223.35099999999991
 31
0.0
  0
LINE
  5
3E6
  8
0
 62
     7
 10
119.181
 20
223.35099999999991
 30
0.0
 11
119.1489999999999
 21
223.34700000000001
 31
0.0
  0
LINE
  5
3E7
  8
0
 62
     7
 10
119.1489999999999
 20
223.34700000000001
 30
0.0
 11
119.1179999999999
 21
223.34399999999999
 31
0.0
  0
LINE
  5
3E8
  8
0
 62
     7
 10
119.1179999999999
 20
223.34399999999999
 30
0.0
 11
119.087
 21
223.34
 31
0.0
  0
LINE
  5
3E9
  8
0
 62
     7
 10
119.087
 20
223.34
 30
0.0
 11
119.05499999999989
 21
223.33699999999999
 31
0.0
  0
LINE
  5
3EA
  8
0
 62
     7
 10
119.05499999999989
 20
223.33699999999999
 30
0.0
 11
119.0239999999999
 21
223.334
 31
0.0
  0
LINE
  5
3EB
  8
0
 62
     7
 10
119.0239999999999
 20
223.334
 30
0.0
 11
118.9929999999999
 21
223.3309999999999
 31
0.0
  0
LINE
  5
3EC
  8
0
 62
     7
 10
118.9929999999999
 20
223.3309999999999
 30
0.0
 11
118.962
 21
223.328
 31
0.0
  0
LINE
  5
3ED
  8
0
 62
     7
 10
118.962
 20
223.328
 30
0.0
 11
118.931
 21
223.3249999999999
 31
0.0
  0
LINE
  5
3EE
  8
0
 62
     7
 10
118.931
 20
223.3249999999999
 30
0.0
 11
118.8989999999999
 21
223.32299999999989
 31
0.0
  0
LINE
  5
3EF
  8
0
 62
     7
 10
118.8989999999999
 20
223.32299999999989
 30
0.0
 11
118.8679999999999
 21
223.31999999999999
 31
0.0
  0
LINE
  5
3F0
  8
0
 62
     7
 10
118.8679999999999
 20
223.31999999999999
 30
0.0
 11
118.836
 21
223.3179999999999
 31
0.0
  0
LINE
  5
3F1
  8
0
 62
     7
 10
118.836
 20
223.3179999999999
 30
0.0
 11
118.80500000000001
 21
223.31599999999989
 31
0.0
  0
LINE
  5
3F2
  8
0
 62
     7
 10
118.80500000000001
 20
223.31599999999989
 30
0.0
 11
118.774
 21
223.315
 31
0.0
  0
LINE
  5
3F3
  8
0
 62
     7
 10
118.774
 20
223.315
 30
0.0
 11
118.738
 21
223.31299999999999
 31
0.0
  0
LINE
  5
3F4
  8
0
 62
     7
 10
118.738
 20
223.31299999999999
 30
0.0
 11
118.7029999999999
 21
223.3119999999999
 31
0.0
  0
LINE
  5
3F5
  8
0
 62
     7
 10
118.7029999999999
 20
223.3119999999999
 30
0.0
 11
118.667
 21
223.31099999999989
 31
0.0
  0
LINE
  5
3F6
  8
0
 62
     7
 10
118.667
 20
223.31099999999989
 30
0.0
 11
118.63200000000001
 21
223.30999999999989
 31
0.0
  0
LINE
  5
3F7
  8
0
 62
     7
 10
118.63200000000001
 20
223.30999999999989
 30
0.0
 11
118.596
 21
223.309
 31
0.0
  0
LINE
  5
3F8
  8
0
 62
     7
 10
118.596
 20
223.309
 30
0.0
 11
118.56100000000001
 21
223.30799999999999
 31
0.0
  0
LINE
  5
3F9
  8
0
 62
     7
 10
118.56100000000001
 20
223.30799999999999
 30
0.0
 11
118.52500000000001
 21
223.30799999999999
 31
0.0
  0
LINE
  5
3FA
  8
0
 62
     7
 10
118.52500000000001
 20
223.30799999999999
 30
0.0
 11
118.48999999999999
 21
223.30699999999999
 31
0.0
  0
LINE
  5
3FB
  8
0
 62
     7
 10
118.48999999999999
 20
223.30699999999999
 30
0.0
 11
118.4549999999999
 21
223.30699999999999
 31
0.0
  0
LINE
  5
3FC
  8
0
 62
     7
 10
118.4549999999999
 20
223.30699999999999
 30
0.0
 11
118.419
 21
223.30699999999999
 31
0.0
  0
LINE
  5
3FD
  8
0
 62
     7
 10
118.419
 20
223.30699999999999
 30
0.0
 11
118.384
 21
223.30699999999999
 31
0.0
  0
LINE
  5
3FE
  8
0
 62
     7
 10
118.384
 20
223.30699999999999
 30
0.0
 11
118.348
 21
223.30699999999999
 31
0.0
  0
LINE
  5
3FF
  8
0
 62
     7
 10
118.348
 20
223.30699999999999
 30
0.0
 11
118.313
 21
223.30699999999999
 31
0.0
  0
LINE
  5
400
  8
0
 62
     7
 10
118.313
 20
223.30699999999999
 30
0.0
 11
118.277
 21
223.30600000000001
 31
0.0
  0
LINE
  5
401
  8
0
 62
     7
 10
118.277
 20
223.30600000000001
 30
0.0
 11
118.242
 21
223.30600000000001
 31
0.0
  0
LINE
  5
402
  8
0
 62
     7
 10
118.242
 20
223.30600000000001
 30
0.0
 11
118.20699999999999
 21
223.30499999999989
 31
0.0
  0
LINE
  5
403
  8
0
 62
     7
 10
118.20699999999999
 20
223.30499999999989
 30
0.0
 11
118.16799999999991
 21
223.30499999999989
 31
0.0
  0
LINE
  5
404
  8
0
 62
     7
 10
118.16799999999991
 20
223.30499999999989
 30
0.0
 11
118.12899999999991
 21
223.30399999999989
 31
0.0
  0
LINE
  5
405
  8
0
 62
     7
 10
118.12899999999991
 20
223.30399999999989
 30
0.0
 11
118.09
 21
223.30299999999991
 31
0.0
  0
LINE
  5
406
  8
0
 62
     7
 10
118.09
 20
223.30299999999991
 30
0.0
 11
118.0509999999999
 21
223.30199999999999
 31
0.0
  0
LINE
  5
407
  8
0
 62
     7
 10
118.0509999999999
 20
223.30199999999999
 30
0.0
 11
118.012
 21
223.30000000000001
 31
0.0
  0
LINE
  5
408
  8
0
 62
     7
 10
118.012
 20
223.30000000000001
 30
0.0
 11
117.9729999999999
 21
223.29900000000001
 31
0.0
  0
LINE
  5
409
  8
0
 62
     7
 10
117.9729999999999
 20
223.29900000000001
 30
0.0
 11
117.934
 21
223.29799999999989
 31
0.0
  0
LINE
  5
40A
  8
0
 62
     7
 10
117.934
 20
223.29799999999989
 30
0.0
 11
117.8949999999999
 21
223.29599999999991
 31
0.0
  0
LINE
  5
40B
  8
0
 62
     7
 10
117.8949999999999
 20
223.29599999999991
 30
0.0
 11
117.85599999999999
 21
223.2949999999999
 31
0.0
  0
LINE
  5
40C
  8
0
 62
     7
 10
117.85599999999999
 20
223.2949999999999
 30
0.0
 11
117.81699999999999
 21
223.29300000000001
 31
0.0
  0
LINE
  5
40D
  8
0
 62
     7
 10
117.81699999999999
 20
223.29300000000001
 30
0.0
 11
117.7789999999999
 21
223.29099999999991
 31
0.0
  0
LINE
  5
40E
  8
0
 62
     7
 10
117.7789999999999
 20
223.29099999999991
 30
0.0
 11
117.7389999999999
 21
223.28899999999999
 31
0.0
  0
LINE
  5
40F
  8
0
 62
     7
 10
117.7389999999999
 20
223.28899999999999
 30
0.0
 11
117.70099999999999
 21
223.2879999999999
 31
0.0
  0
LINE
  5
410
  8
0
 62
     7
 10
117.70099999999999
 20
223.2879999999999
 30
0.0
 11
117.6609999999999
 21
223.28599999999989
 31
0.0
  0
LINE
  5
411
  8
0
 62
     7
 10
117.6609999999999
 20
223.28599999999989
 30
0.0
 11
117.62299999999991
 21
223.28399999999999
 31
0.0
  0
LINE
  5
412
  8
0
 62
     7
 10
117.62299999999991
 20
223.28399999999999
 30
0.0
 11
117.5839999999999
 21
223.28200000000001
 31
0.0
  0
LINE
  5
413
  8
0
 62
     7
 10
119.8299999999999
 20
210.9679999999999
 30
0.0
 11
119.83199999999999
 21
210.99700000000001
 31
0.0
  0
LINE
  5
414
  8
0
 62
     7
 10
119.83199999999999
 20
210.99700000000001
 30
0.0
 11
119.8339999999999
 21
211.02699999999999
 31
0.0
  0
LINE
  5
415
  8
0
 62
     7
 10
119.8339999999999
 20
211.02699999999999
 30
0.0
 11
119.836
 21
211.05699999999999
 31
0.0
  0
LINE
  5
416
  8
0
 62
     7
 10
119.836
 20
211.05699999999999
 30
0.0
 11
119.83799999999999
 21
211.08699999999999
 31
0.0
  0
LINE
  5
417
  8
0
 62
     7
 10
119.83799999999999
 20
211.08699999999999
 30
0.0
 11
119.84099999999999
 21
211.1159999999999
 31
0.0
  0
LINE
  5
418
  8
0
 62
     7
 10
119.84099999999999
 20
211.1159999999999
 30
0.0
 11
119.84399999999989
 21
211.14599999999999
 31
0.0
  0
LINE
  5
419
  8
0
 62
     7
 10
119.84399999999989
 20
211.14599999999999
 30
0.0
 11
119.846
 21
211.1759999999999
 31
0.0
  0
LINE
  5
41A
  8
0
 62
     7
 10
119.846
 20
211.1759999999999
 30
0.0
 11
119.84999999999989
 21
211.20599999999999
 31
0.0
  0
LINE
  5
41B
  8
0
 62
     7
 10
119.84999999999989
 20
211.20599999999999
 30
0.0
 11
119.8539999999999
 21
211.23500000000001
 31
0.0
  0
LINE
  5
41C
  8
0
 62
     7
 10
119.8539999999999
 20
211.23500000000001
 30
0.0
 11
119.857
 21
211.2649999999999
 31
0.0
  0
LINE
  5
41D
  8
0
 62
     7
 10
119.857
 20
211.2649999999999
 30
0.0
 11
119.861
 21
211.29499999999999
 31
0.0
  0
LINE
  5
41E
  8
0
 62
     7
 10
119.861
 20
211.29499999999999
 30
0.0
 11
119.866
 21
211.32400000000001
 31
0.0
  0
LINE
  5
41F
  8
0
 62
     7
 10
119.866
 20
211.32400000000001
 30
0.0
 11
119.871
 21
211.35299999999989
 31
0.0
  0
LINE
  5
420
  8
0
 62
     7
 10
119.871
 20
211.35299999999989
 30
0.0
 11
119.877
 21
211.3829999999999
 31
0.0
  0
LINE
  5
421
  8
0
 62
     7
 10
119.877
 20
211.3829999999999
 30
0.0
 11
119.88199999999991
 21
211.41200000000001
 31
0.0
  0
LINE
  5
422
  8
0
 62
     7
 10
119.88199999999991
 20
211.41200000000001
 30
0.0
 11
119.88799999999991
 21
211.44099999999989
 31
0.0
  0
LINE
  5
423
  8
0
 62
     7
 10
119.88799999999991
 20
211.44099999999989
 30
0.0
 11
119.8949999999999
 21
211.47399999999999
 31
0.0
  0
LINE
  5
424
  8
0
 62
     7
 10
119.8949999999999
 20
211.47399999999999
 30
0.0
 11
119.9019999999999
 21
211.50599999999989
 31
0.0
  0
LINE
  5
425
  8
0
 62
     7
 10
119.9019999999999
 20
211.50599999999989
 30
0.0
 11
119.91
 21
211.53899999999999
 31
0.0
  0
LINE
  5
426
  8
0
 62
     7
 10
119.91
 20
211.53899999999999
 30
0.0
 11
119.9189999999999
 21
211.57099999999991
 31
0.0
  0
LINE
  5
427
  8
0
 62
     7
 10
119.9189999999999
 20
211.57099999999991
 30
0.0
 11
119.92700000000001
 21
211.60299999999989
 31
0.0
  0
LINE
  5
428
  8
0
 62
     7
 10
119.92700000000001
 20
211.60299999999989
 30
0.0
 11
119.93600000000001
 21
211.63599999999991
 31
0.0
  0
LINE
  5
429
  8
0
 62
     7
 10
119.93600000000001
 20
211.63599999999991
 30
0.0
 11
119.94499999999989
 21
211.66800000000001
 31
0.0
  0
LINE
  5
42A
  8
0
 62
     7
 10
119.94499999999989
 20
211.66800000000001
 30
0.0
 11
119.95399999999999
 21
211.6999999999999
 31
0.0
  0
LINE
  5
42B
  8
0
 62
     7
 10
119.95399999999999
 20
211.6999999999999
 30
0.0
 11
119.96299999999989
 21
211.73199999999991
 31
0.0
  0
LINE
  5
42C
  8
0
 62
     7
 10
119.96299999999989
 20
211.73199999999991
 30
0.0
 11
119.9729999999999
 21
211.76400000000001
 31
0.0
  0
LINE
  5
42D
  8
0
 62
     7
 10
119.9729999999999
 20
211.76400000000001
 30
0.0
 11
119.9829999999999
 21
211.79599999999999
 31
0.0
  0
LINE
  5
42E
  8
0
 62
     7
 10
119.9829999999999
 20
211.79599999999999
 30
0.0
 11
119.992
 21
211.82799999999989
 31
0.0
  0
LINE
  5
42F
  8
0
 62
     7
 10
119.992
 20
211.82799999999989
 30
0.0
 11
120.002
 21
211.86000000000001
 31
0.0
  0
LINE
  5
430
  8
0
 62
     7
 10
120.002
 20
211.86000000000001
 30
0.0
 11
120.012
 21
211.892
 31
0.0
  0
LINE
  5
431
  8
0
 62
     7
 10
120.012
 20
211.892
 30
0.0
 11
120.02200000000001
 21
211.92400000000001
 31
0.0
  0
LINE
  5
432
  8
0
 62
     7
 10
120.02200000000001
 20
211.92400000000001
 30
0.0
 11
120.032
 21
211.9559999999999
 31
0.0
  0
LINE
  5
433
  8
0
 62
     7
 10
120.032
 20
211.9559999999999
 30
0.0
 11
120.0409999999999
 21
211.98699999999999
 31
0.0
  0
LINE
  5
434
  8
0
 62
     7
 10
120.0409999999999
 20
211.98699999999999
 30
0.0
 11
120.0499999999999
 21
212.01799999999989
 31
0.0
  0
LINE
  5
435
  8
0
 62
     7
 10
120.0499999999999
 20
212.01799999999989
 30
0.0
 11
120.059
 21
212.04900000000001
 31
0.0
  0
LINE
  5
436
  8
0
 62
     7
 10
120.059
 20
212.04900000000001
 30
0.0
 11
120.0679999999999
 21
212.08000000000001
 31
0.0
  0
LINE
  5
437
  8
0
 62
     7
 10
120.0679999999999
 20
212.08000000000001
 30
0.0
 11
120.077
 21
212.1109999999999
 31
0.0
  0
LINE
  5
438
  8
0
 62
     7
 10
120.077
 20
212.1109999999999
 30
0.0
 11
120.086
 21
212.143
 31
0.0
  0
LINE
  5
439
  8
0
 62
     7
 10
120.086
 20
212.143
 30
0.0
 11
120.09399999999989
 21
212.17399999999989
 31
0.0
  0
LINE
  5
43A
  8
0
 62
     7
 10
120.09399999999989
 20
212.17399999999989
 30
0.0
 11
120.10299999999999
 21
212.20500000000001
 31
0.0
  0
LINE
  5
43B
  8
0
 62
     7
 10
120.10299999999999
 20
212.20500000000001
 30
0.0
 11
120.111
 21
212.23699999999999
 31
0.0
  0
LINE
  5
43C
  8
0
 62
     7
 10
120.111
 20
212.23699999999999
 30
0.0
 11
120.1189999999999
 21
212.26799999999989
 31
0.0
  0
LINE
  5
43D
  8
0
 62
     7
 10
120.1189999999999
 20
212.26799999999989
 30
0.0
 11
120.127
 21
212.29900000000001
 31
0.0
  0
LINE
  5
43E
  8
0
 62
     7
 10
120.127
 20
212.29900000000001
 30
0.0
 11
120.134
 21
212.33099999999999
 31
0.0
  0
LINE
  5
43F
  8
0
 62
     7
 10
120.134
 20
212.33099999999999
 30
0.0
 11
120.142
 21
212.36299999999989
 31
0.0
  0
LINE
  5
440
  8
0
 62
     7
 10
120.142
 20
212.36299999999989
 30
0.0
 11
120.1489999999999
 21
212.39400000000001
 31
0.0
  0
LINE
  5
441
  8
0
 62
     7
 10
120.1489999999999
 20
212.39400000000001
 30
0.0
 11
120.15600000000001
 21
212.42599999999999
 31
0.0
  0
LINE
  5
442
  8
0
 62
     7
 10
120.15600000000001
 20
212.42599999999999
 30
0.0
 11
120.1629999999999
 21
212.45799999999991
 31
0.0
  0
LINE
  5
443
  8
0
 62
     7
 10
120.1629999999999
 20
212.45799999999991
 30
0.0
 11
120.1689999999999
 21
212.489
 31
0.0
  0
LINE
  5
444
  8
0
 62
     7
 10
120.1689999999999
 20
212.489
 30
0.0
 11
120.175
 21
212.5199999999999
 31
0.0
  0
LINE
  5
445
  8
0
 62
     7
 10
120.175
 20
212.5199999999999
 30
0.0
 11
120.181
 21
212.5509999999999
 31
0.0
  0
LINE
  5
446
  8
0
 62
     7
 10
120.181
 20
212.5509999999999
 30
0.0
 11
120.187
 21
212.58199999999999
 31
0.0
  0
LINE
  5
447
  8
0
 62
     7
 10
120.187
 20
212.58199999999999
 30
0.0
 11
120.19199999999999
 21
212.61399999999989
 31
0.0
  0
LINE
  5
448
  8
0
 62
     7
 10
120.19199999999999
 20
212.61399999999989
 30
0.0
 11
120.1969999999999
 21
212.64500000000001
 31
0.0
  0
LINE
  5
449
  8
0
 62
     7
 10
120.1969999999999
 20
212.64500000000001
 30
0.0
 11
120.202
 21
212.6759999999999
 31
0.0
  0
LINE
  5
44A
  8
0
 62
     7
 10
120.202
 20
212.6759999999999
 30
0.0
 11
120.206
 21
212.70799999999991
 31
0.0
  0
LINE
  5
44B
  8
0
 62
     7
 10
120.206
 20
212.70799999999991
 30
0.0
 11
120.20999999999989
 21
212.739
 31
0.0
  0
LINE
  5
44C
  8
0
 62
     7
 10
120.20999999999989
 20
212.739
 30
0.0
 11
120.2139999999999
 21
212.7699999999999
 31
0.0
  0
LINE
  5
44D
  8
0
 62
     7
 10
120.2139999999999
 20
212.7699999999999
 30
0.0
 11
120.218
 21
212.80199999999999
 31
0.0
  0
LINE
  5
44E
  8
0
 62
     7
 10
120.218
 20
212.80199999999999
 30
0.0
 11
120.22199999999999
 21
212.833
 31
0.0
  0
LINE
  5
44F
  8
0
 62
     7
 10
120.22199999999999
 20
212.833
 30
0.0
 11
120.22499999999999
 21
212.8649999999999
 31
0.0
  0
LINE
  5
450
  8
0
 62
     7
 10
120.22499999999999
 20
212.8649999999999
 30
0.0
 11
120.229
 21
212.89699999999999
 31
0.0
  0
LINE
  5
451
  8
0
 62
     7
 10
120.229
 20
212.89699999999999
 30
0.0
 11
120.23099999999999
 21
212.928
 31
0.0
  0
LINE
  5
452
  8
0
 62
     7
 10
120.23099999999999
 20
212.928
 30
0.0
 11
120.235
 21
212.95999999999989
 31
0.0
  0
LINE
  5
453
  8
0
 62
     7
 10
121.27799999999991
 20
225.3659999999999
 30
0.0
 11
121.211
 21
225.048
 31
0.0
  0
LINE
  5
454
  8
0
 62
     7
 10
121.211
 20
225.048
 30
0.0
 11
121.1019999999999
 21
224.7409999999999
 31
0.0
  0
LINE
  5
455
  8
0
 62
     7
 10
121.1019999999999
 20
224.7409999999999
 30
0.0
 11
120.9529999999999
 21
224.45099999999999
 31
0.0
  0
LINE
  5
456
  8
0
 62
     7
 10
120.9529999999999
 20
224.45099999999999
 30
0.0
 11
120.7679999999999
 21
224.18199999999999
 31
0.0
  0
LINE
  5
457
  8
0
 62
     7
 10
120.7679999999999
 20
224.18199999999999
 30
0.0
 11
120.55
 21
223.94099999999989
 31
0.0
  0
LINE
  5
458
  8
0
 62
     7
 10
120.55
 20
223.94099999999989
 30
0.0
 11
120.30200000000001
 21
223.73099999999991
 31
0.0
  0
LINE
  5
459
  8
0
 62
     7
 10
120.30200000000001
 20
223.73099999999991
 30
0.0
 11
120.03
 21
223.5559999999999
 31
0.0
  0
LINE
  5
45A
  8
0
 62
     7
 10
120.03
 20
223.5559999999999
 30
0.0
 11
119.73999999999999
 21
223.42099999999999
 31
0.0
  0
ARC
  5
45B
  8
0
 62
     7
 10
128.45267100000001
 20
209.7377229999999
 30
0.0
 40
1.728961999999999
 50
88.141908000000001
 51
134.65550500000001
  0
ARC
  5
45C
  8
0
 62
     7
 10
121.0280929999999
 20
209.74600599999991
 30
0.0
 40
1.7217340000000001
 50
45.195915999999997
 51
81.209567000000007
  0
ARC
  5
45D
  8
0
 62
     7
 10
124.7394279999999
 20
204.88456699999989
 30
0.0
 40
6.575996
 50
67.67407
 51
112.325911
  0
ARC
  5
45E
  8
0
 62
     7
 10
128.44292899999999
 20
209.43641099999999
 30
0.0
 40
1.771109
 50
227.10814500000001
 51
312.89187500000003
  0
ARC
  5
45F
  8
0
 62
     7
 10
121.035927
 20
209.43641099999999
 30
0.0
 40
1.771109
 50
227.10814500000001
 51
312.89187500000003
  0
ARC
  5
460
  8
0
 62
     7
 10
124.7394279999999
 20
214.22187199999999
 30
0.0
 40
6.575996
 50
247.67408900000001
 51
292.32592999999991
  0
ARC
  5
461
  8
0
 62
     7
 10
109.5419889999999
 20
227.09930800000001
 30
0.0
 40
2.4003339999999991
 50
98.310299999999984
 51
171.679937
  0
ARC
  5
462
  8
0
 62
     7
 10
78.962948999999995
 20
309.81257799999992
 30
0.0
 40
66.302816000000007
 50
268.20213699999999
 51
271.79788300000001
  0
LINE
  5
463
  8
0
 62
     7
 10
80.169399999999996
 20
243.52099999999999
 30
0.0
 11
80.169399999999996
 21
244.874
 31
0.0
  0
LINE
  5
464
  8
0
 62
     7
 10
80.668999999999997
 20
243.53200000000001
 30
0.0
 11
80.668999999999997
 21
244.874
 31
0.0
  0
LINE
  5
465
  8
0
 62
     7
 10
79.587199999999996
 20
243.51300000000001
 30
0.0
 11
79.587199999999996
 21
244.874
 31
0.0
  0
LINE
  5
466
  8
0
 62
     7
 10
78.338300000000004
 20
243.51300000000001
 30
0.0
 11
78.338300000000004
 21
244.874
 31
0.0
  0
LINE
  5
467
  8
0
 62
     7
 10
77.256600000000006
 20
243.53200000000001
 30
0.0
 11
77.256600000000006
 21
244.874
 31
0.0
  0
LINE
  5
468
  8
0
 62
     7
 10
77.756500000000003
 20
243.52099999999999
 30
0.0
 11
77.756500000000003
 21
244.874
 31
0.0
  0
LINE
  5
469
  8
0
 62
     7
 10
76.873099999999994
 20
243.54300000000001
 30
0.0
 11
76.873099999999994
 21
244.874
 31
0.0
  0
LINE
  5
46A
  8
0
 62
     7
 10
76.632000000000005
 20
243.68700000000001
 30
0.0
 11
76.632000000000005
 21
244.874
 31
0.0
  0
LINE
  5
46B
  8
0
 62
     7
 10
81.052400000000006
 20
243.54300000000001
 30
0.0
 11
81.052400000000006
 21
244.874
 31
0.0
  0
LINE
  5
46C
  8
0
 62
     7
 10
78.962900000000005
 20
243.50999999999991
 30
0.0
 11
78.962900000000005
 21
244.874
 31
0.0
  0
LINE
  5
46D
  8
0
 62
     7
 10
76.741699999999994
 20
244.874
 30
0.0
 11
81.375900000000016
 21
244.874
 31
0.0
  0
LINE
  5
46E
  8
0
 62
     7
 10
81.293599999999998
 20
243.68700000000001
 30
0.0
 11
81.293599999999998
 21
244.874
 31
0.0
  0
LINE
  5
46F
  8
0
 62
     7
 10
76.882800000000003
 20
243.542
 30
0.0
 11
76.549999999999997
 21
243.73500000000001
 31
0.0
  0
LINE
  5
470
  8
0
 62
     7
 10
76.549999999999997
 20
243.73500000000001
 30
0.0
 11
76.549999999999997
 21
244.874
 31
0.0
  0
LINE
  5
471
  8
0
 62
     7
 10
81.042900000000003
 20
243.542
 30
0.0
 11
81.375900000000016
 21
243.73500000000001
 31
0.0
  0
LINE
  5
472
  8
0
 62
     7
 10
76.549999999999997
 20
244.874
 30
0.0
 11
81.375900000000016
 21
244.874
 31
0.0
  0
LINE
  5
473
  8
0
 62
     7
 10
81.375900000000016
 20
243.73500000000001
 30
0.0
 11
81.375900000000016
 21
244.874
 31
0.0
  0
ARC
  5
474
  8
0
 62
     7
 10
171.39237499999999
 20
219.28791499999991
 30
0.0
 40
66.302083999999994
 50
178.20208700000001
 51
181.79791299999999
  0
ARC
  5
475
  8
0
 62
     7
 10
108.735899
 20
215.21040799999989
 30
0.0
 40
2.0562869999999989
 50
188.297775
 51
261.71361100000001
  0
ARC
  5
476
  8
0
 62
     7
 10
117.9165449999999
 20
212.9642299999999
 30
0.0
 40
2.3301050000000001
 50
0.004246
 51
90.004216000000014
  0
ARC
  5
477
  8
0
 62
     7
 10
129.88544799999991
 20
211.925466
 30
0.0
 40
0.8447180000000001
 50
171.68281399999989
 51
224.58990800000001
  0
ARC
  5
478
  8
0
 62
     7
 10
99.514206000000001
 20
216.60335799999999
 30
0.0
 40
29.884743
 50
351.23084
 51
0.00882
  0
ARC
  5
479
  8
0
 62
     7
 10
99.385793000000007
 20
218.13293999999999
 30
0.0
 40
30.035371000000001
 50
357.79621400000002
 51
2.203786
  0
ARC
  5
47A
  8
0
 62
     7
 10
117.2145629999999
 20
219.99515600000001
 30
0.0
 40
5.0058739999999986
 50
136.3852149999999
 51
163.08712700000001
  0
ARC
  5
47B
  8
0
 62
     7
 10
114.92136000000001
 20
221.83316600000001
 30
0.0
 40
2.092862999999999
 50
50.507216999999997
 51
129.49276299999991
  0
ARC
  5
47C
  8
0
 62
     7
 10
114.92136000000001
 20
216.74300799999989
 30
0.0
 40
2.092862999999999
 50
230.50723699999989
 51
309.49278299999997
  0
ARC
  5
47D
  8
0
 62
     7
 10
117.21929399999991
 20
218.58295299999989
 30
0.0
 40
5.0106339999999987
 50
196.91943399999991
 51
223.59347299999999
  0
LINE
  5
47E
  8
0
 62
     7
 10
112.4249999999999
 20
221.45099999999999
 30
0.0
 11
112.4249999999999
 21
217.125
 31
0.0
  0
LINE
  5
47F
  8
0
 62
     7
 10
128.20099999999991
 20
225.94499999999999
 30
0.0
 11
121.27799999999991
 21
225.94499999999999
 31
0.0
  0
LINE
  5
480
  8
0
 62
     7
 10
121.611
 20
225.94499999999999
 30
0.0
 11
121.27799999999991
 21
225.36799999999999
 31
0.0
  0
LINE
  5
481
  8
0
 62
     7
 10
121.27799999999991
 20
226.6329999999999
 30
0.0
 11
121.27799999999991
 21
225.36799999999999
 31
0.0
  0
LINE
  5
482
  8
0
 62
     7
 10
121.611
 20
226.6329999999999
 30
0.0
 11
121.611
 21
225.94499999999999
 31
0.0
  0
LINE
  5
483
  8
0
 62
     7
 10
127.86799999999999
 20
225.94499999999999
 30
0.0
 11
128.20099999999991
 21
225.36799999999999
 31
0.0
  0
LINE
  5
484
  8
0
 62
     7
 10
127.86799999999999
 20
226.6329999999999
 30
0.0
 11
127.86799999999999
 21
225.94499999999999
 31
0.0
  0
LINE
  5
485
  8
0
 62
     7
 10
128.20099999999991
 20
226.6329999999999
 30
0.0
 11
128.20099999999991
 21
225.36799999999999
 31
0.0
  0
LINE
  5
486
  8
0
  6
AIGENLINE001
 62
     7
 10
104.271
 20
219.2879999999999
 30
0.0
 11
130.96199999999999
 21
219.2879999999999
 31
0.0
  0
LINE
  5
487
  8
0
 62
     7
 10
122.2409999999999
 20
210.9679999999999
 30
0.0
 11
122.2409999999999
 21
208.13900000000001
 31
0.0
  0
LINE
  5
488
  8
0
 62
     7
 10
127.23699999999999
 20
210.9679999999999
 30
0.0
 11
127.23699999999999
 21
208.13900000000001
 31
0.0
  0
LINE
  5
489
  8
0
 62
     7
 10
105.102
 20
218.08199999999999
 30
0.0
 11
106.45399999999999
 21
218.08199999999999
 31
0.0
  0
LINE
  5
48A
  8
0
 62
     7
 10
105.11199999999999
 20
217.58199999999991
 30
0.0
 11
106.45399999999999
 21
217.58199999999991
 31
0.0
  0
LINE
  5
48B
  8
0
 62
     7
 10
105.0929999999999
 20
218.66399999999999
 30
0.0
 11
106.45399999999999
 21
218.66399999999999
 31
0.0
  0
LINE
  5
48C
  8
0
 62
     7
 10
105.0929999999999
 20
219.9129999999999
 30
0.0
 11
106.45399999999999
 21
219.9129999999999
 31
0.0
  0
LINE
  5
48D
  8
0
 62
     7
 10
105.11199999999999
 20
220.994
 30
0.0
 11
106.45399999999999
 21
220.994
 31
0.0
  0
LINE
  5
48E
  8
0
 62
     7
 10
105.102
 20
220.495
 30
0.0
 11
106.45399999999999
 21
220.495
 31
0.0
  0
LINE
  5
48F
  8
0
 62
     7
 10
105.12299999999991
 20
221.3779999999999
 30
0.0
 11
106.45399999999999
 21
221.3779999999999
 31
0.0
  0
LINE
  5
490
  8
0
 62
     7
 10
105.2679999999999
 20
221.619
 30
0.0
 11
106.45399999999999
 21
221.619
 31
0.0
  0
LINE
  5
491
  8
0
 62
     7
 10
105.12299999999991
 20
217.19800000000001
 30
0.0
 11
106.45399999999999
 21
217.19800000000001
 31
0.0
  0
LINE
  5
492
  8
0
 62
     7
 10
105.09099999999999
 20
219.2879999999999
 30
0.0
 11
106.45399999999999
 21
219.2879999999999
 31
0.0
  0
LINE
  5
493
  8
0
 62
     7
 10
106.45399999999999
 20
221.50899999999999
 30
0.0
 11
106.45399999999999
 21
216.875
 31
0.0
  0
LINE
  5
494
  8
0
 62
     7
 10
105.2679999999999
 20
216.95699999999991
 30
0.0
 11
106.45399999999999
 21
216.95699999999991
 31
0.0
  0
LINE
  5
495
  8
0
 62
     7
 10
107.167
 20
227.44699999999989
 30
0.0
 11
106.45399999999999
 21
221.65700000000001
 31
0.0
  0
LINE
  5
496
  8
0
 62
     7
 10
110.261
 20
212.95199999999991
 30
0.0
 11
108.44
 21
213.1759999999999
 31
0.0
  0
LINE
  5
497
  8
0
 62
     7
 10
110.261
 20
229.60499999999999
 30
0.0
 11
109.19499999999989
 21
229.47399999999999
 31
0.0
  0
LINE
  5
498
  8
0
 62
     7
 10
110.261
 20
212.964
 30
0.0
 11
110.261
 21
229.60499999999999
 31
0.0
  0
LINE
  5
499
  8
0
 62
     7
 10
105.12299999999991
 20
221.36799999999999
 30
0.0
 11
105.315
 21
221.70099999999999
 31
0.0
  0
LINE
  5
49A
  8
0
 62
     7
 10
105.315
 20
221.70099999999999
 30
0.0
 11
106.45399999999999
 21
221.70099999999999
 31
0.0
  0
LINE
  5
49B
  8
0
 62
     7
 10
105.12299999999991
 20
217.208
 30
0.0
 11
105.315
 21
216.875
 31
0.0
  0
LINE
  5
49C
  8
0
 62
     7
 10
106.45399999999999
 20
221.70099999999999
 30
0.0
 11
106.45399999999999
 21
216.875
 31
0.0
  0
LINE
  5
49D
  8
0
 62
     7
 10
106.70099999999999
 20
214.91399999999999
 30
0.0
 11
106.45399999999999
 21
216.91800000000001
 31
0.0
  0
LINE
  5
49E
  8
0
 62
     7
 10
105.315
 20
216.875
 30
0.0
 11
106.45399999999999
 21
216.875
 31
0.0
  0
LINE
  5
49F
  8
0
 62
     7
 10
116.252
 20
215.52699999999999
 30
0.0
 11
117.08499999999989
 21
215.52699999999999
 31
0.0
  0
LINE
  5
4A0
  8
0
 62
     7
 10
117.4879999999999
 20
215.29400000000001
 30
0.0
 11
117.08499999999989
 21
215.52699999999999
 31
0.0
  0
LINE
  5
4A1
  8
0
 62
     7
 10
116.252
 20
223.04900000000001
 30
0.0
 11
117.08499999999989
 21
223.04900000000001
 31
0.0
  0
LINE
  5
4A2
  8
0
 62
     7
 10
117.08499999999989
 20
223.04900000000001
 30
0.0
 11
117.4879999999999
 21
223.28200000000001
 31
0.0
  0
LINE
  5
4A3
  8
0
 62
     7
 10
112.2589999999999
 20
221.45099999999999
 30
0.0
 11
112.4249999999999
 21
221.45099999999999
 31
0.0
  0
LINE
  5
4A4
  8
0
 62
     7
 10
112.2589999999999
 20
221.45099999999999
 30
0.0
 11
112.2589999999999
 21
217.125
 31
0.0
  0
LINE
  5
4A5
  8
0
 62
     7
 10
116.252
 20
223.44800000000001
 30
0.0
 11
116.252
 21
215.1279999999999
 31
0.0
  0
LINE
  5
4A6
  8
0
 62
     7
 10
112.2589999999999
 20
217.125
 30
0.0
 11
112.4249999999999
 21
217.125
 31
0.0
  0
LINE
  5
4A7
  8
0
 62
     7
 10
110.261
 20
220.869
 30
0.0
 11
112.2589999999999
 21
220.869
 31
0.0
  0
LINE
  5
4A8
  8
0
 62
     7
 10
110.261
 20
217.70699999999999
 30
0.0
 11
112.2589999999999
 21
217.70699999999999
 31
0.0
  0
LINE
  5
4A9
  8
0
 62
     7
 10
129.15000000000001
 20
207.63999999999999
 30
0.0
 11
120.32899999999989
 21
207.63999999999999
 31
0.0
  0
LINE
  5
4AA
  8
0
 62
     7
 10
129.28399999999991
 20
211.33199999999991
 30
0.0
 11
129.648
 21
210.9679999999999
 31
0.0
  0
LINE
  5
4AB
  8
0
 62
     7
 10
120.32899999999989
 20
207.63999999999999
 30
0.0
 11
119.8299999999999
 21
208.13900000000001
 31
0.0
  0
LINE
  5
4AC
  8
0
 62
     7
 10
129.15000000000001
 20
207.63999999999999
 30
0.0
 11
129.648
 21
208.13900000000001
 31
0.0
  0
LINE
  5
4AD
  8
0
 62
     7
 10
129.648
 20
210.9679999999999
 30
0.0
 11
129.648
 21
208.13900000000001
 31
0.0
  0
LINE
  5
4AE
  8
0
 62
     7
 10
119.8299999999999
 20
210.9679999999999
 30
0.0
 11
119.8299999999999
 21
208.13900000000001
 31
0.0
  0
LINE
  5
4AF
  8
0
 62
     7
 10
129.39899999999989
 20
216.97799999999989
 30
0.0
 11
129.39899999999989
 21
216.608
 31
0.0
  0
LINE
  5
4B0
  8
0
  6
AIGENLINE001
 62
     7
 10
124.73999999999999
 20
235.49799999999991
 30
0.0
 11
124.73999999999999
 21
69.324399999999983
 31
0.0
  0
LINE
  5
4B1
  8
0
 62
     7
 10
116.252
 20
223.28200000000001
 30
0.0
 11
117.5839999999999
 21
223.28200000000001
 31
0.0
  0
LINE
  5
4B2
  8
0
 62
     7
 10
117.08499999999989
 20
223.28200000000001
 30
0.0
 11
117.08499999999989
 21
215.29400000000001
 31
0.0
  0
LINE
  5
4B3
  8
0
 62
     7
 10
117.5839999999999
 20
215.29400000000001
 30
0.0
 11
117.9159999999999
 21
215.29400000000001
 31
0.0
  0
LINE
  5
4B4
  8
0
 62
     7
 10
116.252
 20
215.29400000000001
 30
0.0
 11
117.5839999999999
 21
215.29400000000001
 31
0.0
  0
LINE
  5
4B5
  8
0
 62
     7
 10
124.73999999999999
 20
236.41900000000001
 30
0.0
 11
124.73999999999999
 21
242.464
 31
0.0
  0
LINE
  5
4B6
  8
0
 62
     7
 10
105.09099999999999
 20
222.38399999999999
 30
0.0
 11
105.09099999999999
 21
242.464
 31
0.0
  0
LINE
  5
4B7
  8
0
 62
     7
 10
107.301
 20
242.14899999999989
 30
0.0
 11
105.09099999999999
 21
241.55699999999999
 31
0.0
  0
LINE
  5
4B8
  8
0
 62
     7
 10
105.09099999999999
 20
241.55699999999999
 30
0.0
 11
107.301
 21
240.965
 31
0.0
  0
LINE
  5
4B9
  8
0
 62
     7
 10
107.301
 20
240.965
 30
0.0
 11
107.301
 21
242.14899999999989
 31
0.0
  0
LINE
  5
4BA
  8
0
 62
     7
 10
122.5289999999999
 20
240.97900000000001
 30
0.0
 11
124.73999999999999
 21
241.571
 31
0.0
  0
LINE
  5
4BB
  8
0
 62
     7
 10
124.73999999999999
 20
241.571
 30
0.0
 11
122.5289999999999
 21
242.16399999999999
 31
0.0
  0
LINE
  5
4BC
  8
0
 62
     7
 10
122.5289999999999
 20
242.16399999999999
 30
0.0
 11
122.5289999999999
 21
240.97900000000001
 31
0.0
  0
LINE
  5
4BD
  8
0
 62
     7
 10
105.09099999999999
 20
241.56399999999999
 30
0.0
 11
124.73999999999999
 21
241.56399999999999
 31
0.0
  0
LINE
  5
4BE
  8
0
 62
     7
 10
114.7399999999999
 20
73.093000000000004
 30
0.0
 11
114.7399999999999
 21
62.686700000000002
 31
0.0
  0
LINE
  5
4BF
  8
0
 62
     7
 10
134.74000000000001
 20
73.093000000000004
 30
0.0
 11
134.74000000000001
 21
62.686700000000002
 31
0.0
  0
LINE
  5
4C0
  8
0
 62
     7
 10
132.529
 20
63.000500000000002
 30
0.0
 11
134.74000000000001
 21
63.592700000000001
 31
0.0
  0
LINE
  5
4C1
  8
0
 62
     7
 10
134.74000000000001
 20
63.592700000000001
 30
0.0
 11
132.529
 21
64.184899999999999
 31
0.0
  0
LINE
  5
4C2
  8
0
 62
     7
 10
132.529
 20
64.184899999999999
 30
0.0
 11
132.529
 21
63.000500000000002
 31
0.0
  0
LINE
  5
4C3
  8
0
 62
     7
 10
116.9499999999999
 20
64.170500000000004
 30
0.0
 11
114.7399999999999
 21
63.578299999999992
 31
0.0
  0
LINE
  5
4C4
  8
0
 62
     7
 10
114.7399999999999
 20
63.578299999999992
 30
0.0
 11
116.9499999999999
 21
62.985999999999997
 31
0.0
  0
LINE
  5
4C5
  8
0
 62
     7
 10
116.9499999999999
 20
62.985999999999997
 30
0.0
 11
116.9499999999999
 21
64.170500000000004
 31
0.0
  0
LINE
  5
4C6
  8
0
 62
     7
 10
134.74000000000001
 20
63.58550000000001
 30
0.0
 11
114.7399999999999
 21
63.58550000000001
 31
0.0
  0
LINE
  5
4C7
  8
0
 62
     7
 10
120.15600000000001
 20
70.999399999999994
 30
0.0
 11
121.404
 21
72.918000000000006
 31
0.0
  0
LINE
  5
4C8
  8
0
 62
     7
 10
121.404
 20
72.918000000000006
 30
0.0
 11
119.364
 21
71.880300000000005
 31
0.0
  0
LINE
  5
4C9
  8
0
 62
     7
 10
119.364
 20
71.880300000000005
 30
0.0
 11
120.15600000000001
 21
70.999399999999994
 31
0.0
  0
LINE
  5
4CA
  8
0
 62
     7
 10
121.404
 20
72.918000000000006
 30
0.0
 11
118.489
 21
70.296599999999984
 31
0.0
  0
LINE
  5
4CB
  8
0
 62
     7
 10
118.489
 20
70.296599999999984
 30
0.0
 11
106.77499999999991
 21
70.296599999999984
 31
0.0
  0
TEXT
  5
4CC
  8
_________2
 62
     7
 10
29.7258
 20
21.827200000000001
 30
0.0
 40
3.9357000000000002
  1
・ストレーナ付、固定こま式
 41
0.5
  0
LINE
  5
4CD
  8
_________2
 62
     7
 10
210.24000000000001
 20
148.93100000000001
 30
0.0
 11
188.49000000000001
 21
148.93100000000001
 31
0.0
  0
LINE
  5
4CE
  8
_________2
 62
     7
 10
105.2389999999999
 20
17.428499999999989
 30
0.0
 11
105.2389999999999
 21
0.4482100000000001
 31
0.0
  0
LINE
  5
4CF
  8
_________2
 62
     7
 10
105.2389999999999
 20
297.44999999999987
 30
0.0
 11
105.2389999999999
 21
280.42999999999989
 31
0.0
  0
LINE
  5
4D0
  8
_________2
 62
     7
 10
21.988499999999991
 20
148.93100000000001
 30
0.0
 11
0.238058
 21
148.93100000000001
 31
0.0
  0
LINE
  5
4D1
  8
_________2
 62
     7
 10
81.679900000000004
 20
51.324300000000001
 30
0.0
 11
79.493700000000004
 21
51.324300000000001
 31
0.0
  0
LINE
  5
4D2
  8
_________2
 62
     7
 10
82.172600000000017
 20
51.324300000000001
 30
0.0
 11
81.920400000000001
 21
51.324300000000001
 31
0.0
  0
LINE
  5
4D3
  8
_________2
 62
     7
 10
82.665199999999984
 20
51.324300000000001
 30
0.0
 11
85.590100000000007
 21
51.324300000000001
 31
0.0
  0
LINE
  5
4D4
  8
_________2
 62
     7
 10
82.172600000000017
 20
51.324300000000001
 30
0.0
 11
82.424800000000005
 21
51.324300000000001
 31
0.0
  0
LINE
  5
4D5
  8
_________2
 62
     7
 10
75.776399999999995
 20
51.324300000000001
 30
0.0
 11
73.589399999999998
 21
51.324300000000001
 31
0.0
  0
LINE
  5
4D6
  8
_________2
 62
     7
 10
76.2684
 20
51.324300000000001
 30
0.0
 11
76.016900000000007
 21
51.324300000000001
 31
0.0
  0
LINE
  5
4D7
  8
_________2
 62
     7
 10
76.2684
 20
51.817
 30
0.0
 11
76.2684
 21
54.003900000000002
 31
0.0
  0
LINE
  5
4D8
  8
_________2
 62
     7
 10
76.2684
 20
51.324300000000001
 30
0.0
 11
76.2684
 21
51.576500000000003
 31
0.0
  0
LINE
  5
4D9
  8
_________2
 62
     7
 10
76.76100000000001
 20
51.324300000000001
 30
0.0
 11
78.947999999999993
 21
51.324300000000001
 31
0.0
  0
LINE
  5
4DA
  8
_________2
 62
     7
 10
76.2684
 20
51.324300000000001
 30
0.0
 11
76.520499999999998
 21
51.324300000000001
 31
0.0
  0
LINE
  5
4DB
  8
_________2
 62
     7
 10
76.2684
 20
50.832399999999993
 30
0.0
 11
76.2684
 21
48.645400000000002
 31
0.0
  0
LINE
  5
4DC
  8
_________2
 62
     7
 10
76.2684
 20
51.324300000000001
 30
0.0
 11
76.2684
 21
51.072800000000001
 31
0.0
  0
LINE
  5
4DD
  8
_________2
 62
     7
 10
79.979399999999984
 20
50.104799999999997
 30
0.0
 11
85.157399999999996
 21
49.240000000000002
 31
0.0
  0
LINE
  5
4DE
  8
_________2
 62
     7
 10
79.979399999999984
 20
52.543900000000001
 30
0.0
 11
85.157399999999996
 21
53.409300000000002
 31
0.0
  0
LINE
  5
4DF
  8
_________2
 62
     7
 10
85.157399999999996
 20
49.240000000000002
 30
0.0
 11
85.157399999999996
 21
53.409300000000002
 31
0.0
  0
LINE
  5
4E0
  8
_________2
 62
     7
 10
79.979399999999984
 20
50.104799999999997
 30
0.0
 11
79.979399999999984
 21
52.543900000000001
 31
0.0
  0
ARC
  5
4E1
  8
_________2
 62
     7
 10
76.222110000000001
 20
51.277366999999991
 30
0.0
 40
1.2673709999999989
 50
2.1232950000000002
 51
87.909056000000007
  0
ARC
  5
4E2
  8
_________2
 62
     7
 10
76.315273000000005
 20
51.277400999999998
 30
0.0
 40
1.267363
 50
92.121785999999986
 51
177.878185
  0
ARC
  5
4E3
  8
_________2
 62
     7
 10
76.315273000000005
 20
51.371245999999992
 30
0.0
 40
1.267363
 50
182.12181499999991
 51
267.87821400000001
  0
ARC
  5
4E4
  8
_________2
 62
     7
 10
76.221461000000005
 20
51.371928999999987
 30
0.0
 40
1.2680439999999991
 50
272.11916400000001
 51
357.84848499999993
  0
ARC
  5
4E5
  8
_________2
 62
     7
 10
76.268349999999984
 20
51.324323
 30
0.0
 40
2.0849849999999992
 50
0.00001
 51
89.999980000000008
  0
ARC
  5
4E6
  8
_________2
 62
     7
 10
76.348388
 20
51.245001999999992
 30
0.0
 40
2.1657860000000002
 50
92.117855000000034
 51
177.90105299999991
  0
ARC
  5
4E7
  8
_________2
 62
     7
 10
76.348354
 20
51.404327000000002
 30
0.0
 40
2.1657779999999991
 50
182.11700400000001
 51
267.88302499999992
  0
ARC
  5
4E8
  8
_________2
 62
     7
 10
76.188378999999983
 20
51.405009999999997
 30
0.0
 40
2.1664590000000001
 50
272.11546800000002
 51
357.86560400000002
  0
TEXT
  5
4E9
  8
_________2
 62
     7
 10
109.5439999999999
 20
23.199100000000001
 30
0.0
 40
3.0923400000000001
  1
図番
 41
0.5
  0
LINE
  5
4EA
  8
_________2
 62
     7
 10
108.4889999999999
 20
27.4283
 30
0.0
 11
188.49000000000001
 21
27.4283
 31
0.0
  0
TEXT
  5
4EB
  8
_________2
 62
     7
 10
109.5439999999999
 20
33.198900000000002
 30
0.0
 40
3.0923400000000001
  1
品番
 41
0.5
  0
TEXT
  5
4EC
  8
_________2
 62
     7
 10
109.5439999999999
 20
53.337699999999998
 30
0.0
 40
3.0923400000000001
  1
名称
 41
0.5
  0
TEXT
  5
4ED
  8
_________2
 62
     7
 10
96.784058333333334
 20
48.341500000000011
 30
0.0
 40
3.6545800000000002
  1
mm
 41
0.5
 72
     1
 11
98.306799999999996
 21
48.341500000000011
 31
0.0
  0
TEXT
  5
4EE
  8
_________2
 62
     7
 10
90.582099999999997
 20
53.337699999999998
 30
0.0
 40
3.0923400000000001
  1
単位
 41
0.5
  0
TEXT
  5
4EF
  8
_________2
 62
     7
 10
90.582099999999997
 20
40.930399999999999
 30
0.0
 40
3.0923400000000001
  1
尺度
 41
0.5
  0
TEXT
  5
4F0
  8
_________2
 62
     7
 10
95.487658666666675
 20
34.73749999999999
 30
0.0
 40
3.6545800000000002
  1
1 ： 3
 41
0.5
 72
     1
 11
98.898600000000002
 21
34.73749999999999
 31
0.0
  0
TEXT
  5
4F1
  8
_________2
 62
     7
 10
143.2414
 20
30.627400000000002
 30
0.0
 40
3.9357000000000002
  1
CET144
 41
0.5
 72
     1
 11
148.489
 21
30.627400000000002
 31
0.0
  0
TEXT
  5
4F2
  8
_________2
 62
     7
 10
143.2414
 20
20.626999999999988
 30
0.0
 40
3.9357000000000002
  1
CET144
 41
0.5
 72
     1
 11
148.489
 21
20.626999999999988
 31
0.0
  0
TEXT
  5
4F3
  8
_________2
 62
     7
 10
114.11799999999999
 20
45.7453
 30
0.0
 40
3.9357000000000002
  1
ストレート止水栓
 41
0.5
  0
TEXT
  5
4F4
  8
_________2
 62
     7
 10
44.303290666666669
 20
35.122599999999991
 30
0.0
 40
3.6545800000000002
  1
高橋
 41
0.5
 72
     1
 11
46.252400000000002
 21
35.122599999999991
 31
0.0
  0
TEXT
  5
4F5
  8
_________2
 62
     7
 10
25.72929066666666
 20
35.122599999999991
 30
0.0
 40
3.6545800000000002
  1
石原
 41
0.5
 72
     1
 11
27.6784
 21
35.122599999999991
 31
0.0
  0
TEXT
  5
4F6
  8
_________2
 62
     7
 10
72.724699999999999
 20
34.73749999999999
 30
0.0
 40
3.6545800000000002
  1
07.11.05
 41
0.5
  0
TEXT
  5
4F7
  8
_________2
 62
     7
 10
71.531999999999996
 20
40.930399999999999
 30
0.0
 40
3.0923400000000001
  1
日付
 41
0.5
  0
TEXT
  5
4F8
  8
_________2
 62
     7
 10
34.578299999999992
 20
40.930399999999999
 30
0.0
 40
3.0923400000000001
  1
検図
 41
0.5
  0
TEXT
  5
4F9
  8
_________2
 62
     7
 10
22.960000000000001
 20
26.730999999999991
 30
0.0
 40
3.0923400000000001
  1
備考
 41
0.5
  0
TEXT
  5
4FA
  8
_________2
 62
     7
 10
22.960000000000001
 20
40.930399999999999
 30
0.0
 40
3.0923400000000001
  1
製図
 41
0.5
  0
TEXT
  5
4FB
  8
_________2
 62
     7
 10
28.727365333333339
 20
49.456400000000002
 30
0.0
 40
4.4979399999999989
  1
セラトレーディング株式会社
 41
0.5
 72
     1
 11
46.119399999999992
 21
49.456400000000002
 31
0.0
  0
LINE
  5
4FC
  8
_________2
 62
     7
 10
188.49000000000001
 20
17.428499999999989
 30
0.0
 11
21.988499999999991
 21
17.428499999999989
 31
0.0
  0
LINE
  5
4FD
  8
_________2
 62
     7
 10
21.988499999999991
 20
17.428499999999989
 30
0.0
 11
21.988499999999991
 21
280.42999999999989
 31
0.0
  0
LINE
  5
4FE
  8
_________2
 62
     7
 10
21.988499999999991
 20
280.42999999999989
 30
0.0
 11
188.49000000000001
 21
280.42999999999989
 31
0.0
  0
LINE
  5
4FF
  8
_________2
 62
     7
 10
188.49000000000001
 20
280.42999999999989
 30
0.0
 11
188.49000000000001
 21
17.428499999999989
 31
0.0
  0
LINE
  5
500
  8
_________2
 62
     7
 10
70.488799999999998
 20
30.9285
 30
0.0
 11
70.488799999999998
 21
57.428400000000011
 31
0.0
  0
LINE
  5
501
  8
_________2
 62
     7
 10
89.488600000000005
 20
30.9285
 30
0.0
 11
89.488600000000005
 21
57.428400000000011
 31
0.0
  0
LINE
  5
502
  8
_________2
 62
     7
 10
108.4889999999999
 20
17.428499999999989
 30
0.0
 11
108.4889999999999
 21
57.428400000000011
 31
0.0
  0
LINE
  5
503
  8
_________2
 62
     7
 10
33.488300000000002
 20
30.9285
 30
0.0
 11
33.488300000000002
 21
44.928800000000003
 31
0.0
  0
LINE
  5
504
  8
_________2
 62
     7
 10
21.988499999999991
 20
30.9285
 30
0.0
 11
108.4889999999999
 21
30.9285
 31
0.0
  0
LINE
  5
505
  8
_________2
 62
     7
 10
21.988499999999991
 20
44.928800000000003
 30
0.0
 11
108.4889999999999
 21
44.928800000000003
 31
0.0
  0
LINE
  5
506
  8
_________2
 62
     7
 10
108.4889999999999
 20
37.428100000000001
 30
0.0
 11
188.49000000000001
 21
37.428100000000001
 31
0.0
  0
LINE
  5
507
  8
_________2
 62
     7
 10
21.988499999999991
 20
57.428400000000011
 30
0.0
 11
188.49000000000001
 21
57.428400000000011
 31
0.0
  0
ENDSEC
  0
EOF
