  0
SECTION
  2
HEADER
  9
$ACADVER
  1
AC1009
  9
$INSBASE
 10
0.0
 20
0.0
 30
0.0
  9
$EXTMIN
 10
0.238058
 20
0.4482100000000001
 30
0.0
  9
$EXTMAX
 10
210.24000000000001
 20
297.44999999999987
 30
0.0
  9
$LIMMIN
 10
0.0
 20
0.0
  9
$LIMMAX
 10
12.0
 20
9.0
  9
$ORTHOMODE
 70
     0
  9
$REGENMODE
 70
     1
  9
$FILLMODE
 70
     1
  9
$QTEXTMODE
 70
     0
  9
$MIRRTEXT
 70
     1
  9
$DRAGMODE
 70
     2
  9
$LTSCALE
 40
1.0
  9
$OSMODE
 70
    37
  9
$ATTMODE
 70
     1
  9
$TEXTSIZE
 40
0.0
  9
$TRACEWID
 40
0.05
  9
$TEXTSTYLE
  7
STANDARD
  9
$CLAYER
  8
0
  9
$CELTYPE
  6
CONTINUOUS
  9
$CECOLOR
 62
   256
  9
$DIMSCALE
 40
1.0
  9
$DIMASZ
 40
0.18
  9
$DIMEXO
 40
0.0625
  9
$DIMDLI
 40
0.38
  9
$DIMRND
 40
0.0
  9
$DIMDLE
 40
0.0
  9
$DIMEXE
 40
0.18
  9
$DIMTP
 40
0.0
  9
$DIMTM
 40
0.0
  9
$DIMTXT
 40
0.18
  9
$DIMCEN
 40
0.09
  9
$DIMTSZ
 40
0.0
  9
$DIMTOL
 70
     0
  9
$DIMLIM
 70
     0
  9
$DIMTIH
 70
     1
  9
$DIMTOH
 70
     1
  9
$DIMSE1
 70
     0
  9
$DIMSE2
 70
     0
  9
$DIMTAD
 70
     0
  9
$DIMZIN
 70
     0
  9
$DIMBLK
  1

  9
$DIMASO
 70
     1
  9
$DIMSHO
 70
     1
  9
$DIMPOST
  1

  9
$DIMAPOST
  1

  9
$DIMALT
 70
     0
  9
$DIMALTD
 70
     2
  9
$DIMALTF
 40
25.399999999999999
  9
$DIMLFAC
 40
1.0
  9
$DIMTOFL
 70
     0
  9
$DIMTVP
 40
0.0
  9
$DIMTIX
 70
     0
  9
$DIMSOXD
 70
     0
  9
$DIMSAH
 70
     0
  9
$DIMBLK1
  1

  9
$DIMBLK2
  1

  9
$DIMSTYLE
  2
STANDARD
  9
$DIMCLRD
 70
     0
  9
$DIMCLRE
 70
     0
  9
$DIMCLRT
 70
     0
  9
$DIMTFAC
 40
1.0
  9
$DIMGAP
 40
0.09
  9
$LUNITS
 70
     2
  9
$LUPREC
 70
     4
  9
$SKETCHINC
 40
0.1
  9
$FILLETRAD
 40
0.0
  9
$AUNITS
 70
     0
  9
$AUPREC
 70
     0
  9
$MENU
  1
.
  9
$ELEVATION
 40
0.0
  9
$PELEVATION
 40
0.0
  9
$THICKNESS
 40
0.0
  9
$LIMCHECK
 70
     0
  9
$BLIPMODE
 70
     0
  9
$CHAMFERA
 40
0.0
  9
$CHAMFERB
 40
0.0
  9
$SKPOLY
 70
     0
  9
$TDCREATE
 40
2444972.375
  9
$TDUPDATE
 40
2454458.2898784722
  9
$TDINDWG
 40
0.0000107639
  9
$TDUSRTIMER
 40
0.0000107639
  9
$USRTIMER
 70
     1
  9
$ANGBASE
 50
0.0
  9
$ANGDIR
 70
     0
  9
$PDMODE
 70
     0
  9
$PDSIZE
 40
0.0
  9
$PLINEWID
 40
0.0
  9
$COORDS
 70
     1
  9
$SPLFRAME
 70
     0
  9
$SPLINETYPE
 70
     6
  9
$SPLINESEGS
 70
     8
  9
$ATTDIA
 70
     0
  9
$ATTREQ
 70
     1
  9
$HANDLING
 70
     1
  9
$HANDSEED
  5
518
  9
$SURFTAB1
 70
     6
  9
$SURFTAB2
 70
     6
  9
$SURFTYPE
 70
     6
  9
$SURFU
 70
     6
  9
$SURFV
 70
     6
  9
$UCSNAME
  2

  9
$UCSORG
 10
0.0
 20
0.0
 30
0.0
  9
$UCSXDIR
 10
1.0
 20
0.0
 30
0.0
  9
$UCSYDIR
 10
0.0
 20
1.0
 30
0.0
  9
$PUCSNAME
  2

  9
$PUCSORG
 10
0.0
 20
0.0
 30
0.0
  9
$PUCSXDIR
 10
1.0
 20
0.0
 30
0.0
  9
$PUCSYDIR
 10
0.0
 20
1.0
 30
0.0
  9
$USERI1
 70
     0
  9
$USERI2
 70
     0
  9
$USERI3
 70
     0
  9
$USERI4
 70
     0
  9
$USERI5
 70
     0
  9
$USERR1
 40
0.0
  9
$USERR2
 40
0.0
  9
$USERR3
 40
0.0
  9
$USERR4
 40
0.0
  9
$USERR5
 40
0.0
  9
$WORLDVIEW
 70
     1
  9
$SHADEDGE
 70
     3
  9
$SHADEDIF
 70
    70
  9
$TILEMODE
 70
     1
  9
$MAXACTVP
 70
    48
  9
$PLIMCHECK
 70
     0
  9
$PEXTMIN
 10
1.0000000000000000E+020
 20
1.0000000000000000E+020
 30
1.0000000000000000E+020
  9
$PEXTMAX
 10
-1.0000000000000000E+020
 20
-1.0000000000000000E+020
 30
-1.0000000000000000E+020
  9
$PLIMMIN
 10
0.0
 20
0.0
  9
$PLIMMAX
 10
12.0
 20
9.0
  9
$UNITMODE
 70
     0
  9
$VISRETAIN
 70
     1
  9
$PLINEGEN
 70
     0
  9
$PSLTSCALE
 70
     1
  0
ENDSEC
  0
SECTION
  2
TABLES
  0
TABLE
  2
VPORT
 70
     2
  0
VPORT
  2
*ACTIVE
 70
     0
 10
0.0
 20
0.0
 11
1.0
 21
1.0
 12
200.31472981708251
 22
148.72499999999991
 13
0.0
 23
0.0
 14
1.0
 24
1.0
 15
0.0
 25
0.0
 16
0.0
 26
0.0
 36
1.0
 17
0.0
 27
0.0
 37
0.0
 40
299.79212598425192
 41
2.2894736842105261
 42
50.0
 43
0.0
 44
0.0
 50
0.0
 51
0.0
 71
     0
 72
   100
 73
     1
 74
     1
 75
     0
 76
     0
 77
     0
 78
     0
  0
ENDTAB
  0
TABLE
  2
LTYPE
 70
     2
  0
LTYPE
  2
CONTINUOUS
 70
     0
  3
Solid line
 72
    65
 73
     0
 40
0.0
  0
LTYPE
  2
AIGENLINE001
 70
     0
  3
generate AI->DXF Converter
 72
    65
 73
     4
 40
5.8561449999999988
 49
3.5278
 49
-0.776115
 49
0.776115
 49
-0.776115
  0
ENDTAB
  0
TABLE
  2
LAYER
 70
     2
  0
LAYER
  2
0
 70
     0
 62
     7
  6
CONTINUOUS
  0
LAYER
  2
_________2
 70
     0
 62
     7
  6
CONTINUOUS
  0
ENDTAB
  0
TABLE
  2
STYLE
 70
     1
  0
STYLE
  2
STANDARD
 70
     0
 40
0.0
 41
0.0
 50
0.0
 71
     0
 42
0.0
  3
TXT
  4
EXTFONT.SHX
  0
ENDTAB
  0
TABLE
  2
VIEW
 70
     0
  0
ENDTAB
  0
TABLE
  2
UCS
 70
     0
  0
ENDTAB
  0
TABLE
  2
APPID
 70
     1
  0
APPID
  2
ACAD
 70
     0
  0
ENDTAB
  0
TABLE
  2
DIMSTYLE
 70
     1
  0
DIMSTYLE
  2
STANDARD
 70
     0
  3

  4

  5

  6

  7

 40
1.0
 41
0.18
 42
0.0625
 43
0.38
 44
0.18
 45
0.0
 46
0.0
 47
0.0
 48
0.0
140
0.18
141
0.09
142
0.0
143
25.399999999999999
144
1.0
145
0.0
146
1.0
147
0.09
 71
     0
 72
     0
 73
     1
 74
     1
 75
     0
 76
     0
 77
     0
 78
     0
170
     0
171
     2
172
     0
173
     0
174
     0
175
     0
176
     0
177
     0
178
     0
  0
ENDTAB
  0
ENDSEC
  0
SECTION
  2
BLOCKS
  0
BLOCK
  8
0
  2
$MODEL_SPACE
 70
     0
 10
0.0
 20
0.0
 30
0.0
  3
$MODEL_SPACE
  1

  0
ENDBLK
  5
1A
  8
0
  0
BLOCK
 67
     1
  8
0
  2
$PAPER_SPACE
 70
     0
 10
0.0
 20
0.0
 30
0.0
  3
$PAPER_SPACE
  1

  0
ENDBLK
  5
17
 67
     1
  8
0
  0
ENDSEC
  0
SECTION
  2
ENTITIES
  0
TEXT
  5
22
  8
0
 62
     7
 10
137.23099999999991
 20
139.32143999999991
 30
0.0
 40
3.0923400000000001
  1
486
 50
90.0
 41
0.5
 72
     1
 11
137.23099999999991
 21
141.3829999999999
 31
0.0
  0
TEXT
  5
23
  8
0
 62
     7
 10
137.23099999999991
 20
211.31852499999991
 30
0.0
 40
3.0923400000000001
  1
45
 50
90.0
 41
0.5
 72
     1
 11
137.23099999999991
 21
212.60699999999991
 31
0.0
  0
TEXT
  5
24
  8
0
 62
     7
 10
143.48400000000001
 20
146.3251349999999
 30
0.0
 40
3.0923400000000001
  1
531
 50
90.0
 41
0.5
 72
     1
 11
143.48400000000001
 21
148.12899999999991
 31
0.0
  0
TEXT
  5
25
  8
0
 62
     7
 10
111.114
 20
217.75099999999989
 30
0.0
 40
3.0923400000000001
  1
26六角
 41
0.5
  0
TEXT
  5
26
  8
0
 62
     7
 10
150.06944799999991
 20
196.58199999999991
 30
0.0
 40
3.0923400000000001
  1
ストレーナ
 41
0.5
 72
     2
 11
158.72799999999989
 21
196.58199999999991
 31
0.0
  0
TEXT
  5
27
  8
0
 62
     7
 10
133.56739799999991
 20
223.07400000000001
 30
0.0
 40
3.0923400000000001
  1
G 1/2
 41
0.5
 72
     2
 11
139.649
 21
223.07400000000001
 31
0.0
  0
TEXT
  5
28
  8
0
 62
     7
 10
109.9439999999999
 20
183.2359999999999
 30
0.0
 40
3.0923400000000001
  1
L=470
 41
0.5
  0
TEXT
  5
29
  8
0
 62
     7
 10
114.50012099999989
 20
224.59700000000001
 30
0.0
 40
3.0923400000000001
  1
最大65
 41
0.5
 72
     1
 11
117.64399999999991
 21
224.59700000000001
 31
0.0
  0
TEXT
  5
2A
  8
0
 62
     7
 10
123.26428749999999
 20
76.038899999999984
 30
0.0
 40
3.0923400000000001
  1
%%c60
 41
0.5
 72
     1
 11
125.197
 21
76.038899999999984
 31
0.0
  0
TEXT
  5
2B
  8
0
 62
     7
 10
109.41799999999991
 20
80.304299999999998
 30
0.0
 40
3.0923400000000001
  1
R 1/2
 41
0.5
  0
LINE
  5
2C
  8
0
 62
     7
 10
76.9465
 20
212.39400000000001
 30
0.0
 11
77.010900000000007
 21
212.393
 31
0.0
  0
ARC
  5
2D
  8
0
 62
     7
 10
73.623093999999995
 20
215.000564
 30
0.0
 40
2.6071919999999991
 50
270.07782099999991
 51
271.47483399999987
  0
ARC
  5
2E
  8
0
 62
     7
 10
77.459654999999998
 20
214.64872
 30
0.0
 40
0.8623799999999999
 50
45.063982999999993
 51
57.381059999999998
  0
ARC
  5
2F
  8
0
 62
     7
 10
77.020681999999994
 20
213.95637199999999
 30
0.0
 40
1.6821589999999991
 50
57.499361999999998
 51
90.331612000000007
  0
ARC
  5
30
  8
0
 62
     7
 10
76.765570999999994
 20
214.194108
 30
0.0
 40
1.425081
 50
95.903844999999976
 51
131.6354629999999
  0
ARC
  5
31
  8
0
 62
     7
 10
76.998353000000009
 20
212.950177
 30
0.0
 40
2.6883550000000001
 50
89.7316
 51
98.112301000000016
  0
ARC
  5
32
  8
0
 62
     7
 10
77.475623999999996
 20
213.36118099999999
 30
0.0
 40
0.8404219999999998
 50
302.85422399999999
 51
314.89175399999988
  0
ARC
  5
33
  8
0
 62
     7
 10
77.034677000000002
 20
214.05943300000001
 30
0.0
 40
1.6662279999999989
 50
269.18395299999992
 51
302.56592000000001
  0
ARC
  5
34
  8
0
 62
     7
 10
73.166296000000003
 20
213.36529400000001
 30
0.0
 40
0.846399
 50
225.09658899999991
 51
237.61305699999991
  0
ARC
  5
35
  8
0
 62
     7
 10
73.605285999999992
 20
214.0692049999999
 30
0.0
 40
1.6759660000000001
 50
237.8296069999999
 51
270.72987699999987
  0
ARC
  5
36
  8
0
 62
     7
 10
73.181031000000004
 20
214.64535299999989
 30
0.0
 40
0.8669579999999999
 50
122.6787939999999
 51
134.92417
  0
ARC
  5
37
  8
0
 62
     7
 10
73.616596999999999
 20
213.95699099999999
 30
0.0
 40
1.6815409999999991
 50
89.657989000000015
 51
122.50686399999999
  0
ARC
  5
38
  8
0
 62
     7
 10
73.873902999999984
 20
214.196348
 30
0.0
 40
1.4221479999999991
 50
48.36159
 51
83.715738000000002
  0
ARC
  5
39
  8
0
 62
     7
 10
73.640534000000002
 20
212.97710499999991
 30
0.0
 40
2.661433999999999
 50
81.594579999999993
 51
90.299228999999997
  0
LINE
  5
3A
  8
0
 62
     7
 10
78.5685
 20
212.76599999999999
 30
0.0
 11
78.318399999999997
 21
212.393
 31
0.0
  0
LINE
  5
3B
  8
0
 62
     7
 10
72.318700000000007
 20
212.393
 30
0.0
 11
72.068600000000004
 21
212.76599999999999
 31
0.0
  0
LINE
  5
3C
  8
0
 62
     7
 10
78.5685
 20
215.13900000000001
 30
0.0
 11
78.5685
 21
212.76599999999999
 31
0.0
  0
LINE
  5
3D
  8
0
 62
     7
 10
72.068600000000004
 20
212.76599999999999
 30
0.0
 11
72.068600000000004
 21
215.13900000000001
 31
0.0
  0
LINE
  5
3E
  8
0
 62
     7
 10
72.068600000000004
 20
212.76599999999999
 30
0.0
 11
72.568799999999996
 21
212.76599999999999
 31
0.0
  0
LINE
  5
3F
  8
0
 62
     7
 10
78.068799999999996
 20
212.76599999999999
 30
0.0
 11
78.5685
 21
212.76599999999999
 31
0.0
  0
LINE
  5
40
  8
0
 62
     7
 10
78.068799999999996
 20
215.25899999999999
 30
0.0
 11
78.5685
 21
215.25899999999999
 31
0.0
  0
LINE
  5
41
  8
0
 62
     7
 10
72.068600000000004
 20
215.25899999999999
 30
0.0
 11
72.568799999999996
 21
215.25899999999999
 31
0.0
  0
LINE
  5
42
  8
0
 62
     7
 10
72.068600000000004
 20
215.13900000000001
 30
0.0
 11
72.068600000000004
 21
215.25899999999999
 31
0.0
  0
LINE
  5
43
  8
0
 62
     7
 10
77.780900000000003
 20
215.63900000000001
 30
0.0
 11
78.5685
 21
215.25899999999999
 31
0.0
  0
LINE
  5
44
  8
0
 62
     7
 10
72.068600000000004
 20
215.25899999999999
 30
0.0
 11
72.856099999999998
 21
215.63900000000001
 31
0.0
  0
LINE
  5
45
  8
0
 62
     7
 10
72.856099999999998
 20
215.63900000000001
 30
0.0
 11
77.780900000000003
 21
215.63900000000001
 31
0.0
  0
LINE
  5
46
  8
0
 62
     7
 10
78.5685
 20
215.13900000000001
 30
0.0
 11
78.5685
 21
215.25899999999999
 31
0.0
  0
LINE
  5
47
  8
0
 62
     7
 10
74.818799999999996
 20
215.25899999999999
 30
0.0
 11
75.818799999999996
 21
215.25899999999999
 31
0.0
  0
LINE
  5
48
  8
0
 62
     7
 10
72.568799999999996
 20
215.25899999999999
 30
0.0
 11
72.568799999999996
 21
212.76599999999999
 31
0.0
  0
LINE
  5
49
  8
0
 62
     7
 10
74.818799999999996
 20
214.54900000000001
 30
0.0
 11
74.818799999999996
 21
215.25899999999999
 31
0.0
  0
LINE
  5
4A
  8
0
 62
     7
 10
75.818799999999996
 20
215.25899999999999
 30
0.0
 11
75.818799999999996
 21
214.54900000000001
 31
0.0
  0
LINE
  5
4B
  8
0
 62
     7
 10
78.068799999999996
 20
212.76599999999999
 30
0.0
 11
78.068799999999996
 21
215.25899999999999
 31
0.0
  0
LINE
  5
4C
  8
0
 62
     7
 10
72.318700000000007
 20
212.393
 30
0.0
 11
73.689899999999994
 21
212.393
 31
0.0
  0
LINE
  5
4D
  8
0
 62
     7
 10
76.946899999999999
 20
212.393
 30
0.0
 11
78.318399999999997
 21
212.393
 31
0.0
  0
ARC
  5
4E
  8
0
 62
     7
 10
75.709896999999998
 20
255.84437999999989
 30
0.0
 40
3.1252019999999998
 50
321.33947899999998
 51
51.334983999999999
  0
ARC
  5
4F
  8
0
 62
     7
 10
75.705768999999975
 20
255.84869900000001
 30
0.0
 40
3.1311239999999998
 50
308.67505699999992
 51
321.32495299999999
  0
ARC
  5
50
  8
0
 62
     7
 10
74.926991999999998
 20
255.84437999999989
 30
0.0
 40
3.1252009999999988
 50
128.66497599999991
 51
218.66056099999989
  0
ARC
  5
51
  8
0
 62
     7
 10
74.931122000000002
 20
255.84869900000001
 30
0.0
 40
3.1311239999999998
 50
218.6750669999999
 51
231.324963
  0
ARC
  5
52
  8
0
 62
     7
 10
75.302396000000002
 20
255.844313
 30
0.0
 40
3.5161019999999992
 50
351.82511
 51
8.1748899999999995
  0
LINE
  5
53
  8
0
 62
     7
 10
78.782799999999995
 20
255.34399999999999
 30
0.0
 11
77.483800000000002
 21
253.09399999999999
 31
0.0
  0
ARC
  5
54
  8
0
 62
     7
 10
75.322486999999995
 20
255.838008
 30
0.0
 40
3.4925959999999989
 50
291.76751300000001
 51
308.22669100000002
  0
LINE
  5
55
  8
0
 62
     7
 10
76.617699999999999
 20
252.59399999999999
 30
0.0
 11
74.019400000000005
 21
252.59399999999999
 31
0.0
  0
LINE
  5
56
  8
0
 62
     7
 10
77.483800000000002
 20
258.59399999999988
 30
0.0
 11
78.782799999999995
 21
256.34399999999988
 31
0.0
  0
ARC
  5
57
  8
0
 62
     7
 10
75.313888000000006
 20
255.83684500000001
 30
0.0
 40
3.508735999999999
 50
51.802168999999999
 51
68.186531999999985
  0
LINE
  5
58
  8
0
 62
     7
 10
74.019400000000005
 20
259.09399999999988
 30
0.0
 11
76.617699999999999
 21
259.09399999999988
 31
0.0
  0
LINE
  5
59
  8
0
 62
     7
 10
71.854299999999995
 20
256.34399999999988
 30
0.0
 11
73.153300000000002
 21
258.59399999999988
 31
0.0
  0
ARC
  5
5A
  8
0
 62
     7
 10
75.318894
 20
255.84351100000001
 30
0.0
 40
3.5009559999999991
 50
111.788949
 51
128.2124399999999
  0
ARC
  5
5B
  8
0
 62
     7
 10
75.334659000000002
 20
255.844313
 30
0.0
 40
3.5160930000000001
 50
171.82507100000001
 51
188.17492899999991
  0
LINE
  5
5C
  8
0
 62
     7
 10
73.153300000000002
 20
253.09399999999999
 30
0.0
 11
71.854299999999995
 21
255.34399999999999
 31
0.0
  0
ARC
  5
5D
  8
0
 62
     7
 10
75.324196999999998
 20
255.85542100000001
 30
0.0
 40
3.5123349999999989
 50
231.82360299999999
 51
248.19210200000001
  0
ARC
  5
5E
  8
0
 62
     7
 10
75.318445999999994
 20
255.844312
 30
0.0
 40
3.2564120000000001
 50
89.998485000000002
 51
179.99845500000001
  0
ARC
  5
5F
  8
0
 62
     7
 10
75.318531000000007
 20
255.8443979999999
 30
0.0
 40
3.2564969999999991
 50
179.99996999999991
 51
270.00002000000001
  0
ARC
  5
60
  8
0
 62
     7
 10
75.318531000000007
 20
255.84439900000001
 30
0.0
 40
3.2564980000000001
 50
270.00002000000001
 51
359.99998999999991
  0
ARC
  5
61
  8
0
 62
     7
 10
75.318617000000003
 20
255.844312
 30
0.0
 40
3.2564120000000001
 50
0.001525
 51
90.001496000000003
  0
LINE
  5
62
  8
0
  6
AIGENLINE001
 62
     7
 10
66.723100000000002
 20
255.845
 30
0.0
 11
84.090800000000016
 21
255.845
 31
0.0
  0
ARC
  5
63
  8
0
 62
     7
 10
71.194749000000002
 20
252.61953699999989
 30
0.0
 40
1.126229999999999
 50
3.9145559999999988
 51
5.2332849999999986
  0
ARC
  5
64
  8
0
 62
     7
 10
77.962956000000005
 20
253.111683
 30
0.0
 40
5.6600839999999986
 50
183.68302600000001
 51
183.94516299999989
  0
ARC
  5
65
  8
0
 62
     7
 10
73.580852000000007
 20
252.86240499999991
 30
0.0
 40
1.2714389999999991
 50
183.98988399999999
 51
185.15799699999991
  0
ARC
  5
66
  8
0
 62
     7
 10
74.354383999999996
 20
252.93666499999989
 30
0.0
 40
2.0483630000000002
 50
183.83186000000001
 51
184.556544
  0
ARC
  5
67
  8
0
 62
     7
 10
60.898318000000003
 20
251.89979600000001
 30
0.0
 40
11.447713999999991
 50
4.509053999999999
 51
4.638787999999999
  0
ARC
  5
68
  8
0
 62
     7
 10
77.955205000000007
 20
253.215036
 30
0.0
 40
5.6600839999999986
 50
183.68302600000001
 51
183.94516299999989
  0
ARC
  5
69
  8
0
 62
     7
 10
73.573100999999994
 20
252.96575799999991
 30
0.0
 40
1.2714389999999991
 50
183.98988399999999
 51
185.15799699999991
  0
ARC
  5
6A
  8
0
 62
     7
 10
73.977215000000001
 20
253.0107799999999
 30
0.0
 40
1.677791
 50
183.6610739999999
 51
184.56342199999989
  0
ARC
  5
6B
  8
0
 62
     7
 10
82.474778000000001
 20
253.73040299999991
 30
0.0
 40
10.205473
 50
184.50117800000001
 51
184.64670399999989
  0
ARC
  5
6C
  8
0
 62
     7
 10
71.144773000000001
 20
252.85000600000001
 30
0.0
 40
1.1587369999999999
 50
3.9330539999999998
 51
5.2147870000000003
  0
ARC
  5
6D
  8
0
 62
     7
 10
69.031115
 20
252.75045999999989
 30
0.0
 40
3.2740149999999999
 50
3.587483999999999
 51
4.0406649999999988
  0
ARC
  5
6E
  8
0
 62
     7
 10
85.041380000000004
 20
254.01371499999999
 30
0.0
 40
12.786148999999989
 50
184.51586399999999
 51
184.63201799999999
  0
ARC
  5
6F
  8
0
 62
     7
 10
70.514964000000006
 20
252.8894589999999
 30
0.0
 40
1.783836999999999
 50
3.778108
 51
4.6102569999999998
  0
ARC
  5
70
  8
0
 62
     7
 10
71.137022000000002
 20
252.95336
 30
0.0
 40
1.1587369999999999
 50
3.9330539999999998
 51
5.2147870000000003
  0
ARC
  5
71
  8
0
 62
     7
 10
69.023363000000003
 20
252.853814
 30
0.0
 40
3.2740149999999999
 50
3.587483999999999
 51
4.0406649999999988
  0
ARC
  5
72
  8
0
 62
     7
 10
85.033628000000007
 20
254.11706799999999
 30
0.0
 40
12.786148999999989
 50
184.51586399999999
 51
184.63201799999999
  0
ARC
  5
73
  8
0
 62
     7
 10
70.507213000000007
 20
252.99281199999999
 30
0.0
 40
1.783836999999999
 50
3.778108
 51
4.6102569999999998
  0
ARC
  5
74
  8
0
 62
     7
 10
71.129269999999991
 20
253.056713
 30
0.0
 40
1.1587369999999999
 50
3.9330539999999998
 51
5.2147870000000003
  0
ARC
  5
75
  8
0
 62
     7
 10
14.966189
 20
248.58967100000001
 30
0.0
 40
57.49910899999999
 50
4.561005999999999
 51
4.5868349999999989
  0
ARC
  5
76
  8
0
 62
     7
 10
74.916758999999999
 20
253.37655299999989
 30
0.0
 40
2.6423610000000002
 50
183.53333699999999
 51
184.09485100000001
  0
ARC
  5
77
  8
0
 62
     7
 10
73.446838999999997
 20
253.3201029999999
 30
0.0
 40
1.1722549999999989
 50
183.9404649999999
 51
185.20741599999991
  0
ARC
  5
78
  8
0
 62
     7
 10
73.712282000000002
 20
253.35776199999989
 30
0.0
 40
1.439789
 50
183.6787009999999
 51
184.70970299999991
  0
ARC
  5
79
  8
0
 62
     7
 10
60.863177999999998
 20
252.3654029999999
 30
0.0
 40
11.447713999999991
 50
4.509053999999999
 51
4.638787999999999
  0
ARC
  5
7A
  8
0
 62
     7
 10
74.909008
 20
253.479907
 30
0.0
 40
2.6423610000000002
 50
183.53333699999999
 51
184.09485100000001
  0
ARC
  5
7B
  8
0
 62
     7
 10
73.537960999999996
 20
253.431366
 30
0.0
 40
1.2714389999999991
 50
183.98988399999999
 51
185.15799699999991
  0
ARC
  5
7C
  8
0
 62
     7
 10
73.704530000000005
 20
253.461116
 30
0.0
 40
1.439789
 50
183.6787009999999
 51
184.70970299999991
  0
ARC
  5
7D
  8
0
 62
     7
 10
60.855426000000001
 20
252.4687569999999
 30
0.0
 40
11.447713999999991
 50
4.509053999999999
 51
4.638787999999999
  0
ARC
  5
7E
  8
0
 62
     7
 10
71.109633000000002
 20
253.31509700000001
 30
0.0
 40
1.1587369999999999
 50
3.9330539999999998
 51
5.2147870000000003
  0
ARC
  5
7F
  8
0
 62
     7
 10
69.529445999999993
 20
253.251116
 30
0.0
 40
2.7393649999999998
 50
3.5432600000000001
 51
4.0848889999999987
  0
ARC
  5
80
  8
0
 62
     7
 10
85.006238999999994
 20
254.47880599999999
 30
0.0
 40
12.786148999999989
 50
184.51586399999999
 51
184.63201799999999
  0
ARC
  5
81
  8
0
 62
     7
 10
70.668129000000008
 20
253.36835799999989
 30
0.0
 40
1.5950319999999989
 50
3.7288559999999999
 51
4.659508999999999
  0
ARC
  5
82
  8
0
 62
     7
 10
71.101881999999989
 20
253.41845099999989
 30
0.0
 40
1.1587369999999999
 50
3.9330539999999998
 51
5.2147870000000003
  0
ARC
  5
83
  8
0
 62
     7
 10
69.521693999999997
 20
253.35446899999991
 30
0.0
 40
2.7393649999999998
 50
3.5432600000000001
 51
4.0848889999999987
  0
ARC
  5
84
  8
0
 62
     7
 10
65.846395000000001
 20
253.049992
 30
0.0
 40
6.4271529999999988
 50
4.4583830000000004
 51
4.6894589999999994
  0
ARC
  5
85
  8
0
 62
     7
 10
70.660378000000009
 20
253.471712
 30
0.0
 40
1.5950319999999989
 50
3.7288559999999999
 51
4.659508999999999
  0
ARC
  5
86
  8
0
 62
     7
 10
73.391843999999992
 20
253.70562100000001
 30
0.0
 40
1.146463999999999
 50
183.92621399999999
 51
185.22166799999991
  0
ARC
  5
87
  8
0
 62
     7
 10
60.835788999999998
 20
252.72714099999999
 30
0.0
 40
11.447713999999991
 50
4.509053999999999
 51
4.638787999999999
  0
ARC
  5
88
  8
0
 62
     7
 10
75.532496999999992
 20
253.88232500000001
 30
0.0
 40
3.294487999999999
 50
183.53588300000001
 51
183.99222599999999
  0
ARC
  5
89
  8
0
 62
     7
 10
73.354253
 20
253.7809419999999
 30
0.0
 40
1.11463
 50
183.907714
 51
185.2401669999999
  0
ARC
  5
8A
  8
0
 62
     7
 10
73.869179000000003
 20
253.83727999999991
 30
0.0
 40
1.6323350000000001
 50
183.73950999999991
 51
184.64889500000001
  0
ARC
  5
8B
  8
0
 62
     7
 10
106.707106
 20
256.50116400000002
 30
0.0
 40
34.577944000000002
 50
184.5524649999999
 51
184.59541599999989
  0
ARC
  5
8C
  8
0
 62
     7
 10
75.653331999999992
 20
253.99730600000001
 30
0.0
 40
3.4235470000000001
 50
183.59740099999991
 51
184.030788
  0
ARC
  5
8D
  8
0
 62
     7
 10
73.346502000000001
 20
253.88429600000001
 30
0.0
 40
1.11463
 50
183.907714
 51
185.2401669999999
  0
LINE
  5
8E
  8
0
 62
     7
 10
72.234499999999997
 20
253.80799999999991
 30
0.0
 11
72.232399999999998
 21
253.834
 31
0.0
  0
ARC
  5
8F
  8
0
 62
     7
 10
70.301147
 20
253.70553699999999
 30
0.0
 40
1.935527999999999
 50
3.8107169999999999
 51
4.5776479999999991
  0
ARC
  5
90
  8
0
 62
     7
 10
71.110146999999998
 20
253.784064
 30
0.0
 40
1.1229249999999991
 50
3.8780709999999998
 51
5.2094440000000004
  0
ARC
  5
91
  8
0
 62
     7
 10
64.975623999999996
 20
253.41547799999989
 30
0.0
 40
7.2680569999999998
 50
3.7120030000000002
 51
3.9161449999999989
  0
ARC
  5
92
  8
0
 62
     7
 10
84.971098999999995
 20
254.94441299999991
 30
0.0
 40
12.786148999999989
 50
184.51586399999999
 51
184.63201799999999
  0
ARC
  5
93
  8
0
 62
     7
 10
69.826885000000004
 20
253.77485200000001
 30
0.0
 40
2.4032830000000001
 50
3.8853519999999988
 51
4.503013000000001
  0
ARC
  5
94
  8
0
 62
     7
 10
71.066742000000005
 20
253.88405800000001
 30
0.0
 40
1.1587369999999999
 50
3.9330539999999998
 51
5.2147870000000003
  0
ARC
  5
95
  8
0
 62
     7
 10
64.967872999999997
 20
253.51883100000001
 30
0.0
 40
7.2680569999999998
 50
3.7120030000000002
 51
3.9161449999999989
  0
ARC
  5
96
  8
0
 62
     7
 10
84.963347999999996
 20
255.04776699999991
 30
0.0
 40
12.786148999999989
 50
184.51586399999999
 51
184.63201799999999
  0
ARC
  5
97
  8
0
 62
     7
 10
73.250968
 20
254.1367799999999
 30
0.0
 40
1.038497
 50
183.85887
 51
185.28901099999999
  0
ARC
  5
98
  8
0
 62
     7
 10
73.649753000000004
 20
254.1851069999999
 30
0.0
 40
1.439789
 50
183.6787009999999
 51
184.70970299999991
  0
ARC
  5
99
  8
0
 62
     7
 10
82.384859999999989
 20
254.91948500000001
 30
0.0
 40
10.205473
 50
184.50117800000001
 51
184.64670399999989
  0
ARC
  5
9A
  8
0
 62
     7
 10
74.846479000000002
 20
254.30725199999989
 30
0.0
 40
2.6423610000000002
 50
183.53333699999999
 51
184.09485100000001
  0
ARC
  5
9B
  8
0
 62
     7
 10
73.243217000000001
 20
254.24013400000001
 30
0.0
 40
1.038497
 50
183.85887
 51
185.28901099999999
  0
ARC
  5
9C
  8
0
 62
     7
 10
73.642001000000008
 20
254.2884609999999
 30
0.0
 40
1.439789
 50
183.6787009999999
 51
184.70970299999991
  0
ARC
  5
9D
  8
0
 62
     7
 10
82.377108000000007
 20
255.022839
 30
0.0
 40
10.205473
 50
184.50117800000001
 51
184.64670399999989
  0
ARC
  5
9E
  8
0
 62
     7
 10
71.047104000000004
 20
254.1424419999999
 30
0.0
 40
1.1587369999999999
 50
3.9330539999999998
 51
5.2147870000000003
  0
ARC
  5
9F
  8
0
 62
     7
 10
69.466917000000009
 20
254.07846099999989
 30
0.0
 40
2.7393649999999998
 50
3.5432600000000001
 51
4.0848889999999987
  0
ARC
  5
A0
  8
0
 62
     7
 10
84.943710999999993
 20
255.30615099999989
 30
0.0
 40
12.786148999999989
 50
184.51586399999999
 51
184.63201799999999
  0
ARC
  5
A1
  8
0
 62
     7
 10
70.605599999999995
 20
254.1957029999999
 30
0.0
 40
1.5950319999999989
 50
3.7288559999999999
 51
4.659508999999999
  0
ARC
  5
A2
  8
0
 62
     7
 10
71.230979000000005
 20
254.26112599999999
 30
0.0
 40
0.966513
 50
3.8055889999999999
 51
5.3422519999999993
  0
ARC
  5
A3
  8
0
 62
     7
 10
89.730649
 20
251.7964419999999
 30
0.0
 40
11.447713999999991
 50
175.3611919999999
 51
175.49092699999991
  0
ARC
  5
A4
  8
0
 62
     7
 10
79.219987000000003
 20
252.66329899999999
 30
0.0
 40
0.9014829999999999
 50
174.6022989999999
 51
176.24982
  0
ARC
  5
A5
  8
0
 62
     7
 10
81.056629999999984
 20
252.57880099999991
 30
0.0
 40
2.7393649999999998
 50
175.9150909999999
 51
176.45672099999999
  0
ARC
  5
A6
  8
0
 62
     7
 10
84.731928999999994
 20
252.27432400000001
 30
0.0
 40
6.4271529999999988
 50
175.31052099999999
 51
175.541597
  0
ARC
  5
A7
  8
0
 62
     7
 10
79.917946000000001
 20
252.69604399999989
 30
0.0
 40
1.5950319999999989
 50
175.34047100000001
 51
176.27112500000001
  0
ARC
  5
A8
  8
0
 62
     7
 10
79.227738000000002
 20
252.76665299999991
 30
0.0
 40
0.9014829999999999
 50
174.6022989999999
 51
176.24982
  0
ARC
  5
A9
  8
0
 62
     7
 10
81.064381000000012
 20
252.68215499999999
 30
0.0
 40
2.7393649999999998
 50
175.9150909999999
 51
176.45672099999999
  0
ARC
  5
AA
  8
0
 62
     7
 10
32.268321
 20
256.50338599999992
 30
0.0
 40
46.206155999999993
 50
355.49900400000001
 51
355.53178500000001
  0
ARC
  5
AB
  8
0
 62
     7
 10
79.770479000000009
 20
252.8017339999999
 30
0.0
 40
1.440046999999999
 50
174.91038900000001
 51
175.94173000000001
  0
ARC
  5
AC
  8
0
 62
     7
 10
76.901182999999989
 20
253.04770199999999
 30
0.0
 40
1.439789
 50
355.29031700000002
 51
356.32131900000002
  0
ARC
  5
AD
  8
0
 62
     7
 10
135.6550269999999
 20
248.38296399999999
 30
0.0
 40
57.49910899999999
 50
175.4131449999999
 51
175.438974
  0
ARC
  5
AE
  8
0
 62
     7
 10
75.704456000000008
 20
253.16984600000001
 30
0.0
 40
2.6423610000000002
 50
355.90516899999989
 51
356.46668199999988
  0
ARC
  5
AF
  8
0
 62
     7
 10
77.174377000000007
 20
253.11339599999999
 30
0.0
 40
1.1722549999999989
 50
354.79260399999998
 51
356.05955499999988
  0
ARC
  5
B0
  8
0
 62
     7
 10
76.908934000000002
 20
253.1510549999999
 30
0.0
 40
1.439789
 50
355.29031700000002
 51
356.32131900000002
  0
ARC
  5
B1
  8
0
 62
     7
 10
135.66277799999989
 20
248.48631700000001
 30
0.0
 40
57.49910899999999
 50
175.4131449999999
 51
175.438974
  0
ARC
  5
B2
  8
0
 62
     7
 10
75.712207999999976
 20
253.2732
 30
0.0
 40
2.6423610000000002
 50
355.90516899999989
 51
356.46668199999988
  0
ARC
  5
B3
  8
0
 62
     7
 10
77.182129000000003
 20
253.21674899999999
 30
0.0
 40
1.1722549999999989
 50
354.79260399999998
 51
356.05955499999988
  0
ARC
  5
B4
  8
0
 62
     7
 10
65.607225
 20
254.168745
 30
0.0
 40
12.786148999999989
 50
355.36800199999999
 51
355.48415599999993
  0
ARC
  5
B5
  8
0
 62
     7
 10
80.133640000000014
 20
253.044489
 30
0.0
 40
1.783836999999999
 50
175.38972299999989
 51
176.22187199999991
  0
ARC
  5
B6
  8
0
 62
     7
 10
79.511583000000002
 20
253.10839000000001
 30
0.0
 40
1.1587369999999999
 50
174.78519299999991
 51
176.066926
  0
ARC
  5
B7
  8
0
 62
     7
 10
81.625241000000003
 20
253.0088439999999
 30
0.0
 40
3.2740149999999999
 50
175.959315
 51
176.412496
  0
ARC
  5
B8
  8
0
 62
     7
 10
65.614975999999999
 20
254.272099
 30
0.0
 40
12.786148999999989
 50
355.36800199999999
 51
355.48415599999993
  0
ARC
  5
B9
  8
0
 62
     7
 10
79.953085999999999
 20
253.16165099999989
 30
0.0
 40
1.5950319999999989
 50
175.34047100000001
 51
176.27112500000001
  0
ARC
  5
BA
  8
0
 62
     7
 10
79.519334000000001
 20
253.2117439999999
 30
0.0
 40
1.1587369999999999
 50
174.78519299999991
 51
176.066926
  0
ARC
  5
BB
  8
0
 62
     7
 10
81.099521999999993
 20
253.14776199999989
 30
0.0
 40
2.7393649999999998
 50
175.9150909999999
 51
176.45672099999999
  0
ARC
  5
BC
  8
0
 62
     7
 10
77.455846999999991
 20
253.4288029999999
 30
0.0
 40
0.915309
 50
354.61476399999998
 51
356.23739499999999
  0
ARC
  5
BD
  8
0
 62
     7
 10
77.102891999999997
 20
253.4830429999999
 30
0.0
 40
1.2714389999999991
 50
354.84202199999999
 51
356.01013599999987
  0
ARC
  5
BE
  8
0
 62
     7
 10
76.936323000000002
 20
253.51279299999999
 30
0.0
 40
1.439789
 50
355.29031700000002
 51
356.32131900000002
  0
ARC
  5
BF
  8
0
 62
     7
 10
89.785426999999999
 20
252.52043399999999
 30
0.0
 40
11.447713999999991
 50
175.3611919999999
 51
175.49092699999991
  0
ARC
  5
C0
  8
0
 62
     7
 10
75.739597000000003
 20
253.63493699999989
 30
0.0
 40
2.6423610000000002
 50
355.90516899999989
 51
356.46668199999988
  0
ARC
  5
C1
  8
0
 62
     7
 10
77.110643999999994
 20
253.58639599999989
 30
0.0
 40
1.2714389999999991
 50
354.84202199999999
 51
356.01013599999987
  0
ARC
  5
C2
  8
0
 62
     7
 10
76.944074000000001
 20
253.6161459999999
 30
0.0
 40
1.439789
 50
355.29031700000002
 51
356.32131900000002
  0
ARC
  5
C3
  8
0
 62
     7
 10
89.793177999999997
 20
252.62378699999999
 30
0.0
 40
11.447713999999991
 50
175.3611919999999
 51
175.49092699999991
  0
ARC
  5
C4
  8
0
 62
     7
 10
72.736290999999994
 20
253.93902799999989
 30
0.0
 40
5.6600839999999986
 50
356.05485699999991
 51
356.31699400000002
  0
ARC
  5
C5
  8
0
 62
     7
 10
77.118394999999992
 20
253.68975
 30
0.0
 40
1.2714389999999991
 50
354.84202199999999
 51
356.01013599999987
  0
ARC
  5
C6
  8
0
 62
     7
 10
84.794457999999977
 20
253.1016689999999
 30
0.0
 40
6.4271529999999988
 50
175.31052099999999
 51
175.541597
  0
ARC
  5
C7
  8
0
 62
     7
 10
79.980474999999998
 20
253.52338900000001
 30
0.0
 40
1.5950319999999989
 50
175.34047100000001
 51
176.27112500000001
  0
ARC
  5
C8
  8
0
 62
     7
 10
79.377802000000003
 20
253.58820499999999
 30
0.0
 40
0.9892089999999999
 50
174.72534400000001
 51
176.2466409999999
  0
ARC
  5
C9
  8
0
 62
     7
 10
82.145244999999989
 20
253.44195499999989
 30
0.0
 40
3.759951
 50
175.98859999999999
 51
176.38321099999999
  0
LINE
  5
CA
  8
0
 62
     7
 10
78.394499999999994
 20
253.70500000000001
 30
0.0
 11
78.396600000000007
 21
253.73099999999999
 31
0.0
  0
ARC
  5
CB
  8
0
 62
     7
 10
80.327821
 20
253.602183
 30
0.0
 40
1.935527999999999
 50
175.42233200000001
 51
176.18926300000001
  0
ARC
  5
CC
  8
0
 62
     7
 10
79.437049000000002
 20
253.68657300000001
 30
0.0
 40
1.0409440000000001
 50
174.71267
 51
176.13944900000001
  0
ARC
  5
CD
  8
0
 62
     7
 10
79.702010000000001
 20
253.6913799999999
 30
0.0
 40
1.3046619999999991
 50
174.85687599999989
 51
175.99524299999999
  0
ARC
  5
CE
  8
0
 62
     7
 10
74.987521000000001
 20
254.04898299999999
 30
0.0
 40
3.4235470000000001
 50
355.96923199999992
 51
356.40261900000002
  0
ARC
  5
CF
  8
0
 62
     7
 10
77.294351000000006
 20
253.93597299999999
 30
0.0
 40
1.11463
 50
354.75985299999991
 51
356.09230600000001
  0
ARC
  5
D0
  8
0
 62
     7
 10
76.879765000000006
 20
253.984297
 30
0.0
 40
1.531676
 50
355.345707
 51
356.32128399999988
  0
ARC
  5
D1
  8
0
 62
     7
 10
68.236356000000001
 20
254.7127779999999
 30
0.0
 40
10.205473
 50
355.35331600000001
 51
355.49884199999991
  0
ARC
  5
D2
  8
0
 62
     7
 10
75.774737000000002
 20
254.10054500000001
 30
0.0
 40
2.6423610000000002
 50
355.90516899999989
 51
356.46668199999988
  0
ARC
  5
D3
  8
0
 62
     7
 10
77.377999000000003
 20
254.0334269999999
 30
0.0
 40
1.038497
 50
354.71100799999988
 51
356.14114999999993
  0
ARC
  5
D4
  8
0
 62
     7
 10
76.979214999999996
 20
254.08175399999999
 30
0.0
 40
1.439789
 50
355.29031700000002
 51
356.32131900000002
  0
ARC
  5
D5
  8
0
 62
     7
 10
68.244107
 20
254.8161319999999
 30
0.0
 40
10.205473
 50
355.35331600000001
 51
355.49884199999991
  0
ARC
  5
D6
  8
0
 62
     7
 10
79.574111000000002
 20
253.93573499999999
 30
0.0
 40
1.1587369999999999
 50
174.78519299999991
 51
176.066926
  0
ARC
  5
D7
  8
0
 62
     7
 10
85.672979999999995
 20
253.57050799999999
 30
0.0
 40
7.2680569999999998
 50
176.08383499999999
 51
176.28797700000001
  0
ARC
  5
D8
  8
0
 62
     7
 10
65.677505000000011
 20
255.09944400000001
 30
0.0
 40
12.786148999999989
 50
355.36800199999999
 51
355.48415599999993
  0
ARC
  5
D9
  8
0
 62
     7
 10
80.821718999999973
 20
253.92988199999991
 30
0.0
 40
2.4032830000000001
 50
175.4969679999999
 51
176.11462800000001
  0
ARC
  5
DA
  8
0
 62
     7
 10
79.581862999999998
 20
254.03908899999999
 30
0.0
 40
1.1587369999999999
 50
174.78519299999991
 51
176.066926
  0
ARC
  5
DB
  8
0
 62
     7
 10
85.680731999999978
 20
253.67386200000001
 30
0.0
 40
7.2680569999999998
 50
176.08383499999999
 51
176.28797700000001
  0
ARC
  5
DC
  8
0
 62
     7
 10
65.685256999999993
 20
255.202797
 30
0.0
 40
12.786148999999989
 50
355.36800199999999
 51
355.48415599999993
  0
ARC
  5
DD
  8
0
 62
     7
 10
80.829470999999998
 20
254.0332359999999
 30
0.0
 40
2.4032830000000001
 50
175.4969679999999
 51
176.11462800000001
  0
ARC
  5
DE
  8
0
 62
     7
 10
79.589613999999983
 20
254.1424419999999
 30
0.0
 40
1.1587369999999999
 50
174.78519299999991
 51
176.066926
  0
ARC
  5
DF
  8
0
 62
     7
 10
89.847956000000011
 20
253.347779
 30
0.0
 40
11.447713999999991
 50
175.3611919999999
 51
175.49092699999991
  0
ARC
  5
E0
  8
0
 62
     7
 10
75.802125000000004
 20
254.4622819999999
 30
0.0
 40
2.6423610000000002
 50
355.90516899999989
 51
356.46668199999988
  0
ARC
  5
E1
  8
0
 62
     7
 10
77.173172999999991
 20
254.41374099999999
 30
0.0
 40
1.2714389999999991
 50
354.84202199999999
 51
356.01013599999987
  0
ARC
  5
E2
  8
0
 62
     7
 10
76.631330000000005
 20
254.471011
 30
0.0
 40
1.8160569999999989
 50
355.39712500000002
 51
356.21451000000002
  0
LINE
  5
E3
  8
0
 62
     7
 10
78.318399999999997
 20
252.69599999999991
 30
0.0
 11
78.115300000000005
 21
252.34499999999991
 31
0.0
  0
LINE
  5
E4
  8
0
 62
     7
 10
72.521799999999999
 20
252.34499999999991
 30
0.0
 11
72.318399999999997
 21
252.69599999999991
 31
0.0
  0
LINE
  5
E5
  8
0
 62
     7
 10
72.318399999999997
 20
252.34499999999991
 30
0.0
 11
78.318399999999997
 21
252.34499999999991
 31
0.0
  0
ARC
  5
E6
  8
0
 62
     7
 10
75.325126999999995
 20
266.34269399999988
 30
0.0
 40
24.279149
 50
274.25907999999993
 51
282.718256
  0
ARC
  5
E7
  8
0
 62
     7
 10
75.052933999999993
 20
264.610636
 30
0.0
 40
22.533011999999999
 50
256.95371399999988
 51
266.07061599999997
  0
ARC
  5
E8
  8
0
 62
     7
 10
70.260545999999991
 20
244.17377999999991
 30
0.0
 40
1.542805999999999
 50
188.16056299999991
 51
259.01427999999993
  0
ARC
  5
E9
  8
0
 62
     7
 10
80.376824999999997
 20
244.1735259999999
 30
0.0
 40
1.5424649999999991
 50
280.970032
 51
351.84717199999989
  0
ARC
  5
EA
  8
0
 62
     7
 10
74.962813999999995
 20
244.78489400000001
 30
0.0
 40
1.8086779999999989
 50
281.19779799999992
 51
358.43884500000001
  0
ARC
  5
EB
  8
0
 62
     7
 10
74.997496999999996
 20
244.735512
 30
0.0
 40
1.7733239999999999
 50
0.003444
 51
8.1117010000000001
  0
ARC
  5
EC
  8
0
 62
     7
 10
75.690219999999997
 20
244.78989799999999
 30
0.0
 40
1.816816999999999
 50
173.76282399999999
 51
258.328126
  0
LINE
  5
ED
  8
0
 62
     7
 10
82.030299999999997
 20
244.98599999999999
 30
0.0
 11
75.3185
 21
244.98599999999999
 31
0.0
  0
LINE
  5
EE
  8
0
 62
     7
 10
82.030299999999997
 20
244.98599999999999
 30
0.0
 11
81.903699999999986
 21
243.95500000000001
 31
0.0
  0
LINE
  5
EF
  8
0
 62
     7
 10
68.606800000000007
 20
244.98599999999999
 30
0.0
 11
75.3185
 21
244.98599999999999
 31
0.0
  0
LINE
  5
F0
  8
0
 62
     7
 10
68.606800000000007
 20
244.98599999999999
 30
0.0
 11
68.733400000000003
 21
243.95500000000001
 31
0.0
  0
LINE
  5
F1
  8
0
 62
     7
 10
74.131
 20
248.71899999999999
 30
0.0
 11
74.131
 21
244.98599999999999
 31
0.0
  0
LINE
  5
F2
  8
0
 62
     7
 10
76.506100000000004
 20
248.71899999999999
 30
0.0
 11
76.506100000000004
 21
244.98599999999999
 31
0.0
  0
LINE
  5
F3
  8
0
 62
     7
 10
73.818399999999997
 20
250.0199999999999
 30
0.0
 11
73.883600000000001
 21
250.023
 31
0.0
  0
LINE
  5
F4
  8
0
 62
     7
 10
73.883600000000001
 20
250.023
 30
0.0
 11
73.949100000000001
 21
250.0259999999999
 31
0.0
  0
LINE
  5
F5
  8
0
 62
     7
 10
73.949100000000001
 20
250.0259999999999
 30
0.0
 11
74.013199999999998
 21
250.03599999999989
 31
0.0
  0
LINE
  5
F6
  8
0
 62
     7
 10
74.013199999999998
 20
250.03599999999989
 30
0.0
 11
74.077299999999994
 21
250.0449999999999
 31
0.0
  0
LINE
  5
F7
  8
0
 62
     7
 10
74.077299999999994
 20
250.0449999999999
 30
0.0
 11
74.139300000000006
 21
250.06099999999989
 31
0.0
  0
LINE
  5
F8
  8
0
 62
     7
 10
74.139300000000006
 20
250.06099999999989
 30
0.0
 11
74.200900000000004
 21
250.07599999999999
 31
0.0
  0
ARC
  5
F9
  8
0
 62
     7
 10
99.997879000000012
 20
180.35121099999989
 30
0.0
 40
74.344373000000004
 50
110.25520299999999
 51
110.30346299999999
  0
ARC
  5
FA
  8
0
 62
     7
 10
70.166741999999999
 20
261.23240800000002
 30
0.0
 40
11.862738
 50
290.18328500000001
 51
290.48495700000001
  0
ARC
  5
FB
  8
0
 62
     7
 10
85.960104999999999
 20
226.977441
 30
0.0
 40
25.905650000000001
 50
116.56973499999999
 51
116.7048459999999
  0
ARC
  5
FC
  8
0
 62
     7
 10
71.643000000000001
 20
255.622839
 30
0.0
 40
6.1183819999999987
 50
296.49831699999999
 51
297.06750699999998
  0
ARC
  5
FD
  8
0
 62
     7
 10
81.593881999999994
 20
239.2086139999999
 30
0.0
 40
13.100208
 50
122.9094209999999
 51
123.166449
  0
ARC
  5
FE
  8
0
 62
     7
 10
68.835618000000011
 20
258.76582999999999
 30
0.0
 40
10.250752
 50
303.38603999999998
 51
303.71529600000002
  0
ARC
  5
FF
  8
0
 62
     7
 10
80.801818000000011
 20
242.88693599999991
 30
0.0
 40
9.6668660000000006
 50
130.150058
 51
130.48615599999991
  0
ARC
  5
100
  8
0
 62
     7
 10
82.814358999999996
 20
240.775824
 30
0.0
 40
12.579428
 50
130.697394
 51
130.95660899999999
  0
ARC
  5
101
  8
0
 62
     7
 10
72.180031999999997
 20
252.50423099999989
 30
0.0
 40
3.2732890000000001
 50
317.97923700000001
 51
318.93401099999988
  0
ARC
  5
102
  8
0
 62
     7
 10
69.335437999999996
 20
255.162891
 30
0.0
 40
7.1658160000000004
 50
317.84802200000001
 51
318.28495800000002
  0
ARC
  5
103
  8
0
 62
     7
 10
80.109921999999997
 20
246.86565200000001
 30
0.0
 40
6.4721640000000003
 50
146.49162799999991
 51
146.958564
  0
LINE
  5
104
  8
0
 62
     7
 10
74.713399999999993
 20
250.43899999999999
 30
0.0
 11
74.7423
 21
250.483
 31
0.0
  0
ARC
  5
105
  8
0
 62
     7
 10
85.411203000000015
 20
245.7292819999999
 30
0.0
 40
11.67983999999999
 50
155.73552699999991
 51
155.9855419999999
  0
ARC
  5
106
  8
0
 62
     7
 10
70.412091000000004
 20
252.53934199999989
 30
0.0
 40
4.7930199999999994
 50
335.20262899999989
 51
335.81357400000002
  0
ARC
  5
107
  8
0
 62
     7
 10
80.643643000000012
 20
249.047256
 30
0.0
 40
6.0553269999999992
 50
164.91005100000001
 51
165.380515
  0
ARC
  5
108
  8
0
 62
     7
 10
79.093174000000005
 20
249.49457899999999
 30
0.0
 40
4.4419570000000004
 50
164.632631
 51
165.27454900000001
  0
ARC
  5
109
  8
0
 62
     7
 10
78.177933999999993
 20
250.40956199999999
 30
0.0
 40
3.3780899999999998
 50
174.72202300000001
 51
175.54890900000001
  0
ARC
  5
10A
  8
0
 62
     7
 10
79.876403999999994
 20
250.30098299999989
 30
0.0
 40
5.079574
 50
174.70892699999999
 51
175.26480599999999
  0
ARC
  5
10B
  8
0
 62
     7
 10
81.395129999999995
 20
251.3710319999999
 30
0.0
 40
6.604118999999999
 50
184.79935599999999
 51
185.226911
  0
ARC
  5
10C
  8
0
 62
     7
 10
78.708235000000002
 20
251.17113199999989
 30
0.0
 40
3.9100039999999998
 50
184.4525999999999
 51
185.174541
  0
ARC
  5
10D
  8
0
 62
     7
 10
78.620875999999996
 20
251.91776899999991
 30
0.0
 40
3.9528999999999992
 50
194.68574099999989
 51
195.4070789999999
  0
ARC
  5
10E
  8
0
 62
     7
 10
81.307238999999996
 20
252.66806199999999
 30
0.0
 40
6.7418630000000004
 50
194.643439
 51
195.06599499999999
  0
ARC
  5
10F
  8
0
 62
     7
 10
70.893570999999994
 20
249.21930800000001
 30
0.0
 40
4.2639420000000001
 50
24.148522
 51
24.835274999999999
  0
ARC
  5
110
  8
0
 62
     7
 10
87.532021999999998
 20
256.760469
 30
0.0
 40
14.00388699999999
 50
204.03520399999999
 51
204.24372700000001
  0
ARC
  5
111
  8
0
 62
     7
 10
80.285450999999995
 20
254.740149
 30
0.0
 40
6.6553570000000004
 50
213.1514259999999
 51
213.60427000000001
  0
ARC
  5
112
  8
0
 62
     7
 10
76.709355000000002
 20
252.447124
 30
0.0
 40
2.407665999999999
 50
212.75195400000001
 51
214.00374299999999
  0
ARC
  5
113
  8
0
 62
     7
 10
78.708205000000007
 20
254.7806159999999
 30
0.0
 40
5.4232250000000004
 50
221.523774
 51
222.102462
  0
ARC
  5
114
  8
0
 62
     7
 10
81.322149999999993
 20
257.13569000000001
 30
0.0
 40
8.9415380000000013
 50
221.36863799999989
 51
221.71815499999991
  0
ARC
  5
115
  8
0
 62
     7
 10
76.250670999999997
 20
253.19343399999991
 30
0.0
 40
2.5604580000000001
 50
228.93601399999989
 51
230.202021
  0
ARC
  5
116
  8
0
 62
     7
 10
69.38431700000001
 20
245.254197
 30
0.0
 40
7.9361499999999987
 50
49.211999999999989
 51
49.623007999999992
  0
ARC
  5
117
  8
0
 62
     7
 10
79.159959999999984
 20
258.41672799999992
 30
0.0
 40
8.4927700000000002
 50
236.53145099999989
 51
236.92758299999991
  0
ARC
  5
118
  8
0
 62
     7
 10
67.860680000000002
 20
241.37466199999989
 30
0.0
 40
11.954876999999991
 50
56.400199000000001
 51
56.683208999999998
  0
ARC
  5
119
  8
0
 62
     7
 10
76.786274000000006
 20
256.19663300000002
 30
0.0
 40
5.3770930000000003
 50
243.33104800000001
 51
243.97624500000001
  0
ARC
  5
11A
  8
0
 62
     7
 10
88.089495999999997
 20
278.80674199999987
 30
0.0
 40
30.655134999999991
 50
243.305621
 51
243.41979900000001
  0
ARC
  5
11B
  8
0
 62
     7
 10
67.866943000000006
 20
234.10057900000001
 30
0.0
 40
18.480964
 50
69.569058999999996
 51
69.762698999999998
  0
ARC
  5
11C
  8
0
 62
     7
 10
46.683267000000001
 20
176.8996239999999
 30
0.0
 40
79.47846899999999
 50
69.698075000000003
 51
69.743218999999996
  0
ARC
  5
11D
  8
0
 62
     7
 10
68.206699999999984
 20
227.74904699999999
 30
0.0
 40
24.459213999999999
 50
75.813981999999996
 51
75.96293399999999
  0
ARC
  5
11E
  8
0
 62
     7
 10
72.16815600000001
 20
243.975809
 30
0.0
 40
7.7567019999999998
 50
75.278708999999992
 51
75.751806999999999
  0
ARC
  5
11F
  8
0
 62
     7
 10
74.83569399999999
 20
256.65772399999997
 30
0.0
 40
5.2192199999999991
 50
260.93273999999991
 51
261.644406
  0
ARC
  5
120
  8
0
 62
     7
 10
82.155348000000004
 20
307.81960199999997
 30
0.0
 40
56.901434000000002
 50
261.70797299999992
 51
261.77317299999999
  0
ARC
  5
121
  8
0
 62
     7
 10
75.863816
 20
292.62734999999992
 30
0.0
 40
41.158884999999991
 50
267.24241499999988
 51
267.33363800000001
  0
ARC
  5
122
  8
0
 62
     7
 10
71.691447999999994
 20
206.04714699999991
 30
0.0
 40
45.521793999999993
 50
87.239729999999994
 51
87.321993999999975
  0
LINE
  5
123
  8
0
 62
     7
 10
76.818399999999997
 20
250.0199999999999
 30
0.0
 11
76.900000000000006
 21
250.023
 31
0.0
  0
LINE
  5
124
  8
0
 62
     7
 10
76.900000000000006
 20
250.023
 30
0.0
 11
76.981700000000004
 21
250.0259999999999
 31
0.0
  0
LINE
  5
125
  8
0
 62
     7
 10
76.981700000000004
 20
250.0259999999999
 30
0.0
 11
77.061800000000005
 21
250.03599999999989
 31
0.0
  0
LINE
  5
126
  8
0
 62
     7
 10
77.061800000000005
 20
250.03599999999989
 30
0.0
 11
77.141900000000007
 21
250.0449999999999
 31
0.0
  0
LINE
  5
127
  8
0
 62
     7
 10
77.141900000000007
 20
250.0449999999999
 30
0.0
 11
77.219399999999993
 21
250.06099999999989
 31
0.0
  0
LINE
  5
128
  8
0
 62
     7
 10
77.219399999999993
 20
250.06099999999989
 30
0.0
 11
77.296700000000001
 21
250.07599999999999
 31
0.0
  0
ARC
  5
129
  8
0
 62
     7
 10
92.087756999999996
 20
200.2035129999999
 30
0.0
 40
52.020004999999998
 50
106.4347269999999
 51
106.519012
  0
ARC
  5
12A
  8
0
 62
     7
 10
86.794561000000016
 20
218.36935899999989
 30
0.0
 40
33.098858999999997
 50
106.41063699999999
 51
106.543103
  0
ARC
  5
12B
  8
0
 62
     7
 10
82.786501000000001
 20
236.97766300000001
 30
0.0
 40
14.18676
 50
111.8289
 51
112.12447899999999
  0
ARC
  5
12C
  8
0
 62
     7
 10
75.013572999999994
 20
256.45058699999998
 30
0.0
 40
6.780225999999999
 50
291.61644699999999
 51
292.2362599999999
  0
ARC
  5
12D
  8
0
 62
     7
 10
80.35984599999999
 20
244.91295
 30
0.0
 40
5.9511229999999991
 50
117.18607799999999
 51
117.85368099999999
  0
LINE
  5
12E
  8
0
 62
     7
 10
77.640900000000002
 20
250.20699999999991
 30
0.0
 11
77.702399999999997
 21
250.239
 31
0.0
  0
ARC
  5
12F
  8
0
 62
     7
 10
80.078053999999995
 20
246.80613899999989
 30
0.0
 40
4.1748880000000002
 50
123.788197
 51
124.683226
  0
ARC
  5
130
  8
0
 62
     7
 10
70.982259999999997
 20
260.11802199999988
 30
0.0
 40
11.94802299999999
 50
304.53843000000001
 51
304.85188999999991
  0
ARC
  5
131
  8
0
 62
     7
 10
74.909390999999999
 20
253.589935
 30
0.0
 40
4.3762400000000001
 50
311.51513599999998
 51
312.31524999999988
  0
ARC
  5
132
  8
0
 62
     7
 10
73.763508000000002
 20
254.9771769999999
 30
0.0
 40
6.1740649999999997
 50
311.51175999999998
 51
312.07781899999992
  0
ARC
  5
133
  8
0
 62
     7
 10
84.801438999999988
 20
244.77093099999999
 30
0.0
 40
8.9017679999999988
 50
140.45397199999999
 51
140.82108299999999
  0
LINE
  5
134
  8
0
 62
     7
 10
77.937200000000004
 20
250.43899999999999
 30
0.0
 11
77.973299999999995
 21
250.483
 31
0.0
  0
ARC
  5
135
  8
0
 62
     7
 10
63.267389000000001
 20
258.79212000000001
 30
0.0
 40
16.891217999999991
 50
330.5315819999999
 51
330.712625
  0
ARC
  5
136
  8
0
 62
     7
 10
116.134484
 20
228.95000999999999
 30
0.0
 40
43.817034
 50
150.42625000000001
 51
150.49615199999991
  0
ARC
  5
137
  8
0
 62
     7
 10
-2.6137090000000001
 20
277.48216999999988
 30
0.0
 40
85.010034000000005
 50
341.54798099999988
 51
341.58212500000002
  0
ARC
  5
138
  8
0
 62
     7
 10
82.162469999999999
 20
249.27684300000001
 30
0.0
 40
4.3350960000000001
 50
161.23025799999999
 51
161.899809
  0
ARC
  5
139
  8
0
 62
     7
 10
81.439801000000003
 20
250.33651599999999
 30
0.0
 40
3.3984570000000001
 50
173.51572899999999
 51
174.3393199999999
  0
ARC
  5
13A
  8
0
 62
     7
 10
45.198173999999987
 20
254.31992
 30
0.0
 40
33.061452000000003
 50
353.74944299999999
 51
353.83502399999998
  0
ARC
  5
13B
  8
0
 62
     7
 10
69.596769999999992
 20
249.8727549999999
 30
0.0
 40
8.5189719999999998
 50
6.0417009999999989
 51
6.3738320000000002
  0
ARC
  5
13C
  8
0
 62
     7
 10
81.816374999999994
 20
251.23839100000001
 30
0.0
 40
3.776705999999999
 50
185.63457500000001
 51
186.383475
  0
ARC
  5
13D
  8
0
 62
     7
 10
81.984127000000001
 20
252.2030189999999
 30
0.0
 40
4.1471089999999986
 50
198.08501599999991
 51
198.78491699999989
  0
ARC
  5
13E
  8
0
 62
     7
 10
24.520467
 20
233.101865
 30
0.0
 40
56.408102999999997
 50
18.409219
 51
18.460674999999998
  0
ARC
  5
13F
  8
0
 62
     7
 10
38.273872999999988
 20
228.468288
 30
0.0
 40
45.675654999999992
 50
29.50525
 51
29.572308
  0
ARC
  5
140
  8
0
 62
     7
 10
66.474710000000002
 20
244.55279300000001
 30
0.0
 40
13.210584000000001
 50
29.262155
 51
29.493638000000001
  0
ARC
  5
141
  8
0
 62
     7
 10
83.083031999999989
 20
255.301559
 30
0.0
 40
6.6428630000000002
 50
219.22707500000001
 51
219.71787499999991
  0
ARC
  5
142
  8
0
 62
     7
 10
80.106976000000003
 20
252.92440499999989
 30
0.0
 40
2.8344629999999991
 50
218.897346
 51
220.04760400000001
  0
ARC
  5
143
  8
0
 62
     7
 10
83.048795999999996
 20
256.92457300000001
 30
0.0
 40
7.7400469999999988
 50
227.85863499999999
 51
228.3110189999999
  0
ARC
  5
144
  8
0
 62
     7
 10
83.516268999999994
 20
257.53678400000001
 30
0.0
 40
8.5078949999999995
 50
227.87904900000001
 51
228.29060399999989
  0
ARC
  5
145
  8
0
 62
     7
 10
81.111362999999997
 20
256.11966599999988
 30
0.0
 40
5.902927
 50
235.36314599999989
 51
235.99477599999989
  0
ARC
  5
146
  8
0
 62
     7
 10
91.204385999999985
 20
270.89859000000001
 30
0.0
 40
23.799392000000001
 50
235.43606799999989
 51
235.59353999999999
  0
ARC
  5
147
  8
0
 62
     7
 10
80.415267
 20
256.55389699999989
 30
0.0
 40
5.9130159999999998
 50
242.01769899999999
 51
242.69037700000001
  0
ARC
  5
148
  8
0
 62
     7
 10
86.302937000000014
 20
267.76816700000001
 30
0.0
 40
18.578846999999989
 50
241.99545000000001
 51
242.21003399999989
  0
ARC
  5
149
  8
0
 62
     7
 10
81.822486999999995
 20
262.20802999999989
 30
0.0
 40
11.643941999999999
 50
248.26914300000001
 51
248.62911500000001
  0
ARC
  5
14A
  8
0
 62
     7
 10
83.393501999999998
 20
266.065269
 30
0.0
 40
15.808755
 50
247.89068399999999
 51
248.15593599999991
  0
ARC
  5
14B
  8
0
 62
     7
 10
86.932620999999997
 20
283.63620800000001
 30
0.0
 40
33.585622000000001
 50
253.45785699999999
 51
253.58840299999989
  0
ARC
  5
14C
  8
0
 62
     7
 10
93.704821999999993
 20
306.80250000000001
 30
0.0
 40
57.72135200000001
 50
253.485151
 51
253.56111000000001
  0
ARC
  5
14D
  8
0
 62
     7
 10
44.009743
 20
85.598039999999983
 30
0.0
 40
169.17151799999991
 50
78.652163000000016
 51
78.678879000000009
  0
ARC
  5
14E
  8
0
 62
     7
 10
74.392437999999984
 20
237.9947049999999
 30
0.0
 40
13.77634599999999
 50
78.158653999999984
 51
78.487853000000001
  0
ARC
  5
14F
  8
0
 62
     7
 10
78.323127999999997
 20
261.46219100000002
 30
0.0
 40
10.038034
 50
262.78121199999998
 51
263.24182999999999
  0
ARC
  5
150
  8
0
 62
     7
 10
85.680579000000009
 20
326.07084199999991
 30
0.0
 40
75.063568000000004
 50
263.34520299999991
 51
263.40675299999992
  0
ARC
  5
151
  8
0
 62
     7
 10
73.619562000000002
 20
164.05432999999999
 30
0.0
 40
87.523293999999979
 50
87.798501999999999
 51
87.851990999999984
  0
ARC
  5
152
  8
0
 62
     7
 10
72.434055000000001
 20
134.98917399999991
 30
0.0
 40
116.6125
 50
87.805172999999996
 51
87.845318999999989
  0
ARC
  5
153
  8
0
 62
     7
 10
79.996853000000002
 20
184.08570399999991
 30
0.0
 40
67.508391000000003
 50
92.698637999999988
 51
92.753963000000013
  0
ARC
  5
154
  8
0
 62
     7
 10
73.820541000000006
 20
312.57709899999998
 30
0.0
 40
61.131360000000001
 50
272.68850900000001
 51
272.74976700000002
  0
ARC
  5
155
  8
0
 62
     7
 10
86.052932999999996
 20
186.77343699999989
 30
0.0
 40
65.413431000000003
 50
98.231068999999991
 51
98.287785
  0
ARC
  5
156
  8
0
 62
     7
 10
75.589226999999994
 20
258.076279
 30
0.0
 40
6.6534959999999996
 50
278.38497799999999
 51
278.94616300000001
  0
ARC
  5
157
  8
0
 62
     7
 10
79.293254000000005
 20
240.8435749999999
 30
0.0
 40
10.995596000000001
 50
104.3962099999999
 51
104.7282129999999
  0
ARC
  5
158
  8
0
 62
     7
 10
38.615947999999989
 20
402.87349999999998
 30
0.0
 40
156.06302099999999
 50
284.024518
 51
284.04798599999992
  0
ARC
  5
159
  8
0
 62
     7
 10
88.121155999999999
 20
219.74734599999991
 30
0.0
 40
33.799281999999998
 50
110.22625600000001
 51
110.33241
  0
ARC
  5
15A
  8
0
 62
     7
 10
65.803668000000002
 20
279.882139
 30
0.0
 40
30.343253000000001
 50
290.27515099999988
 51
290.39308999999992
  0
ARC
  5
15B
  8
0
 62
     7
 10
73.352508
 20
257.227508
 30
0.0
 40
6.521965999999999
 50
296.51592799999992
 51
297.04989499999988
  0
ARC
  5
15C
  8
0
 62
     7
 10
70.965162000000007
 20
262.09061899999989
 30
0.0
 40
11.939401999999999
 50
296.05640399999987
 51
296.34845899999988
  0
ARC
  5
15D
  8
0
 62
     7
 10
70.242700999999997
 20
260.30914300000001
 30
0.0
 40
10.752062
 50
303.39371599999998
 51
303.70762100000002
  0
ARC
  5
15E
  8
0
 62
     7
 10
74.083648999999994
 20
254.45476600000001
 30
0.0
 40
3.75021
 50
302.72887099999991
 51
303.62816499999991
  0
ARC
  5
15F
  8
0
 62
     7
 10
82.055071999999996
 20
244.372818
 30
0.0
 40
9.1276539999999997
 50
130.6312199999999
 51
130.98693599999999
  0
ARC
  5
160
  8
0
 62
     7
 10
72.788466
 20
255.08413100000001
 30
0.0
 40
5.0358159999999996
 50
309.99553500000002
 51
310.64071899999999
  0
ARC
  5
161
  8
0
 62
     7
 10
73.975493999999983
 20
253.01440500000001
 30
0.0
 40
2.720035999999999
 50
317.74578600000001
 51
318.897175
  0
ARC
  5
162
  8
0
 62
     7
 10
72.029743000000011
 20
254.69006499999989
 30
0.0
 40
5.2874080000000001
 50
317.8901259999999
 51
318.48367799999988
  0
ARC
  5
163
  8
0
 62
     7
 10
74.093162000000007
 20
252.3378919999999
 30
0.0
 40
2.209133
 50
325.94002599999999
 51
327.30431699999991
  0
ARC
  5
164
  8
0
 62
     7
 10
72.873857000000001
 20
253.0782089999999
 30
0.0
 40
3.634555999999999
 50
326.20756
 51
327.03678300000001
  0
ARC
  5
165
  8
0
 62
     7
 10
65.225515999999985
 20
255.81002799999999
 30
0.0
 40
11.67983999999999
 50
335.73554699999988
 51
335.9855609999999
  0
ARC
  5
166
  8
0
 62
     7
 10
60.941280999999996
 20
257.729377
 30
0.0
 40
16.374357
 50
335.59479099999987
 51
335.77337399999999
  0
LINE
  5
167
  8
0
 62
     7
 10
75.852500000000006
 20
250.964
 30
0.0
 11
75.839600000000004
 21
250.916
 31
0.0
  0
ARC
  5
168
  8
0
 62
     7
 10
91.551548999999994
 20
246.77895699999991
 30
0.0
 40
16.247378999999999
 50
165.2497239999999
 51
165.42490900000001
  0
ARC
  5
169
  8
0
 62
     7
 10
90.508343000000011
 20
249.5034839999999
 30
0.0
 40
14.744547000000001
 50
174.69164499999999
 51
174.88320699999991
  0
ARC
  5
16A
  8
0
 62
     7
 10
119.02879899999991
 20
247.155348
 30
0.0
 40
43.361253999999988
 50
175.15387999999999
 51
175.2189789999999
  0
ARC
  5
16B
  8
0
 62
     7
 10
55.610585999999991
 20
249.04296400000001
 30
0.0
 40
20.281445999999999
 50
4.7439599999999986
 51
4.88314
  0
ARC
  5
16C
  8
0
 62
     7
 10
92.148505
 20
252.20103900000001
 30
0.0
 40
16.392965
 50
185.18246600000001
 51
185.35296700000001
  0
ARC
  5
16D
  8
0
 62
     7
 10
87.036401999999995
 20
253.57897099999991
 30
0.0
 40
11.580244
 50
194.5397889999999
 51
194.7855779999999
  0
LINE
  5
16E
  8
0
 62
     7
 10
75.839600000000004
 20
250.624
 30
0.0
 11
75.852500000000006
 21
250.57599999999991
 31
0.0
  0
ARC
  5
16F
  8
0
 62
     7
 10
61.881579000000002
 20
244.2348089999999
 30
0.0
 40
15.342525
 50
24.22062
 51
24.411214000000001
  0
ARC
  5
170
  8
0
 62
     7
 10
63.104695999999997
 20
244.778841
 30
0.0
 40
14.00388699999999
 50
24.03518399999999
 51
24.243707000000001
  0
ARC
  5
171
  8
0
 62
     7
 10
71.780632999999995
 20
247.74085999999991
 30
0.0
 40
4.9436849999999994
 50
33.073011000000001
 51
33.682645999999998
  0
ARC
  5
172
  8
0
 62
     7
 10
69.744628000000006
 20
246.35235299999991
 30
0.0
 40
7.4077119999999992
 50
33.070901999999997
 51
33.478865999999989
  0
ARC
  5
173
  8
0
 62
     7
 10
81.890896999999995
 20
255.69254599999991
 30
0.0
 40
7.9583899999999987
 50
221.73681899999991
 51
222.1302399999999
  0
ARC
  5
174
  8
0
 62
     7
 10
84.940418999999991
 20
258.28692699999988
 30
0.0
 40
11.960957999999991
 50
221.5476229999999
 51
221.80945600000001
  0
ARC
  5
175
  8
0
 62
     7
 10
83.578729000000024
 20
259.04693300000002
 30
0.0
 40
11.547160999999999
 50
229.14459999999991
 51
229.42763500000001
  0
ARC
  5
176
  8
0
 62
     7
 10
71.470488000000003
 20
244.85748899999999
 30
0.0
 40
7.1062960000000004
 50
49.228053000000003
 51
49.683141999999997
  0
ARC
  5
177
  8
0
 62
     7
 10
67.777878999999984
 20
237.57534999999999
 30
0.0
 40
15.159751
 50
56.430114000000003
 51
56.653294000000002
  0
ARC
  5
178
  8
0
 62
     7
 10
74.047863000000007
 20
246.91587200000001
 30
0.0
 40
3.910555
 50
56.440795000000001
 51
57.299721000000012
  0
ARC
  5
179
  8
0
 62
     7
 10
78.705623000000003
 20
255.08279400000001
 30
0.0
 40
5.5064029999999988
 50
243.044884
 51
243.68053599999999
  0
ARC
  5
17A
  8
0
 62
     7
 10
73.534368999999998
 20
244.6715779999999
 30
0.0
 40
6.1183819999999987
 50
62.932493000000022
 51
63.501682999999993
  0
LINE
  5
17B
  8
0
 62
     7
 10
76.3185
 20
250.12
 30
0.0
 11
76.376999999999995
 21
250.0979999999999
 31
0.0
  0
ARC
  5
17C
  8
0
 62
     7
 10
95.341601999999995
 20
301.33249499999988
 30
0.0
 40
54.631639999999997
 50
249.68782999999999
 51
249.75350399999991
  0
LINE
  5
17D
  8
0
 62
     7
 10
76.4358
 20
250.07599999999999
 30
0.0
 11
76.497799999999984
 21
250.06099999999989
 31
0.0
  0
LINE
  5
17E
  8
0
 62
     7
 10
76.497799999999984
 20
250.06099999999989
 30
0.0
 11
76.5595
 21
250.0449999999999
 31
0.0
  0
LINE
  5
17F
  8
0
 62
     7
 10
76.5595
 20
250.0449999999999
 30
0.0
 11
76.623900000000006
 21
250.03599999999989
 31
0.0
  0
LINE
  5
180
  8
0
 62
     7
 10
76.623900000000006
 20
250.03599999999989
 30
0.0
 11
76.688000000000002
 21
250.0259999999999
 31
0.0
  0
LINE
  5
181
  8
0
 62
     7
 10
76.688000000000002
 20
250.0259999999999
 30
0.0
 11
76.753299999999996
 21
250.023
 31
0.0
  0
LINE
  5
182
  8
0
 62
     7
 10
76.753299999999996
 20
250.023
 30
0.0
 11
76.818399999999997
 21
250.0199999999999
 31
0.0
  0
ARC
  5
183
  8
0
 62
     7
 10
74.310764000000006
 20
238.32622599999991
 30
0.0
 40
13.202187
 50
92.137476000000007
 51
92.523541000000009
  0
ARC
  5
184
  8
0
 62
     7
 10
72.959530000000001
 20
269.34034800000001
 30
0.0
 40
17.841360000000002
 50
272.18768899999998
 51
272.47336799999988
  0
ARC
  5
185
  8
0
 62
     7
 10
72.824841000000006
 20
257.426244
 30
0.0
 40
5.9702440000000001
 50
277.00963100000001
 51
277.85320300000001
  0
ARC
  5
186
  8
0
 62
     7
 10
72.029721999999992
 20
262.86431399999998
 30
0.0
 40
11.46538999999999
 50
277.196866
 51
277.63697999999988
  0
ARC
  5
187
  8
0
 62
     7
 10
57.417668999999997
 20
323.21384899999998
 30
0.0
 40
73.498091000000002
 50
282.54564799999991
 51
282.61223899999999
  0
ARC
  5
188
  8
0
 62
     7
 10
67.417828999999998
 20
277.81642599999998
 30
0.0
 40
27.012587
 50
282.57552399999997
 51
282.75714799999992
  0
ARC
  5
189
  8
0
 62
     7
 10
64.993898999999999
 20
276.62590899999992
 30
0.0
 40
26.508671
 50
288.0805739999999
 51
288.25847499999992
  0
ARC
  5
18A
  8
0
 62
     7
 10
77.648938999999999
 20
237.86292
 30
0.0
 40
14.267785
 50
108.080141
 51
108.41154399999991
  0
ARC
  5
18B
  8
0
 62
     7
 10
76.796390000000002
 20
243.172346
 30
0.0
 40
9.0028100000000002
 50
113.9444169999999
 51
114.441976
  0
ARC
  5
18C
  8
0
 62
     7
 10
77.199023999999994
 20
242.062815
 30
0.0
 40
10.179925000000001
 50
113.92111
 51
114.36202
  0
ARC
  5
18D
  8
0
 62
     7
 10
77.344273000000001
 20
244.00411199999999
 30
0.0
 40
8.5226360000000003
 50
120.647667
 51
121.14159100000001
  0
ARC
  5
18E
  8
0
 62
     7
 10
69.290739000000002
 20
257.32035500000001
 30
0.0
 40
7.039555
 50
300.59565600000002
 51
301.19364100000001
  0
ARC
  5
18F
  8
0
 62
     7
 10
65.365157999999994
 20
260.58408600000001
 30
0.0
 40
11.97084499999999
 50
308.51804099999998
 51
308.84650699999992
  0
ARC
  5
190
  8
0
 62
     7
 10
64.827395999999993
 20
261.08217599999989
 30
0.0
 40
12.695935
 50
308.7085019999999
 51
309.016997
  0
ARC
  5
191
  8
0
 62
     7
 10
75.711387999999985
 20
248.44635899999989
 30
0.0
 40
4.0144459999999986
 50
137.17820699999999
 51
138.08663300000001
  0
ARC
  5
192
  8
0
 62
     7
 10
60.833213999999991
 20
261.84361599999988
 30
0.0
 40
16.006712
 50
317.74891000000002
 51
317.97591
  0
ARC
  5
193
  8
0
 62
     7
 10
-25.668883000000001
 20
312.55735600000003
 30
0.0
 40
115.9833289999999
 50
327.96232199999997
 51
327.99152900000001
  0
ARC
  5
194
  8
0
 62
     7
 10
61.865172999999999
 20
257.667327
 30
0.0
 40
12.663231
 50
328.12752099999989
 51
328.39420399999989
  0
ARC
  5
195
  8
0
 62
     7
 10
59.128277000000011
 20
255.8933419999999
 30
0.0
 40
14.35743999999999
 50
339.76945699999999
 51
339.99128100000001
  0
ARC
  5
196
  8
0
 62
     7
 10
90.071342999999999
 20
244.61401299999989
 30
0.0
 40
18.57745199999999
 50
160.128963
 51
160.30003500000001
  0
ARC
  5
197
  8
0
 62
     7
 10
66.867358999999993
 20
251.54501499999989
 30
0.0
 40
5.7528449999999989
 50
352.78625899999992
 51
353.32548100000002
  0
ARC
  5
198
  8
0
 62
     7
 10
93.569578000000007
 20
248.34963999999991
 30
0.0
 40
21.140053999999989
 50
173.282084
 51
173.42732100000001
  0
ARC
  5
199
  8
0
 62
     7
 10
38.565834000000002
 20
246.7809499999999
 30
0.0
 40
34.235753000000003
 50
6.6004369999999994
 51
6.690118
  0
ARC
  5
19A
  8
0
 62
     7
 10
62.861182999999997
 20
249.49461500000001
 30
0.0
 40
9.7899940000000001
 50
6.8539519999999996
 51
7.1678090000000001
  0
ARC
  5
19B
  8
0
 62
     7
 10
81.796054999999996
 20
253.937399
 30
0.0
 40
9.7793340000000004
 50
199.56248199999999
 51
199.88841099999999
  0
ARC
  5
19C
  8
0
 62
     7
 10
3.4698229999999999
 20
225.42198099999999
 30
0.0
 40
73.576118999999991
 50
19.976417000000001
 51
20.019955
  0
ARC
  5
19D
  8
0
 62
     7
 10
63.923375
 20
245.14458099999999
 30
0.0
 40
10.243111000000001
 50
31.574290999999992
 51
31.903983
  0
ARC
  5
19E
  8
0
 62
     7
 10
69.388520999999997
 20
248.43314699999999
 30
0.0
 40
3.8655729999999999
 50
31.584907999999999
 51
32.461240999999987
  0
LINE
  5
19F
  8
0
 62
     7
 10
72.6815
 20
250.458
 30
0.0
 11
72.72399999999999
 21
250.41099999999989
 31
0.0
  0
ARC
  5
1A0
  8
0
 62
     7
 10
10.619362999999989
 20
194.135063
 30
0.0
 40
83.809190999999984
 50
42.137560999999998
 51
42.181247999999997
  0
ARC
  5
1A1
  8
0
 62
     7
 10
69.723500000000001
 20
246.48630299999999
 30
0.0
 40
4.9291780000000003
 50
51.080703
 51
51.87153399999999
  0
ARC
  5
1A2
  8
0
 62
     7
 10
75.708423999999994
 20
253.87392299999999
 30
0.0
 40
4.5785299999999998
 50
230.88834499999999
 51
231.74714700000001
  0
ARC
  5
1A3
  8
0
 62
     7
 10
76.415323999999998
 20
256.12579499999998
 30
0.0
 40
6.8362499999999988
 50
238.79748699999999
 51
239.41325499999999
  0
ARC
  5
1A4
  8
0
 62
     7
 10
66.687269999999998
 20
239.866457
 30
0.0
 40
12.111226999999991
 50
58.586360999999997
 51
58.935195999999998
  0
ARC
  5
1A5
  8
0
 62
     7
 10
70.358114
 20
244.21265899999989
 30
0.0
 40
6.5465039999999988
 50
65.515602000000001
 51
66.201228
  0
ARC
  5
1A6
  8
0
 62
     7
 10
68.714166000000006
 20
240.37698199999991
 30
0.0
 40
10.718989000000001
 50
65.597835000000003
 51
66.015732
  0
ARC
  5
1A7
  8
0
 62
     7
 10
69.270415999999983
 20
238.019148
 30
0.0
 40
12.722837999999999
 50
71.910083
 51
72.281006000000005
  0
ARC
  5
1A8
  8
0
 62
     7
 10
36.100675000000003
 20
137.63106899999991
 30
0.0
 40
118.448825
 50
71.696698999999995
 51
71.736539000000008
  0
ARC
  5
1A9
  8
0
 62
     7
 10
93.344685999999996
 20
339.90956399999999
 30
0.0
 40
92.031886
 50
257.41954599999991
 51
257.47283199999993
  0
ARC
  5
1AA
  8
0
 62
     7
 10
70.106382999999994
 20
235.18969599999991
 30
0.0
 40
15.235417
 50
77.260431999999994
 51
77.581680000000006
  0
LINE
  5
1AB
  8
0
 62
     7
 10
73.466099999999997
 20
250.05000000000001
 30
0.0
 11
73.553399999999996
 21
250.03899999999999
 31
0.0
  0
LINE
  5
1AC
  8
0
 62
     7
 10
73.553399999999996
 20
250.03899999999999
 30
0.0
 11
73.640600000000006
 21
250.0269999999999
 31
0.0
  0
LINE
  5
1AD
  8
0
 62
     7
 10
73.640600000000006
 20
250.0269999999999
 30
0.0
 11
73.729500000000002
 21
250.023
 31
0.0
  0
LINE
  5
1AE
  8
0
 62
     7
 10
73.729500000000002
 20
250.023
 30
0.0
 11
73.818399999999997
 21
250.0199999999999
 31
0.0
  0
ARC
  5
1AF
  8
0
 62
     7
 10
74.794516999999999
 20
252.45473199999989
 30
0.0
 40
3.7744580000000001
 50
223.75553300000001
 51
253.0396549999999
  0
ARC
  5
1B0
  8
0
 62
     7
 10
75.840330000000009
 20
252.457584
 30
0.0
 40
3.7777829999999999
 50
286.97739799999999
 51
316.23287499999992
  0
LINE
  5
1B1
  8
0
 62
     7
 10
78.5685
 20
249.84399999999999
 30
0.0
 11
78.5685
 21
251.71999999999991
 31
0.0
  0
LINE
  5
1B2
  8
0
 62
     7
 10
72.068200000000004
 20
249.84399999999999
 30
0.0
 11
72.068200000000004
 21
251.71999999999991
 31
0.0
  0
LINE
  5
1B3
  8
0
 62
     7
 10
75.3309
 20
248.84399999999999
 30
0.0
 11
76.955799999999996
 21
248.84399999999999
 31
0.0
  0
LINE
  5
1B4
  8
0
 62
     7
 10
73.6935
 20
248.84399999999999
 30
0.0
 11
76.943399999999997
 21
248.84399999999999
 31
0.0
  0
LINE
  5
1B5
  8
0
 62
     7
 10
76.943399999999997
 20
248.71899999999999
 30
0.0
 11
76.943399999999997
 21
248.84399999999999
 31
0.0
  0
LINE
  5
1B6
  8
0
 62
     7
 10
72.068200000000004
 20
251.71999999999991
 30
0.0
 11
78.5685
 21
251.71999999999991
 31
0.0
  0
LINE
  5
1B7
  8
0
 62
     7
 10
73.6935
 20
248.71899999999999
 30
0.0
 11
76.943399999999997
 21
248.71899999999999
 31
0.0
  0
LINE
  5
1B8
  8
0
 62
     7
 10
73.6935
 20
248.71899999999999
 30
0.0
 11
73.6935
 21
248.84399999999999
 31
0.0
  0
LINE
  5
1B9
  8
0
 62
     7
 10
72.521799999999999
 20
251.71999999999991
 30
0.0
 11
72.521799999999999
 21
252.34499999999991
 31
0.0
  0
LINE
  5
1BA
  8
0
 62
     7
 10
78.115300000000005
 20
251.71999999999991
 30
0.0
 11
78.115300000000005
 21
252.34499999999991
 31
0.0
  0
LINE
  5
1BB
  8
0
 62
     7
 10
78.318399999999997
 20
251.71999999999991
 30
0.0
 11
78.318399999999997
 21
252.69599999999991
 31
0.0
  0
LINE
  5
1BC
  8
0
 62
     7
 10
72.318399999999997
 20
251.71999999999991
 30
0.0
 11
72.318399999999997
 21
252.69599999999991
 31
0.0
  0
LINE
  5
1BD
  8
0
  6
AIGENLINE001
 62
     7
 10
75.3185
 20
264.59399999999988
 30
0.0
 11
75.3185
 21
239.83000000000001
 31
0.0
  0
ARC
  5
1BE
  8
0
 62
     7
 10
75.072124000000002
 20
256.05474600000002
 30
0.0
 40
7.7492789999999987
 50
280.66357299999987
 51
358.44584400000002
  0
ARC
  5
1BF
  8
0
 62
     7
 10
75.318444
 20
255.84465599999999
 30
0.0
 40
7.5001079999999991
 50
359.99935199999987
 51
89.999321999999992
  0
ARC
  5
1C0
  8
0
 62
     7
 10
75.318533000000002
 20
255.84457
 30
0.0
 40
7.5001939999999996
 50
90.0
 51
179.99996999999991
  0
ARC
  5
1C1
  8
0
 62
     7
 10
75.565850999999995
 20
256.05563599999999
 30
0.0
 40
7.7503859999999989
 50
181.56053700000001
 51
259.32854099999997
  0
LINE
  5
1C2
  8
0
 62
     7
 10
77.668400000000005
 20
211.88499999999999
 30
0.0
 11
77.668400000000005
 21
212.40199999999999
 31
0.0
  0
LINE
  5
1C3
  8
0
 62
     7
 10
72.968400000000003
 20
211.88499999999999
 30
0.0
 11
72.968400000000003
 21
212.40199999999999
 31
0.0
  0
LINE
  5
1C4
  8
0
 62
     7
 10
77.918400000000005
 20
211.45099999999999
 30
0.0
 11
77.918400000000005
 21
212.40199999999999
 31
0.0
  0
LINE
  5
1C5
  8
0
 62
     7
 10
72.718299999999999
 20
211.45099999999999
 30
0.0
 11
72.718299999999999
 21
212.40199999999999
 31
0.0
  0
LINE
  5
1C6
  8
0
  6
AIGENLINE001
 62
     7
 10
75.3185
 20
81.591099999999997
 30
0.0
 11
75.3185
 21
219.16800000000001
 31
0.0
  0
ARC
  5
1C7
  8
0
 62
     7
 10
75.30454300000001
 20
213.12400699999989
 30
0.0
 40
1.5160409999999991
 50
14.72083299999999
 51
59.746661000000003
  0
ARC
  5
1C8
  8
0
 62
     7
 10
80.730963000000017
 20
203.76004999999989
 30
0.0
 40
1.50051
 50
240.01207500000001
 51
329.98981499999991
  0
ARC
  5
1C9
  8
0
 62
     7
 10
80.722857000000005
 20
203.76124799999991
 30
0.0
 40
1.5081319999999989
 50
330.10440599999993
 51
359.92298799999992
  0
ARC
  5
1CA
  8
0
 62
     7
 10
80.699887000000004
 20
203.74148500000001
 30
0.0
 40
1.5312030000000001
 50
0.6636790000000001
 51
59.320636999999998
  0
ARC
  5
1CB
  8
0
 62
     7
 10
75.316704000000001
 20
213.1300959999999
 30
0.0
 40
1.504672999999999
 50
60.029859999999992
 51
89.930408000000014
  0
ARC
  5
1CC
  8
0
 62
     7
 10
75.353445999999991
 20
190.9763769999999
 30
0.0
 40
12.381323
 50
68.052837999999994
 51
78.742105000000009
  0
ARC
  5
1CD
  8
0
 62
     7
 10
89.238018999999994
 20
214.910179
 30
0.0
 40
12.545662
 50
186.41141400000001
 51
209.95739900000001
  0
ARC
  5
1CE
  8
0
 62
     7
 10
89.219730999999996
 20
214.9175459999999
 30
0.0
 40
12.533505999999999
 50
210.028322
 51
231.87124800000001
  0
ARC
  5
1CF
  8
0
 62
     7
 10
75.325395999999984
 20
190.78273599999989
 30
0.0
 40
12.576718
 50
78.788996999999995
 51
111.7954239999999
  0
ARC
  5
1D0
  8
0
 62
     7
 10
75.25865300000001
 20
206.82458
 30
0.0
 40
1.620935
 50
2.117052999999999
 51
87.882936999999998
  0
ARC
  5
1D1
  8
0
 62
     7
 10
75.378419999999991
 20
206.82457099999991
 30
0.0
 40
1.6209450000000001
 50
92.117368999999997
 51
177.88260099999999
  0
ARC
  5
1D2
  8
0
 62
     7
 10
75.318531000000007
 20
206.88445899999999
 30
0.0
 40
1.559949
 50
179.99996999999991
 51
270.00002000000001
  0
ARC
  5
1D3
  8
0
 62
     7
 10
75.318531000000007
 20
206.88445999999999
 30
0.0
 40
1.559949
 50
270.00002000000001
 51
359.99998999999991
  0
ARC
  5
1D4
  8
0
 62
     7
 10
75.318531000000007
 20
206.88445899999999
 30
0.0
 40
1.80972
 50
0.00001
 51
89.999980000000008
  0
ARC
  5
1D5
  8
0
 62
     7
 10
75.31853199999999
 20
206.88445899999999
 30
0.0
 40
1.80972
 50
90.0
 51
179.99996999999991
  0
ARC
  5
1D6
  8
0
 62
     7
 10
75.318531000000007
 20
206.88445899999999
 30
0.0
 40
1.80972
 50
179.99996999999991
 51
270.00002000000001
  0
ARC
  5
1D7
  8
0
 62
     7
 10
75.318531000000007
 20
206.88445999999999
 30
0.0
 40
1.80972
 50
270.00002000000001
 51
359.99998999999991
  0
ARC
  5
1D8
  8
0
 62
     7
 10
97.687316000000024
 20
204.50974500000001
 30
0.0
 40
25.915979
 50
164.46329399999991
 51
171.642822
  0
ARC
  5
1D9
  8
0
 62
     7
 10
53.067932999999989
 20
204.5348249999999
 30
0.0
 40
25.795062999999999
 50
8.3403089999999995
 51
15.553535999999999
  0
ARC
  5
1DA
  8
0
 62
     7
 10
110.991579
 20
204.9434939999999
 30
0.0
 40
39.15954
 50
183.01752400000001
 51
186.29616100000001
  0
ARC
  5
1DB
  8
0
 62
     7
 10
39.627287000000003
 20
204.94462999999999
 30
0.0
 40
39.177408999999997
 50
353.70507099999992
 51
356.98271399999999
  0
ARC
  5
1DC
  8
0
 62
     7
 10
76.943506999999997
 20
196.8760979999999
 30
0.0
 40
3.766284999999999
 50
64.440172000000004
 51
115.559809
  0
ARC
  5
1DD
  8
0
 62
     7
 10
73.693556000000001
 20
196.875371
 30
0.0
 40
3.7669410000000001
 50
64.444943999999992
 51
115.555036
  0
ARC
  5
1DE
  8
0
 62
     7
 10
73.693556000000001
 20
201.92103
 30
0.0
 40
3.766284999999999
 50
244.440191
 51
295.55982799999992
  0
ARC
  5
1DF
  8
0
 62
     7
 10
76.943506999999997
 20
201.92103
 30
0.0
 40
3.766284999999999
 50
244.440191
 51
295.55982799999992
  0
LINE
  5
1E0
  8
0
 62
     7
 10
77.061800000000005
 20
211.88499999999999
 30
0.0
 11
77.918400000000005
 21
211.88499999999999
 31
0.0
  0
LINE
  5
1E1
  8
0
 62
     7
 10
75.3185
 20
200.274
 30
0.0
 11
75.3185
 21
198.52299999999991
 31
0.0
  0
LINE
  5
1E2
  8
0
 62
     7
 10
72.068200000000004
 20
200.64799999999991
 30
0.0
 11
72.068200000000004
 21
198.14799999999991
 31
0.0
  0
LINE
  5
1E3
  8
0
 62
     7
 10
78.5685
 20
200.64799999999991
 30
0.0
 11
78.5685
 21
198.14799999999991
 31
0.0
  0
LINE
  5
1E4
  8
0
 62
     7
 10
78.5685
 20
198.14799999999991
 30
0.0
 11
72.068200000000004
 21
198.14799999999991
 31
0.0
  0
LINE
  5
1E5
  8
0
 62
     7
 10
72.718299999999999
 20
211.88499999999999
 30
0.0
 11
73.575000000000003
 21
211.88499999999999
 31
0.0
  0
LINE
  5
1E6
  8
0
 62
     7
 10
77.668400000000005
 20
211.88499999999999
 30
0.0
 11
77.918400000000005
 21
211.45099999999999
 31
0.0
  0
LINE
  5
1E7
  8
0
 62
     7
 10
72.968400000000003
 20
211.88499999999999
 30
0.0
 11
72.718299999999999
 21
211.45099999999999
 31
0.0
  0
LINE
  5
1E8
  8
0
 62
     7
 10
77.853800000000007
 20
198.14799999999991
 30
0.0
 11
77.876999999999995
 21
197.399
 31
0.0
  0
LINE
  5
1E9
  8
0
 62
     7
 10
77.860500000000002
 20
197.9309999999999
 30
0.0
 11
72.776700000000005
 21
197.9309999999999
 31
0.0
  0
LINE
  5
1EA
  8
0
 62
     7
 10
77.876999999999995
 20
197.399
 30
0.0
 11
77.569599999999994
 21
197.9309999999999
 31
0.0
  0
LINE
  5
1EB
  8
0
 62
     7
 10
77.563000000000002
 20
198.14799999999991
 30
0.0
 11
77.569599999999994
 21
197.9309999999999
 31
0.0
  0
LINE
  5
1EC
  8
0
 62
     7
 10
72.760000000000005
 20
197.399
 30
0.0
 11
73.067099999999996
 21
197.9309999999999
 31
0.0
  0
LINE
  5
1ED
  8
0
 62
     7
 10
72.7834
 20
198.14799999999991
 30
0.0
 11
72.760000000000005
 21
197.399
 31
0.0
  0
LINE
  5
1EE
  8
0
 62
     7
 10
73.074200000000005
 20
198.14799999999991
 30
0.0
 11
73.067099999999996
 21
197.9309999999999
 31
0.0
  0
ARC
  5
1EF
  8
0
 62
     7
 10
69.983822000000004
 20
203.73853299999999
 30
0.0
 40
1.5581119999999999
 50
122.104758
 51
207.89513400000001
  0
ARC
  5
1F0
  8
0
 62
     7
 10
69.905878999999999
 20
203.75969299999991
 30
0.0
 40
1.50014
 50
210.00263699999999
 51
299.99069600000001
  0
ARC
  5
1F1
  8
0
 62
     7
 10
61.296645999999988
 20
214.97676399999989
 30
0.0
 40
12.654631999999999
 50
308.392447
 51
353.34061200000002
  0
LINE
  5
1F2
  8
0
  6
AIGENLINE001
 62
     7
 10
81.802899999999994
 20
206.88399999999999
 30
0.0
 11
68.6447
 21
206.88399999999999
 31
0.0
  0
ARC
  5
1F3
  8
0
 62
     7
 10
75.332759999999993
 20
213.1235629999999
 30
0.0
 40
1.5167189999999999
 50
120.263935
 51
165.268531
  0
ARC
  5
1F4
  8
0
 62
     7
 10
75.31982099999999
 20
213.13081399999999
 30
0.0
 40
1.503954
 50
90.049106999999978
 51
119.9774129999999
  0
ARC
  5
1F5
  8
0
 62
     7
 10
75.417017000000001
 20
255.745913
 30
0.0
 40
2.6588270000000001
 50
92.122768000000008
 51
177.87720200000001
  0
ARC
  5
1F6
  8
0
 62
     7
 10
75.318531000000007
 20
255.8443979999999
 30
0.0
 40
2.558516
 50
179.99996999999991
 51
270.00002000000001
  0
ARC
  5
1F7
  8
0
 62
     7
 10
75.318531000000007
 20
255.84439900000001
 30
0.0
 40
2.5585169999999988
 50
270.00002000000001
 51
359.99998999999991
  0
ARC
  5
1F8
  8
0
 62
     7
 10
75.220448000000005
 20
255.74631600000001
 30
0.0
 40
2.6584099999999991
 50
2.1144359999999991
 51
87.885554000000013
  0
ARC
  5
1F9
  8
0
 62
     7
 10
75.318359999999998
 20
255.84422599999991
 30
0.0
 40
1.5124070000000001
 50
89.993473999999992
 51
179.99344500000001
  0
ARC
  5
1FA
  8
0
 62
     7
 10
75.318531000000007
 20
255.84439900000001
 30
0.0
 40
1.5125779999999991
 50
179.99996999999991
 51
270.00002000000001
  0
ARC
  5
1FB
  8
0
 62
     7
 10
75.318531000000007
 20
255.84439900000001
 30
0.0
 40
1.5125789999999999
 50
270.00002000000001
 51
359.99998999999991
  0
ARC
  5
1FC
  8
0
 62
     7
 10
75.318703999999997
 20
255.84422599999991
 30
0.0
 40
1.5124070000000001
 50
0.006536
 51
90.006506000000002
  0
ARC
  5
1FD
  8
0
 62
     7
 10
75.367623999999992
 20
255.79530600000001
 30
0.0
 40
1.324867999999999
 50
92.123562000000007
 51
177.87640899999991
  0
ARC
  5
1FE
  8
0
 62
     7
 10
75.367591000000004
 20
255.8931
 30
0.0
 40
1.3248200000000001
 50
182.10672500000001
 51
267.87782399999998
  0
ARC
  5
1FF
  8
0
 62
     7
 10
75.318359000000001
 20
255.84422699999999
 30
0.0
 40
1.275037999999999
 50
270.00776000000002
 51
0.007731
  0
ARC
  5
200
  8
0
 62
     7
 10
75.318531000000007
 20
255.84439900000001
 30
0.0
 40
1.2748660000000001
 50
0.00001
 51
89.999980000000008
  0
ARC
  5
201
  8
0
 62
     7
 10
75.31853199999999
 20
255.84439900000001
 30
0.0
 40
1.387521
 50
90.0
 51
179.99996999999991
  0
ARC
  5
202
  8
0
 62
     7
 10
75.318531000000007
 20
255.84439900000001
 30
0.0
 40
1.387521
 50
179.99996999999991
 51
270.00002000000001
  0
ARC
  5
203
  8
0
 62
     7
 10
75.318531000000007
 20
255.84439900000001
 30
0.0
 40
1.387521
 50
270.00002000000001
 51
359.99998999999991
  0
ARC
  5
204
  8
0
 62
     7
 10
75.318531000000007
 20
255.84439900000001
 30
0.0
 40
1.387521
 50
0.00001
 51
89.999980000000008
  0
ARC
  5
205
  8
0
 62
     7
 10
75.318359999999998
 20
255.84422599999991
 30
0.0
 40
1.5000039999999999
 50
89.99342
 51
179.993391
  0
ARC
  5
206
  8
0
 62
     7
 10
75.318531000000007
 20
255.84439900000001
 30
0.0
 40
1.5001759999999991
 50
179.99996999999991
 51
270.00002000000001
  0
ARC
  5
207
  8
0
 62
     7
 10
75.318531000000007
 20
255.84439900000001
 30
0.0
 40
1.5001770000000001
 50
270.00002000000001
 51
359.99998999999991
  0
ARC
  5
208
  8
0
 62
     7
 10
75.318703999999997
 20
255.84422599999991
 30
0.0
 40
1.5000039999999999
 50
0.00659
 51
90.006559999999965
  0
LINE
  5
209
  8
0
 62
     7
 10
130.23699999999999
 20
206.88399999999999
 30
0.0
 11
138.6939999999999
 21
206.88399999999999
 31
0.0
  0
LINE
  5
20A
  8
0
 62
     7
 10
144.93299999999991
 20
215.92400000000001
 30
0.0
 11
144.34100000000001
 21
218.13499999999999
 31
0.0
  0
LINE
  5
20B
  8
0
 62
     7
 10
144.34100000000001
 20
218.13499999999999
 30
0.0
 11
143.74899999999991
 21
215.92400000000001
 31
0.0
  0
LINE
  5
20C
  8
0
 62
     7
 10
143.74899999999991
 20
215.92400000000001
 30
0.0
 11
144.93299999999991
 21
215.92400000000001
 31
0.0
  0
LINE
  5
20D
  8
0
 62
     7
 10
138.6039999999999
 20
204.67400000000001
 30
0.0
 11
138.012
 21
206.88399999999999
 31
0.0
  0
LINE
  5
20E
  8
0
 62
     7
 10
138.012
 20
206.88399999999999
 30
0.0
 11
137.4199999999999
 21
204.67400000000001
 31
0.0
  0
LINE
  5
20F
  8
0
 62
     7
 10
137.4199999999999
 20
204.67400000000001
 30
0.0
 11
138.6039999999999
 21
204.67400000000001
 31
0.0
  0
LINE
  5
210
  8
0
 62
     7
 10
138.6039999999999
 20
215.92400000000001
 30
0.0
 11
138.012
 21
218.13499999999999
 31
0.0
  0
LINE
  5
211
  8
0
 62
     7
 10
138.012
 20
218.13499999999999
 30
0.0
 11
137.4199999999999
 21
215.92400000000001
 31
0.0
  0
LINE
  5
212
  8
0
 62
     7
 10
137.4199999999999
 20
215.92400000000001
 30
0.0
 11
138.6039999999999
 21
215.92400000000001
 31
0.0
  0
LINE
  5
213
  8
0
 62
     7
 10
137.43399999999991
 20
209.09499999999991
 30
0.0
 11
138.02699999999999
 21
206.88399999999999
 31
0.0
  0
LINE
  5
214
  8
0
 62
     7
 10
138.02699999999999
 20
206.88399999999999
 30
0.0
 11
138.619
 21
209.09499999999991
 31
0.0
  0
LINE
  5
215
  8
0
 62
     7
 10
138.619
 20
209.09499999999991
 30
0.0
 11
137.43399999999991
 21
209.09499999999991
 31
0.0
  0
LINE
  5
216
  8
0
 62
     7
 10
143.74899999999991
 20
87.594499999999996
 30
0.0
 11
144.34100000000001
 21
85.384100000000004
 31
0.0
  0
LINE
  5
217
  8
0
 62
     7
 10
144.34100000000001
 20
85.384100000000004
 30
0.0
 11
144.93299999999991
 21
87.594499999999996
 31
0.0
  0
LINE
  5
218
  8
0
 62
     7
 10
144.93299999999991
 20
87.594499999999996
 30
0.0
 11
143.74899999999991
 21
87.594499999999996
 31
0.0
  0
LINE
  5
219
  8
0
 62
     7
 10
137.43399999999991
 20
87.594499999999996
 30
0.0
 11
138.02699999999999
 21
85.384100000000004
 31
0.0
  0
LINE
  5
21A
  8
0
 62
     7
 10
138.02699999999999
 20
85.384100000000004
 30
0.0
 11
138.619
 21
87.594499999999996
 31
0.0
  0
LINE
  5
21B
  8
0
 62
     7
 10
138.619
 20
87.594499999999996
 30
0.0
 11
137.43399999999991
 21
87.594499999999996
 31
0.0
  0
LINE
  5
21C
  8
0
 62
     7
 10
138.01900000000001
 20
218.13499999999999
 30
0.0
 11
138.01900000000001
 21
85.384100000000004
 31
0.0
  0
ARC
  5
21D
  8
0
 62
     7
 10
76.564668000000012
 20
78.211615000000009
 30
0.0
 40
11.258535
 50
64.684533000000002
 51
82.666473999999994
  0
ARC
  5
21E
  8
0
 62
     7
 10
80.270368000000005
 20
86.093926999999994
 30
0.0
 40
2.548484999999999
 50
0.880714
 51
65.339318000000006
  0
ARC
  5
21F
  8
0
 62
     7
 10
74.070083999999994
 20
78.218920999999995
 30
0.0
 40
11.251016
 50
97.327446999999992
 51
115.3215059999999
  0
ARC
  5
220
  8
0
 62
     7
 10
70.393175999999997
 20
86.076463000000004
 30
0.0
 40
2.5754599999999992
 50
115.0339409999999
 51
178.73990399999991
  0
LINE
  5
221
  8
0
 62
     7
 10
72.635099999999994
 20
89.378100000000003
 30
0.0
 11
75.3185
 21
89.378100000000003
 31
0.0
  0
LINE
  5
222
  8
0
 62
     7
 10
75.3185
 20
89.378100000000003
 30
0.0
 11
78.001800000000003
 21
89.378100000000003
 31
0.0
  0
LINE
  5
223
  8
0
 62
     7
 10
82.818599999999989
 20
86.133099999999999
 30
0.0
 11
82.818599999999989
 21
85.384100000000004
 31
0.0
  0
LINE
  5
224
  8
0
 62
     7
 10
67.818299999999994
 20
85.384100000000004
 30
0.0
 11
82.818599999999989
 21
85.384100000000004
 31
0.0
  0
LINE
  5
225
  8
0
 62
     7
 10
67.818299999999994
 20
86.133099999999999
 30
0.0
 11
67.818299999999994
 21
85.384100000000004
 31
0.0
  0
LINE
  5
226
  8
0
 62
     7
 10
77.7761
 20
83.187499999999986
 30
0.0
 11
77.844800000000006
 21
85.384100000000004
 31
0.0
  0
LINE
  5
227
  8
0
 62
     7
 10
77.476600000000005
 20
82.888099999999994
 30
0.0
 11
77.554599999999994
 21
85.384100000000004
 31
0.0
  0
LINE
  5
228
  8
0
 62
     7
 10
77.476600000000005
 20
82.888099999999994
 30
0.0
 11
77.7761
 21
83.187499999999986
 31
0.0
  0
LINE
  5
229
  8
0
 62
     7
 10
72.860799999999998
 20
83.187499999999986
 30
0.0
 11
72.792199999999994
 21
85.384100000000004
 31
0.0
  0
LINE
  5
22A
  8
0
 62
     7
 10
73.160200000000003
 20
82.888099999999994
 30
0.0
 11
73.082099999999997
 21
85.384100000000004
 31
0.0
  0
LINE
  5
22B
  8
0
 62
     7
 10
73.160200000000003
 20
82.888099999999994
 30
0.0
 11
72.860799999999998
 21
83.187499999999986
 31
0.0
  0
LINE
  5
22C
  8
0
 62
     7
 10
77.476600000000005
 20
82.888099999999994
 30
0.0
 11
73.160200000000003
 21
82.888099999999994
 31
0.0
  0
LINE
  5
22D
  8
0
 62
     7
 10
72.860799999999998
 20
83.187499999999986
 30
0.0
 11
77.7761
 21
83.187499999999986
 31
0.0
  0
LINE
  5
22E
  8
0
 62
     7
 10
133.4379999999999
 20
85.384100000000004
 30
0.0
 11
145.0149999999999
 21
85.384100000000004
 31
0.0
  0
LINE
  5
22F
  8
0
 62
     7
 10
127.8799999999999
 20
218.13499999999999
 30
0.0
 11
145.0149999999999
 21
218.13499999999999
 31
0.0
  0
LINE
  5
230
  8
0
 62
     7
 10
144.34100000000001
 20
218.13499999999999
 30
0.0
 11
144.34100000000001
 21
85.384100000000004
 31
0.0
  0
LINE
  5
231
  8
0
 62
     7
 10
119.5479999999999
 20
215.0749999999999
 30
0.0
 11
121.577
 21
214.01799999999989
 31
0.0
  0
LINE
  5
232
  8
0
 62
     7
 10
121.577
 20
214.01799999999989
 30
0.0
 11
120.348
 21
215.94900000000001
 31
0.0
  0
LINE
  5
233
  8
0
 62
     7
 10
120.348
 20
215.94900000000001
 30
0.0
 11
119.5479999999999
 21
215.0749999999999
 31
0.0
  0
LINE
  5
234
  8
0
 62
     7
 10
121.577
 20
214.01799999999989
 30
0.0
 11
118.364
 21
216.964
 31
0.0
  0
LINE
  5
235
  8
0
 62
     7
 10
118.364
 20
216.964
 30
0.0
 11
110.9889999999999
 21
216.964
 31
0.0
  0
LINE
  5
236
  8
0
 62
     7
 10
127.2049999999999
 20
215.26400000000001
 30
0.0
 11
126.8
 21
215.26400000000001
 31
0.0
  0
LINE
  5
237
  8
0
 62
     7
 10
127.2049999999999
 20
212.76599999999999
 30
0.0
 11
126.8
 21
212.76599999999999
 31
0.0
  0
LINE
  5
238
  8
0
 62
     7
 10
77.876999999999995
 20
217.88499999999999
 30
0.0
 11
72.760000000000005
 21
217.88499999999999
 31
0.0
  0
LINE
  5
239
  8
0
 62
     7
 10
73.009600000000006
 20
218.13499999999999
 30
0.0
 11
77.627399999999994
 21
218.13499999999999
 31
0.0
  0
LINE
  5
23A
  8
0
 62
     7
 10
77.876999999999995
 20
216.07099999999991
 30
0.0
 11
75.3185
 21
216.07099999999991
 31
0.0
  0
LINE
  5
23B
  8
0
 62
     7
 10
72.760000000000005
 20
216.07099999999991
 30
0.0
 11
75.3185
 21
216.07099999999991
 31
0.0
  0
LINE
  5
23C
  8
0
 62
     7
 10
72.760000000000005
 20
215.63900000000001
 30
0.0
 11
73.009600000000006
 21
216.07099999999991
 31
0.0
  0
LINE
  5
23D
  8
0
 62
     7
 10
72.760000000000005
 20
215.63900000000001
 30
0.0
 11
72.760000000000005
 21
217.88499999999999
 31
0.0
  0
ARC
  5
23E
  8
0
 62
     7
 10
75.407375000000002
 20
255.75555499999999
 30
0.0
 40
2.399405999999999
 50
92.121982000000017
 51
177.8779879999999
  0
ARC
  5
23F
  8
0
 62
     7
 10
75.406971999999996
 20
255.932839
 30
0.0
 40
2.3989889999999989
 50
182.11275000000001
 51
267.88727999999992
  0
ARC
  5
240
  8
0
 62
     7
 10
75.318531000000007
 20
255.84439900000001
 30
0.0
 40
2.3089179999999998
 50
270.00002000000001
 51
359.99998999999991
  0
ARC
  5
241
  8
0
 62
     7
 10
75.318531000000007
 20
255.84439900000001
 30
0.0
 40
2.3089179999999998
 50
0.00001
 51
89.999980000000008
  0
LINE
  5
242
  8
0
 62
     7
 10
73.009600000000006
 20
216.07099999999991
 30
0.0
 11
73.009600000000006
 21
218.13499999999999
 31
0.0
  0
LINE
  5
243
  8
0
 62
     7
 10
72.760000000000005
 20
217.88499999999999
 30
0.0
 11
73.009600000000006
 21
218.13499999999999
 31
0.0
  0
LINE
  5
244
  8
0
 62
     7
 10
77.876999999999995
 20
215.63900000000001
 30
0.0
 11
77.876999999999995
 21
217.88499999999999
 31
0.0
  0
LINE
  5
245
  8
0
 62
     7
 10
77.627399999999994
 20
216.07099999999991
 30
0.0
 11
77.627399999999994
 21
218.13499999999999
 31
0.0
  0
LINE
  5
246
  8
0
 62
     7
 10
77.876999999999995
 20
215.63900000000001
 30
0.0
 11
77.627399999999994
 21
216.07099999999991
 31
0.0
  0
LINE
  5
247
  8
0
 62
     7
 10
77.876999999999995
 20
217.88499999999999
 30
0.0
 11
77.627399999999994
 21
218.13499999999999
 31
0.0
  0
LINE
  5
248
  8
0
 62
     7
 10
127.7549999999999
 20
217.88499999999999
 30
0.0
 11
122.63800000000001
 21
217.88499999999999
 31
0.0
  0
LINE
  5
249
  8
0
 62
     7
 10
125.197
 20
212.393
 30
0.0
 11
128.19200000000001
 21
212.393
 31
0.0
  0
LINE
  5
24A
  8
0
 62
     7
 10
127.81699999999999
 20
215.63900000000001
 30
0.0
 11
125.197
 21
215.63900000000001
 31
0.0
  0
LINE
  5
24B
  8
0
 62
     7
 10
125.197
 20
215.63900000000001
 30
0.0
 11
128.19200000000001
 21
215.63900000000001
 31
0.0
  0
LINE
  5
24C
  8
0
 62
     7
 10
122.88799999999991
 20
218.13499999999999
 30
0.0
 11
127.506
 21
218.13499999999999
 31
0.0
  0
LINE
  5
24D
  8
0
 62
     7
 10
127.7549999999999
 20
216.07099999999991
 30
0.0
 11
125.197
 21
216.07099999999991
 31
0.0
  0
LINE
  5
24E
  8
0
 62
     7
 10
122.63800000000001
 20
216.07099999999991
 30
0.0
 11
125.197
 21
216.07099999999991
 31
0.0
  0
LINE
  5
24F
  8
0
 62
     7
 10
122.63800000000001
 20
215.63900000000001
 30
0.0
 11
122.88799999999991
 21
216.07099999999991
 31
0.0
  0
LINE
  5
250
  8
0
 62
     7
 10
122.20099999999999
 20
215.63900000000001
 30
0.0
 11
125.197
 21
215.63900000000001
 31
0.0
  0
LINE
  5
251
  8
0
 62
     7
 10
122.57599999999999
 20
215.63900000000001
 30
0.0
 11
125.197
 21
215.63900000000001
 31
0.0
  0
LINE
  5
252
  8
0
 62
     7
 10
122.63800000000001
 20
215.63900000000001
 30
0.0
 11
122.63800000000001
 21
217.88499999999999
 31
0.0
  0
LINE
  5
253
  8
0
 62
     7
 10
122.88799999999991
 20
216.07099999999991
 30
0.0
 11
122.88799999999991
 21
218.13499999999999
 31
0.0
  0
LINE
  5
254
  8
0
 62
     7
 10
122.63800000000001
 20
217.88499999999999
 30
0.0
 11
122.88799999999991
 21
218.13499999999999
 31
0.0
  0
LINE
  5
255
  8
0
 62
     7
 10
125.197
 20
212.393
 30
0.0
 11
122.20099999999999
 21
212.393
 31
0.0
  0
LINE
  5
256
  8
0
 62
     7
 10
126.8
 20
212.76599999999999
 30
0.0
 11
126.8
 21
215.26400000000001
 31
0.0
  0
ARC
  5
257
  8
0
 62
     7
 10
125.1965949999999
 20
216.09795600000001
 30
0.0
 40
3.697848
 50
244.30427099999989
 51
295.69574799999998
  0
ARC
  5
258
  8
0
 62
     7
 10
125.1965949999999
 20
211.9528049999999
 30
0.0
 40
3.679133999999999
 50
64.163942000000006
 51
115.8360379999999
  0
LINE
  5
259
  8
0
 62
     7
 10
123.1879999999999
 20
212.76599999999999
 30
0.0
 11
123.5929999999999
 21
212.76599999999999
 31
0.0
  0
LINE
  5
25A
  8
0
 62
     7
 10
123.5929999999999
 20
212.76599999999999
 30
0.0
 11
123.5929999999999
 21
215.26400000000001
 31
0.0
  0
LINE
  5
25B
  8
0
 62
     7
 10
123.1879999999999
 20
215.26400000000001
 30
0.0
 11
123.5929999999999
 21
215.26400000000001
 31
0.0
  0
LINE
  5
25C
  8
0
 62
     7
 10
123.1879999999999
 20
212.76599999999999
 30
0.0
 11
123.1879999999999
 21
215.26400000000001
 31
0.0
  0
LINE
  5
25D
  8
0
 62
     7
 10
122.20099999999999
 20
212.393
 30
0.0
 11
121.577
 21
212.768
 31
0.0
  0
ARC
  5
25E
  8
0
 62
     7
 10
122.07120500000001
 20
214.23172400000001
 30
0.0
 40
1.8429299999999991
 50
274.04064499999998
 51
307.30359599999991
  0
LINE
  5
25F
  8
0
 62
     7
 10
121.577
 20
212.768
 30
0.0
 11
121.577
 21
215.26400000000001
 31
0.0
  0
LINE
  5
260
  8
0
 62
     7
 10
122.20099999999999
 20
215.63900000000001
 30
0.0
 11
121.577
 21
215.26400000000001
 31
0.0
  0
ARC
  5
261
  8
0
 62
     7
 10
121.8962529999999
 20
213.346237
 30
0.0
 40
2.312443
 50
56.037745999999999
 51
82.425566999999987
  0
ARC
  5
262
  8
0
 62
     7
 10
128.495574
 20
213.34982999999991
 30
0.0
 40
2.3087019999999998
 50
97.552646999999965
 51
123.9839999999999
  0
ARC
  5
263
  8
0
 62
     7
 10
128.3231439999999
 20
214.2347959999999
 30
0.0
 40
1.846077
 50
232.725596
 51
265.93020300000001
  0
LINE
  5
264
  8
0
 62
     7
 10
127.7549999999999
 20
215.63900000000001
 30
0.0
 11
127.7549999999999
 21
217.88499999999999
 31
0.0
  0
LINE
  5
265
  8
0
 62
     7
 10
127.506
 20
216.07099999999991
 30
0.0
 11
127.506
 21
218.13499999999999
 31
0.0
  0
LINE
  5
266
  8
0
 62
     7
 10
127.7549999999999
 20
215.63900000000001
 30
0.0
 11
127.506
 21
216.07099999999991
 31
0.0
  0
LINE
  5
267
  8
0
 62
     7
 10
127.2049999999999
 20
212.76599999999999
 30
0.0
 11
127.2049999999999
 21
215.26400000000001
 31
0.0
  0
LINE
  5
268
  8
0
 62
     7
 10
127.7549999999999
 20
217.88499999999999
 30
0.0
 11
127.506
 21
218.13499999999999
 31
0.0
  0
LINE
  5
269
  8
0
 62
     7
 10
128.19200000000001
 20
212.393
 30
0.0
 11
128.81599999999989
 21
212.768
 31
0.0
  0
LINE
  5
26A
  8
0
 62
     7
 10
128.81599999999989
 20
212.768
 30
0.0
 11
128.81599999999989
 21
215.26400000000001
 31
0.0
  0
LINE
  5
26B
  8
0
 62
     7
 10
128.19200000000001
 20
215.63900000000001
 30
0.0
 11
128.81599999999989
 21
215.26400000000001
 31
0.0
  0
LINE
  5
26C
  8
0
 62
     7
 10
128.09999999999991
 20
211.44399999999999
 30
0.0
 11
126.0179999999999
 21
212.393
 31
0.0
  0
LINE
  5
26D
  8
0
 62
     7
 10
126.0179999999999
 20
212.393
 30
0.0
 11
127.346
 21
210.53
 31
0.0
  0
LINE
  5
26E
  8
0
 62
     7
 10
127.346
 20
210.53
 30
0.0
 11
128.09999999999991
 21
211.44399999999999
 31
0.0
  0
LINE
  5
26F
  8
0
 62
     7
 10
126.0179999999999
 20
212.393
 30
0.0
 11
146.21100000000001
 21
195.739
 31
0.0
  0
LINE
  5
270
  8
0
 62
     7
 10
146.21100000000001
 20
195.739
 30
0.0
 11
158.8249999999999
 21
195.739
 31
0.0
  0
LINE
  5
271
  8
0
 62
     7
 10
128.7579999999999
 20
219.13599999999991
 30
0.0
 11
127.7549999999999
 21
217.07900000000001
 31
0.0
  0
LINE
  5
272
  8
0
 62
     7
 10
127.7549999999999
 20
217.07900000000001
 30
0.0
 11
129.65199999999999
 21
218.35900000000001
 31
0.0
  0
LINE
  5
273
  8
0
 62
     7
 10
129.65199999999999
 20
218.35900000000001
 30
0.0
 11
128.7579999999999
 21
219.13599999999991
 31
0.0
  0
LINE
  5
274
  8
0
 62
     7
 10
127.7549999999999
 20
217.07900000000001
 30
0.0
 11
132.1699999999999
 21
222.16099999999989
 31
0.0
  0
LINE
  5
275
  8
0
 62
     7
 10
132.1699999999999
 20
222.16099999999989
 30
0.0
 11
139.71100000000001
 21
222.16099999999989
 31
0.0
  0
LINE
  5
276
  8
0
 62
     7
 10
120.51600000000001
 20
180.452
 30
0.0
 11
122.63800000000001
 21
179.59599999999989
 31
0.0
  0
LINE
  5
277
  8
0
 62
     7
 10
122.63800000000001
 20
179.59599999999989
 30
0.0
 11
121.22799999999999
 21
181.39799999999991
 31
0.0
  0
LINE
  5
278
  8
0
 62
     7
 10
121.22799999999999
 20
181.39799999999991
 30
0.0
 11
120.51600000000001
 21
180.452
 31
0.0
  0
LINE
  5
279
  8
0
 62
     7
 10
122.63800000000001
 20
179.59599999999989
 30
0.0
 11
118.839
 21
182.45400000000001
 31
0.0
  0
LINE
  5
27A
  8
0
 62
     7
 10
118.839
 20
182.45400000000001
 30
0.0
 11
109.8449999999999
 21
182.45400000000001
 31
0.0
  0
ARC
  5
27B
  8
0
 62
     7
 10
126.444219
 20
78.216945999999993
 30
0.0
 40
11.253080000000001
 50
64.679776000000004
 51
82.669655000000006
  0
ARC
  5
27C
  8
0
 62
     7
 10
130.14820900000001
 20
86.093943999999993
 30
0.0
 40
2.5487069999999989
 50
0.880269
 51
65.327597999999995
  0
ARC
  5
27D
  8
0
 62
     7
 10
123.948976
 20
78.216929000000007
 30
0.0
 40
11.253097999999991
 50
97.330340000000007
 51
115.32019
  0
ARC
  5
27E
  8
0
 62
     7
 10
120.27132899999999
 20
86.076435000000004
 30
0.0
 40
2.5753779999999988
 50
115.0285259999999
 51
178.739238
  0
LINE
  5
27F
  8
0
 62
     7
 10
122.66200000000001
 20
198.14799999999991
 30
0.0
 11
122.63800000000001
 21
197.40000000000001
 31
0.0
  0
LINE
  5
280
  8
0
 62
     7
 10
127.732
 20
198.14799999999991
 30
0.0
 11
127.7549999999999
 21
197.40000000000001
 31
0.0
  0
LINE
  5
281
  8
0
 62
     7
 10
122.95099999999999
 20
198.14799999999991
 30
0.0
 11
122.94499999999989
 21
197.9309999999999
 31
0.0
  0
LINE
  5
282
  8
0
 62
     7
 10
127.44199999999999
 20
198.14799999999991
 30
0.0
 11
127.44799999999999
 21
197.9309999999999
 31
0.0
  0
LINE
  5
283
  8
0
 62
     7
 10
122.51299999999991
 20
89.378100000000003
 30
0.0
 11
125.197
 21
89.378100000000003
 31
0.0
  0
LINE
  5
284
  8
0
 62
     7
 10
125.197
 20
89.378100000000003
 30
0.0
 11
127.8799999999999
 21
89.378100000000003
 31
0.0
  0
LINE
  5
285
  8
0
 62
     7
 10
132.69699999999989
 20
86.133099999999999
 30
0.0
 11
132.69699999999989
 21
85.384100000000004
 31
0.0
  0
LINE
  5
286
  8
0
 62
     7
 10
117.697
 20
85.384100000000004
 30
0.0
 11
132.69699999999989
 21
85.384100000000004
 31
0.0
  0
LINE
  5
287
  8
0
 62
     7
 10
117.697
 20
86.133099999999999
 30
0.0
 11
117.697
 21
85.384100000000004
 31
0.0
  0
LINE
  5
288
  8
0
 62
     7
 10
127.654
 20
83.187499999999986
 30
0.0
 11
127.723
 21
85.384100000000004
 31
0.0
  0
LINE
  5
289
  8
0
 62
     7
 10
127.3549999999999
 20
82.888099999999994
 30
0.0
 11
127.43299999999989
 21
85.384100000000004
 31
0.0
  0
LINE
  5
28A
  8
0
 62
     7
 10
127.3549999999999
 20
82.888099999999994
 30
0.0
 11
127.654
 21
83.187499999999986
 31
0.0
  0
LINE
  5
28B
  8
0
 62
     7
 10
122.7389999999999
 20
83.187499999999986
 30
0.0
 11
122.67
 21
85.384100000000004
 31
0.0
  0
LINE
  5
28C
  8
0
 62
     7
 10
123.038
 20
82.888099999999994
 30
0.0
 11
122.95999999999999
 21
85.384100000000004
 31
0.0
  0
LINE
  5
28D
  8
0
 62
     7
 10
123.038
 20
82.888099999999994
 30
0.0
 11
122.7389999999999
 21
83.187499999999986
 31
0.0
  0
LINE
  5
28E
  8
0
 62
     7
 10
127.3549999999999
 20
82.888099999999994
 30
0.0
 11
123.038
 21
82.888099999999994
 31
0.0
  0
LINE
  5
28F
  8
0
 62
     7
 10
77.876999999999995
 20
197.40000000000001
 30
0.0
 11
77.876999999999995
 21
89.378100000000003
 31
0.0
  0
LINE
  5
290
  8
0
 62
     7
 10
72.760000000000005
 20
197.40000000000001
 30
0.0
 11
72.760000000000005
 21
89.378100000000003
 31
0.0
  0
LINE
  5
291
  8
0
 62
     7
 10
127.7549999999999
 20
197.40000000000001
 30
0.0
 11
127.7549999999999
 21
89.378100000000003
 31
0.0
  0
LINE
  5
292
  8
0
 62
     7
 10
127.7549999999999
 20
197.40000000000001
 30
0.0
 11
127.44799999999999
 21
197.9309999999999
 31
0.0
  0
LINE
  5
293
  8
0
 62
     7
 10
127.7379999999999
 20
197.9309999999999
 30
0.0
 11
122.655
 21
197.9309999999999
 31
0.0
  0
LINE
  5
294
  8
0
 62
     7
 10
122.63800000000001
 20
197.40000000000001
 30
0.0
 11
122.94499999999989
 21
197.9309999999999
 31
0.0
  0
LINE
  5
295
  8
0
 62
     7
 10
122.63800000000001
 20
197.40000000000001
 30
0.0
 11
122.63800000000001
 21
89.378100000000003
 31
0.0
  0
LINE
  5
296
  8
0
 62
     7
 10
122.7389999999999
 20
83.187499999999986
 30
0.0
 11
127.654
 21
83.187499999999986
 31
0.0
  0
LINE
  5
297
  8
0
 62
     7
 10
128.69099999999989
 20
206.88399999999999
 30
0.0
 11
128.69099999999989
 21
206.94499999999991
 31
0.0
  0
LINE
  5
298
  8
0
 62
     7
 10
128.69099999999989
 20
206.94499999999991
 30
0.0
 11
128.69099999999989
 21
207.005
 31
0.0
  0
LINE
  5
299
  8
0
 62
     7
 10
128.69099999999989
 20
207.005
 30
0.0
 11
128.68999999999991
 21
207.06399999999999
 31
0.0
  0
LINE
  5
29A
  8
0
 62
     7
 10
128.68999999999991
 20
207.06399999999999
 30
0.0
 11
128.68899999999991
 21
207.125
 31
0.0
  0
LINE
  5
29B
  8
0
 62
     7
 10
128.68899999999991
 20
207.125
 30
0.0
 11
128.6879999999999
 21
207.18499999999989
 31
0.0
  0
LINE
  5
29C
  8
0
 62
     7
 10
128.6879999999999
 20
207.18499999999989
 30
0.0
 11
128.68600000000001
 21
207.24499999999989
 31
0.0
  0
LINE
  5
29D
  8
0
 62
     7
 10
128.68600000000001
 20
207.24499999999989
 30
0.0
 11
128.68399999999991
 21
207.30500000000001
 31
0.0
  0
LINE
  5
29E
  8
0
 62
     7
 10
128.68399999999991
 20
207.30500000000001
 30
0.0
 11
128.68199999999999
 21
207.36500000000001
 31
0.0
  0
LINE
  5
29F
  8
0
 62
     7
 10
128.68199999999999
 20
207.36500000000001
 30
0.0
 11
128.68000000000001
 21
207.42500000000001
 31
0.0
  0
LINE
  5
2A0
  8
0
 62
     7
 10
128.68000000000001
 20
207.42500000000001
 30
0.0
 11
128.678
 21
207.48500000000001
 31
0.0
  0
LINE
  5
2A1
  8
0
 62
     7
 10
128.678
 20
207.48500000000001
 30
0.0
 11
128.67599999999999
 21
207.54499999999999
 31
0.0
  0
LINE
  5
2A2
  8
0
 62
     7
 10
128.67599999999999
 20
207.54499999999999
 30
0.0
 11
128.673
 21
207.6049999999999
 31
0.0
  0
LINE
  5
2A3
  8
0
 62
     7
 10
128.673
 20
207.6049999999999
 30
0.0
 11
128.6699999999999
 21
207.66499999999991
 31
0.0
  0
LINE
  5
2A4
  8
0
 62
     7
 10
128.6699999999999
 20
207.66499999999991
 30
0.0
 11
128.66699999999989
 21
207.72499999999991
 31
0.0
  0
LINE
  5
2A5
  8
0
 62
     7
 10
128.66699999999989
 20
207.72499999999991
 30
0.0
 11
128.6629999999999
 21
207.785
 31
0.0
  0
LINE
  5
2A6
  8
0
 62
     7
 10
128.6629999999999
 20
207.785
 30
0.0
 11
128.65899999999991
 21
207.84399999999999
 31
0.0
  0
LINE
  5
2A7
  8
0
 62
     7
 10
128.65899999999991
 20
207.84399999999999
 30
0.0
 11
128.655
 21
207.893
 31
0.0
  0
LINE
  5
2A8
  8
0
 62
     7
 10
128.655
 20
207.893
 30
0.0
 11
128.65199999999999
 21
207.94099999999989
 31
0.0
  0
LINE
  5
2A9
  8
0
 62
     7
 10
128.65199999999999
 20
207.94099999999989
 30
0.0
 11
128.649
 21
207.989
 31
0.0
  0
LINE
  5
2AA
  8
0
 62
     7
 10
128.649
 20
207.989
 30
0.0
 11
128.64500000000001
 21
208.0379999999999
 31
0.0
  0
LINE
  5
2AB
  8
0
 62
     7
 10
128.64500000000001
 20
208.0379999999999
 30
0.0
 11
128.64099999999991
 21
208.0859999999999
 31
0.0
  0
LINE
  5
2AC
  8
0
 62
     7
 10
128.64099999999991
 20
208.0859999999999
 30
0.0
 11
128.63800000000001
 21
208.13499999999999
 31
0.0
  0
LINE
  5
2AD
  8
0
 62
     7
 10
128.63800000000001
 20
208.13499999999999
 30
0.0
 11
128.6329999999999
 21
208.18299999999999
 31
0.0
  0
LINE
  5
2AE
  8
0
 62
     7
 10
128.6329999999999
 20
208.18299999999999
 30
0.0
 11
128.62899999999991
 21
208.23099999999999
 31
0.0
  0
LINE
  5
2AF
  8
0
 62
     7
 10
128.62899999999991
 20
208.23099999999999
 30
0.0
 11
128.624
 21
208.28
 31
0.0
  0
LINE
  5
2B0
  8
0
 62
     7
 10
128.624
 20
208.28
 30
0.0
 11
128.62
 21
208.328
 31
0.0
  0
LINE
  5
2B1
  8
0
 62
     7
 10
128.62
 20
208.328
 30
0.0
 11
128.61500000000001
 21
208.37599999999989
 31
0.0
  0
LINE
  5
2B2
  8
0
 62
     7
 10
128.61500000000001
 20
208.37599999999989
 30
0.0
 11
128.61000000000001
 21
208.42400000000001
 31
0.0
  0
LINE
  5
2B3
  8
0
 62
     7
 10
128.61000000000001
 20
208.42400000000001
 30
0.0
 11
128.6049999999999
 21
208.47199999999989
 31
0.0
  0
LINE
  5
2B4
  8
0
 62
     7
 10
128.6049999999999
 20
208.47199999999989
 30
0.0
 11
128.59999999999999
 21
208.52099999999999
 31
0.0
  0
LINE
  5
2B5
  8
0
 62
     7
 10
128.59999999999999
 20
208.52099999999999
 30
0.0
 11
128.59399999999991
 21
208.56899999999999
 31
0.0
  0
LINE
  5
2B6
  8
0
 62
     7
 10
128.59399999999991
 20
208.56899999999999
 30
0.0
 11
128.58899999999991
 21
208.61699999999999
 31
0.0
  0
LINE
  5
2B7
  8
0
 62
     7
 10
128.58899999999991
 20
208.61699999999999
 30
0.0
 11
128.584
 21
208.65999999999991
 31
0.0
  0
LINE
  5
2B8
  8
0
 62
     7
 10
128.584
 20
208.65999999999991
 30
0.0
 11
128.57900000000001
 21
208.70199999999991
 31
0.0
  0
LINE
  5
2B9
  8
0
 62
     7
 10
128.57900000000001
 20
208.70199999999991
 30
0.0
 11
128.57299999999989
 21
208.745
 31
0.0
  0
LINE
  5
2BA
  8
0
 62
     7
 10
128.57299999999989
 20
208.745
 30
0.0
 11
128.5679999999999
 21
208.78700000000001
 31
0.0
  0
LINE
  5
2BB
  8
0
 62
     7
 10
128.5679999999999
 20
208.78700000000001
 30
0.0
 11
128.56100000000001
 21
208.83000000000001
 31
0.0
  0
LINE
  5
2BC
  8
0
 62
     7
 10
128.56100000000001
 20
208.83000000000001
 30
0.0
 11
128.55600000000001
 21
208.87200000000001
 31
0.0
  0
LINE
  5
2BD
  8
0
 62
     7
 10
128.55600000000001
 20
208.87200000000001
 30
0.0
 11
128.55000000000001
 21
208.9139999999999
 31
0.0
  0
LINE
  5
2BE
  8
0
 62
     7
 10
128.55000000000001
 20
208.9139999999999
 30
0.0
 11
128.54300000000001
 21
208.95699999999999
 31
0.0
  0
LINE
  5
2BF
  8
0
 62
     7
 10
128.54300000000001
 20
208.95699999999999
 30
0.0
 11
128.536
 21
208.999
 31
0.0
  0
LINE
  5
2C0
  8
0
 62
     7
 10
128.536
 20
208.999
 30
0.0
 11
128.52799999999991
 21
209.04099999999991
 31
0.0
  0
LINE
  5
2C1
  8
0
 62
     7
 10
128.52799999999991
 20
209.04099999999991
 30
0.0
 11
128.52099999999999
 21
209.08299999999991
 31
0.0
  0
LINE
  5
2C2
  8
0
 62
     7
 10
128.52099999999999
 20
209.08299999999991
 30
0.0
 11
128.51300000000001
 21
209.125
 31
0.0
  0
LINE
  5
2C3
  8
0
 62
     7
 10
128.51300000000001
 20
209.125
 30
0.0
 11
128.505
 21
209.167
 31
0.0
  0
LINE
  5
2C4
  8
0
 62
     7
 10
128.505
 20
209.167
 30
0.0
 11
128.495
 21
209.209
 31
0.0
  0
LINE
  5
2C5
  8
0
 62
     7
 10
128.495
 20
209.209
 30
0.0
 11
128.4859999999999
 21
209.25
 31
0.0
  0
LINE
  5
2C6
  8
0
 62
     7
 10
128.4859999999999
 20
209.25
 30
0.0
 11
128.476
 21
209.29199999999989
 31
0.0
  0
LINE
  5
2C7
  8
0
 62
     7
 10
128.476
 20
209.29199999999989
 30
0.0
 11
128.465
 21
209.33699999999999
 31
0.0
  0
LINE
  5
2C8
  8
0
 62
     7
 10
128.465
 20
209.33699999999999
 30
0.0
 11
128.45299999999989
 21
209.3829999999999
 31
0.0
  0
LINE
  5
2C9
  8
0
 62
     7
 10
128.45299999999989
 20
209.3829999999999
 30
0.0
 11
128.43999999999991
 21
209.42899999999989
 31
0.0
  0
LINE
  5
2CA
  8
0
 62
     7
 10
128.43999999999991
 20
209.42899999999989
 30
0.0
 11
128.42699999999999
 21
209.47399999999999
 31
0.0
  0
LINE
  5
2CB
  8
0
 62
     7
 10
128.42699999999999
 20
209.47399999999999
 30
0.0
 11
128.4129999999999
 21
209.51900000000001
 31
0.0
  0
LINE
  5
2CC
  8
0
 62
     7
 10
128.4129999999999
 20
209.51900000000001
 30
0.0
 11
128.39899999999989
 21
209.56399999999999
 31
0.0
  0
LINE
  5
2CD
  8
0
 62
     7
 10
128.39899999999989
 20
209.56399999999999
 30
0.0
 11
128.3839999999999
 21
209.60900000000001
 31
0.0
  0
LINE
  5
2CE
  8
0
 62
     7
 10
128.3839999999999
 20
209.60900000000001
 30
0.0
 11
128.36899999999989
 21
209.65299999999999
 31
0.0
  0
LINE
  5
2CF
  8
0
 62
     7
 10
128.36899999999989
 20
209.65299999999999
 30
0.0
 11
128.3539999999999
 21
209.69799999999989
 31
0.0
  0
LINE
  5
2D0
  8
0
 62
     7
 10
128.3539999999999
 20
209.69799999999989
 30
0.0
 11
128.33799999999991
 21
209.74299999999999
 31
0.0
  0
LINE
  5
2D1
  8
0
 62
     7
 10
128.33799999999991
 20
209.74299999999999
 30
0.0
 11
128.322
 21
209.78699999999989
 31
0.0
  0
LINE
  5
2D2
  8
0
 62
     7
 10
128.322
 20
209.78699999999989
 30
0.0
 11
128.30500000000001
 21
209.83199999999999
 31
0.0
  0
LINE
  5
2D3
  8
0
 62
     7
 10
128.30500000000001
 20
209.83199999999999
 30
0.0
 11
128.2889999999999
 21
209.87599999999989
 31
0.0
  0
LINE
  5
2D4
  8
0
 62
     7
 10
128.2889999999999
 20
209.87599999999989
 30
0.0
 11
128.27199999999999
 21
209.9199999999999
 31
0.0
  0
LINE
  5
2D5
  8
0
 62
     7
 10
128.27199999999999
 20
209.9199999999999
 30
0.0
 11
128.25399999999999
 21
209.964
 31
0.0
  0
LINE
  5
2D6
  8
0
 62
     7
 10
128.25399999999999
 20
209.964
 30
0.0
 11
128.238
 21
210.0079999999999
 31
0.0
  0
LINE
  5
2D7
  8
0
 62
     7
 10
128.238
 20
210.0079999999999
 30
0.0
 11
128.22
 21
210.05199999999999
 31
0.0
  0
LINE
  5
2D8
  8
0
 62
     7
 10
128.22
 20
210.05199999999999
 30
0.0
 11
128.20299999999989
 21
210.09599999999989
 31
0.0
  0
LINE
  5
2D9
  8
0
 62
     7
 10
128.20299999999989
 20
210.09599999999989
 30
0.0
 11
128.185
 21
210.1399999999999
 31
0.0
  0
LINE
  5
2DA
  8
0
 62
     7
 10
128.185
 20
210.1399999999999
 30
0.0
 11
128.16800000000001
 21
210.18299999999999
 31
0.0
  0
LINE
  5
2DB
  8
0
 62
     7
 10
128.16800000000001
 20
210.18299999999999
 30
0.0
 11
128.15100000000001
 21
210.22699999999989
 31
0.0
  0
LINE
  5
2DC
  8
0
 62
     7
 10
128.15100000000001
 20
210.22699999999989
 30
0.0
 11
128.1329999999999
 21
210.27000000000001
 31
0.0
  0
LINE
  5
2DD
  8
0
 62
     7
 10
128.1329999999999
 20
210.27000000000001
 30
0.0
 11
128.11600000000001
 21
210.31399999999999
 31
0.0
  0
LINE
  5
2DE
  8
0
 62
     7
 10
128.11600000000001
 20
210.31399999999999
 30
0.0
 11
128.0979999999999
 21
210.358
 31
0.0
  0
LINE
  5
2DF
  8
0
 62
     7
 10
128.0979999999999
 20
210.358
 30
0.0
 11
128.08199999999999
 21
210.40199999999999
 31
0.0
  0
LINE
  5
2E0
  8
0
 62
     7
 10
128.08199999999999
 20
210.40199999999999
 30
0.0
 11
128.065
 21
210.44599999999991
 31
0.0
  0
LINE
  5
2E1
  8
0
 62
     7
 10
128.065
 20
210.44599999999991
 30
0.0
 11
128.048
 21
210.489
 31
0.0
  0
LINE
  5
2E2
  8
0
 62
     7
 10
128.048
 20
210.489
 30
0.0
 11
128.03200000000001
 21
210.53399999999999
 31
0.0
  0
LINE
  5
2E3
  8
0
 62
     7
 10
128.03200000000001
 20
210.53399999999999
 30
0.0
 11
128.01599999999991
 21
210.577
 31
0.0
  0
LINE
  5
2E4
  8
0
 62
     7
 10
128.01599999999991
 20
210.577
 30
0.0
 11
128.0
 21
210.6219999999999
 31
0.0
  0
LINE
  5
2E5
  8
0
 62
     7
 10
128.0
 20
210.6219999999999
 30
0.0
 11
127.9849999999999
 21
210.666
 31
0.0
  0
LINE
  5
2E6
  8
0
 62
     7
 10
127.9849999999999
 20
210.666
 30
0.0
 11
127.97
 21
210.71100000000001
 31
0.0
  0
LINE
  5
2E7
  8
0
 62
     7
 10
127.97
 20
210.71100000000001
 30
0.0
 11
127.956
 21
210.75599999999989
 31
0.0
  0
LINE
  5
2E8
  8
0
 62
     7
 10
127.956
 20
210.75599999999989
 30
0.0
 11
127.94199999999999
 21
210.8009999999999
 31
0.0
  0
LINE
  5
2E9
  8
0
 62
     7
 10
127.94199999999999
 20
210.8009999999999
 30
0.0
 11
127.929
 21
210.846
 31
0.0
  0
LINE
  5
2EA
  8
0
 62
     7
 10
127.929
 20
210.846
 30
0.0
 11
127.91500000000001
 21
210.89099999999991
 31
0.0
  0
LINE
  5
2EB
  8
0
 62
     7
 10
127.91500000000001
 20
210.89099999999991
 30
0.0
 11
127.90299999999991
 21
210.93599999999989
 31
0.0
  0
LINE
  5
2EC
  8
0
 62
     7
 10
127.90299999999991
 20
210.93599999999989
 30
0.0
 11
127.89099999999991
 21
210.982
 31
0.0
  0
LINE
  5
2ED
  8
0
 62
     7
 10
127.89099999999991
 20
210.982
 30
0.0
 11
127.87899999999991
 21
211.02699999999999
 31
0.0
  0
LINE
  5
2EE
  8
0
 62
     7
 10
127.87899999999991
 20
211.02699999999999
 30
0.0
 11
127.86799999999999
 21
211.07299999999989
 31
0.0
  0
LINE
  5
2EF
  8
0
 62
     7
 10
127.86799999999999
 20
211.07299999999989
 30
0.0
 11
127.85599999999999
 21
211.119
 31
0.0
  0
LINE
  5
2F0
  8
0
 62
     7
 10
127.85599999999999
 20
211.119
 30
0.0
 11
127.845
 21
211.16499999999999
 31
0.0
  0
LINE
  5
2F1
  8
0
 62
     7
 10
127.845
 20
211.16499999999999
 30
0.0
 11
127.83499999999989
 21
211.2109999999999
 31
0.0
  0
LINE
  5
2F2
  8
0
 62
     7
 10
127.83499999999989
 20
211.2109999999999
 30
0.0
 11
127.825
 21
211.25700000000001
 31
0.0
  0
LINE
  5
2F3
  8
0
 62
     7
 10
127.825
 20
211.25700000000001
 30
0.0
 11
127.8149999999999
 21
211.303
 31
0.0
  0
LINE
  5
2F4
  8
0
 62
     7
 10
127.8149999999999
 20
211.303
 30
0.0
 11
127.8059999999999
 21
211.34899999999999
 31
0.0
  0
LINE
  5
2F5
  8
0
 62
     7
 10
127.8059999999999
 20
211.34899999999999
 30
0.0
 11
127.797
 21
211.3949999999999
 31
0.0
  0
LINE
  5
2F6
  8
0
 62
     7
 10
127.797
 20
211.3949999999999
 30
0.0
 11
127.7879999999999
 21
211.44099999999989
 31
0.0
  0
LINE
  5
2F7
  8
0
 62
     7
 10
118.63200000000001
 20
204.11799999999991
 30
0.0
 11
118.62899999999991
 21
204.16999999999999
 31
0.0
  0
LINE
  5
2F8
  8
0
 62
     7
 10
118.62899999999991
 20
204.16999999999999
 30
0.0
 11
118.621
 21
204.2229999999999
 31
0.0
  0
LINE
  5
2F9
  8
0
 62
     7
 10
118.621
 20
204.2229999999999
 30
0.0
 11
118.60599999999999
 21
204.274
 31
0.0
  0
LINE
  5
2FA
  8
0
 62
     7
 10
118.60599999999999
 20
204.274
 30
0.0
 11
118.5869999999999
 21
204.32499999999999
 31
0.0
  0
LINE
  5
2FB
  8
0
 62
     7
 10
118.5869999999999
 20
204.32499999999999
 30
0.0
 11
118.562
 21
204.37299999999999
 31
0.0
  0
LINE
  5
2FC
  8
0
 62
     7
 10
118.562
 20
204.37299999999999
 30
0.0
 11
118.532
 21
204.41999999999999
 31
0.0
  0
LINE
  5
2FD
  8
0
 62
     7
 10
118.532
 20
204.41999999999999
 30
0.0
 11
118.497
 21
204.46499999999989
 31
0.0
  0
LINE
  5
2FE
  8
0
 62
     7
 10
118.497
 20
204.46499999999989
 30
0.0
 11
118.45699999999999
 21
204.50699999999989
 31
0.0
  0
LINE
  5
2FF
  8
0
 62
     7
 10
118.45699999999999
 20
204.50699999999989
 30
0.0
 11
118.4129999999999
 21
204.54599999999991
 31
0.0
  0
LINE
  5
300
  8
0
 62
     7
 10
118.4129999999999
 20
204.54599999999991
 30
0.0
 11
118.364
 21
204.5809999999999
 31
0.0
  0
LINE
  5
301
  8
0
 62
     7
 10
118.364
 20
204.5809999999999
 30
0.0
 11
118.313
 21
204.614
 31
0.0
  0
LINE
  5
302
  8
0
 62
     7
 10
118.313
 20
204.614
 30
0.0
 11
118.25700000000001
 21
204.64199999999991
 31
0.0
  0
LINE
  5
303
  8
0
 62
     7
 10
118.25700000000001
 20
204.64199999999991
 30
0.0
 11
118.2
 21
204.666
 31
0.0
  0
LINE
  5
304
  8
0
 62
     7
 10
118.2
 20
204.666
 30
0.0
 11
118.1389999999999
 21
204.68599999999989
 31
0.0
  0
LINE
  5
305
  8
0
 62
     7
 10
118.1389999999999
 20
204.68599999999989
 30
0.0
 11
118.077
 21
204.70199999999991
 31
0.0
  0
LINE
  5
306
  8
0
 62
     7
 10
118.077
 20
204.70199999999991
 30
0.0
 11
118.01299999999991
 21
204.714
 31
0.0
  0
LINE
  5
307
  8
0
 62
     7
 10
118.01299999999991
 20
204.714
 30
0.0
 11
117.94799999999989
 21
204.72
 31
0.0
  0
LINE
  5
308
  8
0
 62
     7
 10
117.94799999999989
 20
204.72
 30
0.0
 11
117.883
 21
204.7229999999999
 31
0.0
  0
LINE
  5
309
  8
0
 62
     7
 10
117.883
 20
204.7229999999999
 30
0.0
 11
117.818
 21
204.72
 31
0.0
  0
LINE
  5
30A
  8
0
 62
     7
 10
117.818
 20
204.72
 30
0.0
 11
117.7529999999999
 21
204.714
 31
0.0
  0
LINE
  5
30B
  8
0
 62
     7
 10
117.7529999999999
 20
204.714
 30
0.0
 11
117.68899999999989
 21
204.70199999999991
 31
0.0
  0
LINE
  5
30C
  8
0
 62
     7
 10
117.68899999999989
 20
204.70199999999991
 30
0.0
 11
117.627
 21
204.68599999999989
 31
0.0
  0
LINE
  5
30D
  8
0
 62
     7
 10
117.627
 20
204.68599999999989
 30
0.0
 11
117.566
 21
204.666
 31
0.0
  0
LINE
  5
30E
  8
0
 62
     7
 10
117.566
 20
204.666
 30
0.0
 11
117.5079999999999
 21
204.64199999999991
 31
0.0
  0
LINE
  5
30F
  8
0
 62
     7
 10
117.5079999999999
 20
204.64199999999991
 30
0.0
 11
117.45399999999989
 21
204.614
 31
0.0
  0
LINE
  5
310
  8
0
 62
     7
 10
117.45399999999989
 20
204.614
 30
0.0
 11
117.402
 21
204.5809999999999
 31
0.0
  0
LINE
  5
311
  8
0
 62
     7
 10
117.402
 20
204.5809999999999
 30
0.0
 11
117.35299999999989
 21
204.54599999999991
 31
0.0
  0
LINE
  5
312
  8
0
 62
     7
 10
117.35299999999989
 20
204.54599999999991
 30
0.0
 11
117.3089999999999
 21
204.50699999999989
 31
0.0
  0
LINE
  5
313
  8
0
 62
     7
 10
117.3089999999999
 20
204.50699999999989
 30
0.0
 11
117.27
 21
204.46499999999989
 31
0.0
  0
LINE
  5
314
  8
0
 62
     7
 10
117.27
 20
204.46499999999989
 30
0.0
 11
117.235
 21
204.41999999999999
 31
0.0
  0
LINE
  5
315
  8
0
 62
     7
 10
117.235
 20
204.41999999999999
 30
0.0
 11
117.20399999999989
 21
204.37299999999999
 31
0.0
  0
LINE
  5
316
  8
0
 62
     7
 10
117.20399999999989
 20
204.37299999999999
 30
0.0
 11
117.179
 21
204.32499999999999
 31
0.0
  0
LINE
  5
317
  8
0
 62
     7
 10
117.179
 20
204.32499999999999
 30
0.0
 11
117.1599999999999
 21
204.274
 31
0.0
  0
LINE
  5
318
  8
0
 62
     7
 10
117.1599999999999
 20
204.274
 30
0.0
 11
117.1459999999999
 21
204.2229999999999
 31
0.0
  0
LINE
  5
319
  8
0
 62
     7
 10
117.1459999999999
 20
204.2229999999999
 30
0.0
 11
117.137
 21
204.16999999999999
 31
0.0
  0
LINE
  5
31A
  8
0
 62
     7
 10
117.137
 20
204.16999999999999
 30
0.0
 11
117.134
 21
204.11799999999991
 31
0.0
  0
LINE
  5
31B
  8
0
 62
     7
 10
117.134
 20
204.11799999999991
 30
0.0
 11
117.137
 21
204.06499999999991
 31
0.0
  0
LINE
  5
31C
  8
0
 62
     7
 10
117.137
 20
204.06499999999991
 30
0.0
 11
117.1459999999999
 21
204.01299999999989
 31
0.0
  0
LINE
  5
31D
  8
0
 62
     7
 10
117.1459999999999
 20
204.01299999999989
 30
0.0
 11
117.1599999999999
 21
203.9609999999999
 31
0.0
  0
LINE
  5
31E
  8
0
 62
     7
 10
117.1599999999999
 20
203.9609999999999
 30
0.0
 11
117.179
 21
203.91099999999989
 31
0.0
  0
LINE
  5
31F
  8
0
 62
     7
 10
117.179
 20
203.91099999999989
 30
0.0
 11
117.20399999999989
 21
203.86199999999991
 31
0.0
  0
LINE
  5
320
  8
0
 62
     7
 10
117.20399999999989
 20
203.86199999999991
 30
0.0
 11
117.235
 21
203.81499999999991
 31
0.0
  0
LINE
  5
321
  8
0
 62
     7
 10
117.235
 20
203.81499999999991
 30
0.0
 11
117.27
 21
203.7709999999999
 31
0.0
  0
LINE
  5
322
  8
0
 62
     7
 10
117.27
 20
203.7709999999999
 30
0.0
 11
117.3089999999999
 21
203.72900000000001
 31
0.0
  0
LINE
  5
323
  8
0
 62
     7
 10
117.3089999999999
 20
203.72900000000001
 30
0.0
 11
117.35299999999989
 21
203.69
 31
0.0
  0
LINE
  5
324
  8
0
 62
     7
 10
117.35299999999989
 20
203.69
 30
0.0
 11
117.402
 21
203.654
 31
0.0
  0
LINE
  5
325
  8
0
 62
     7
 10
117.402
 20
203.654
 30
0.0
 11
117.45399999999989
 21
203.62200000000001
 31
0.0
  0
LINE
  5
326
  8
0
 62
     7
 10
117.45399999999989
 20
203.62200000000001
 30
0.0
 11
117.5079999999999
 21
203.59399999999999
 31
0.0
  0
LINE
  5
327
  8
0
 62
     7
 10
117.5079999999999
 20
203.59399999999999
 30
0.0
 11
117.566
 21
203.56899999999999
 31
0.0
  0
LINE
  5
328
  8
0
 62
     7
 10
117.566
 20
203.56899999999999
 30
0.0
 11
117.627
 21
203.54900000000001
 31
0.0
  0
LINE
  5
329
  8
0
 62
     7
 10
117.627
 20
203.54900000000001
 30
0.0
 11
117.68899999999989
 21
203.53399999999999
 31
0.0
  0
LINE
  5
32A
  8
0
 62
     7
 10
117.68899999999989
 20
203.53399999999999
 30
0.0
 11
117.7529999999999
 21
203.52199999999999
 31
0.0
  0
LINE
  5
32B
  8
0
 62
     7
 10
117.7529999999999
 20
203.52199999999999
 30
0.0
 11
117.818
 21
203.5149999999999
 31
0.0
  0
LINE
  5
32C
  8
0
 62
     7
 10
117.818
 20
203.5149999999999
 30
0.0
 11
117.883
 21
203.51300000000001
 31
0.0
  0
LINE
  5
32D
  8
0
 62
     7
 10
117.883
 20
203.51300000000001
 30
0.0
 11
117.94799999999989
 21
203.5149999999999
 31
0.0
  0
LINE
  5
32E
  8
0
 62
     7
 10
117.94799999999989
 20
203.5149999999999
 30
0.0
 11
118.01299999999991
 21
203.52199999999999
 31
0.0
  0
LINE
  5
32F
  8
0
 62
     7
 10
118.01299999999991
 20
203.52199999999999
 30
0.0
 11
118.077
 21
203.53399999999999
 31
0.0
  0
LINE
  5
330
  8
0
 62
     7
 10
118.077
 20
203.53399999999999
 30
0.0
 11
118.1389999999999
 21
203.54900000000001
 31
0.0
  0
LINE
  5
331
  8
0
 62
     7
 10
118.1389999999999
 20
203.54900000000001
 30
0.0
 11
118.2
 21
203.56899999999999
 31
0.0
  0
LINE
  5
332
  8
0
 62
     7
 10
118.2
 20
203.56899999999999
 30
0.0
 11
118.25700000000001
 21
203.59399999999999
 31
0.0
  0
LINE
  5
333
  8
0
 62
     7
 10
118.25700000000001
 20
203.59399999999999
 30
0.0
 11
118.313
 21
203.62200000000001
 31
0.0
  0
LINE
  5
334
  8
0
 62
     7
 10
118.313
 20
203.62200000000001
 30
0.0
 11
118.364
 21
203.654
 31
0.0
  0
LINE
  5
335
  8
0
 62
     7
 10
118.364
 20
203.654
 30
0.0
 11
118.4129999999999
 21
203.69
 31
0.0
  0
LINE
  5
336
  8
0
 62
     7
 10
118.4129999999999
 20
203.69
 30
0.0
 11
118.45699999999999
 21
203.72900000000001
 31
0.0
  0
LINE
  5
337
  8
0
 62
     7
 10
118.45699999999999
 20
203.72900000000001
 30
0.0
 11
118.497
 21
203.7709999999999
 31
0.0
  0
LINE
  5
338
  8
0
 62
     7
 10
118.497
 20
203.7709999999999
 30
0.0
 11
118.532
 21
203.81499999999991
 31
0.0
  0
LINE
  5
339
  8
0
 62
     7
 10
118.532
 20
203.81499999999991
 30
0.0
 11
118.562
 21
203.86199999999991
 31
0.0
  0
LINE
  5
33A
  8
0
 62
     7
 10
118.562
 20
203.86199999999991
 30
0.0
 11
118.5869999999999
 21
203.91099999999989
 31
0.0
  0
LINE
  5
33B
  8
0
 62
     7
 10
118.5869999999999
 20
203.91099999999989
 30
0.0
 11
118.60599999999999
 21
203.9609999999999
 31
0.0
  0
LINE
  5
33C
  8
0
 62
     7
 10
118.60599999999999
 20
203.9609999999999
 30
0.0
 11
118.621
 21
204.01299999999989
 31
0.0
  0
LINE
  5
33D
  8
0
 62
     7
 10
118.621
 20
204.01299999999989
 30
0.0
 11
118.62899999999991
 21
204.06499999999991
 31
0.0
  0
LINE
  5
33E
  8
0
 62
     7
 10
118.62899999999991
 20
204.06499999999991
 30
0.0
 11
118.63200000000001
 21
204.11799999999991
 31
0.0
  0
LINE
  5
33F
  8
0
 62
     7
 10
117.883
 20
205.76099999999991
 30
0.0
 11
117.94799999999989
 21
205.76599999999991
 31
0.0
  0
LINE
  5
340
  8
0
 62
     7
 10
117.94799999999989
 20
205.76599999999991
 30
0.0
 11
118.01299999999991
 21
205.77799999999999
 31
0.0
  0
LINE
  5
341
  8
0
 62
     7
 10
118.01299999999991
 20
205.77799999999999
 30
0.0
 11
118.077
 21
205.79900000000001
 31
0.0
  0
LINE
  5
342
  8
0
 62
     7
 10
118.077
 20
205.79900000000001
 30
0.0
 11
118.1389999999999
 21
205.82899999999989
 31
0.0
  0
LINE
  5
343
  8
0
 62
     7
 10
118.1389999999999
 20
205.82899999999989
 30
0.0
 11
118.2
 21
205.86699999999999
 31
0.0
  0
LINE
  5
344
  8
0
 62
     7
 10
118.2
 20
205.86699999999999
 30
0.0
 11
118.25700000000001
 21
205.91200000000001
 31
0.0
  0
LINE
  5
345
  8
0
 62
     7
 10
118.25700000000001
 20
205.91200000000001
 30
0.0
 11
118.313
 21
205.964
 31
0.0
  0
LINE
  5
346
  8
0
 62
     7
 10
118.313
 20
205.964
 30
0.0
 11
118.364
 21
206.02399999999989
 31
0.0
  0
LINE
  5
347
  8
0
 62
     7
 10
118.364
 20
206.02399999999989
 30
0.0
 11
118.4129999999999
 21
206.09099999999989
 31
0.0
  0
LINE
  5
348
  8
0
 62
     7
 10
118.4129999999999
 20
206.09099999999989
 30
0.0
 11
118.45699999999999
 21
206.16300000000001
 31
0.0
  0
LINE
  5
349
  8
0
 62
     7
 10
118.45699999999999
 20
206.16300000000001
 30
0.0
 11
118.497
 21
206.24000000000001
 31
0.0
  0
LINE
  5
34A
  8
0
 62
     7
 10
118.497
 20
206.24000000000001
 30
0.0
 11
118.532
 21
206.32299999999989
 31
0.0
  0
LINE
  5
34B
  8
0
 62
     7
 10
118.532
 20
206.32299999999989
 30
0.0
 11
118.562
 21
206.40999999999991
 31
0.0
  0
LINE
  5
34C
  8
0
 62
     7
 10
118.562
 20
206.40999999999991
 30
0.0
 11
118.5869999999999
 21
206.501
 31
0.0
  0
LINE
  5
34D
  8
0
 62
     7
 10
118.5869999999999
 20
206.501
 30
0.0
 11
118.60599999999999
 21
206.59399999999999
 31
0.0
  0
LINE
  5
34E
  8
0
 62
     7
 10
118.60599999999999
 20
206.59399999999999
 30
0.0
 11
118.621
 21
206.68899999999999
 31
0.0
  0
LINE
  5
34F
  8
0
 62
     7
 10
118.621
 20
206.68899999999999
 30
0.0
 11
118.62899999999991
 21
206.78700000000001
 31
0.0
  0
LINE
  5
350
  8
0
 62
     7
 10
118.62899999999991
 20
206.78700000000001
 30
0.0
 11
118.63200000000001
 21
206.88399999999999
 31
0.0
  0
LINE
  5
351
  8
0
 62
     7
 10
118.63200000000001
 20
206.88399999999999
 30
0.0
 11
118.62899999999991
 21
206.98199999999991
 31
0.0
  0
LINE
  5
352
  8
0
 62
     7
 10
118.62899999999991
 20
206.98199999999991
 30
0.0
 11
118.621
 21
207.08000000000001
 31
0.0
  0
LINE
  5
353
  8
0
 62
     7
 10
118.621
 20
207.08000000000001
 30
0.0
 11
118.60599999999999
 21
207.17500000000001
 31
0.0
  0
LINE
  5
354
  8
0
 62
     7
 10
118.60599999999999
 20
207.17500000000001
 30
0.0
 11
118.5869999999999
 21
207.26900000000001
 31
0.0
  0
LINE
  5
355
  8
0
 62
     7
 10
118.5869999999999
 20
207.26900000000001
 30
0.0
 11
118.562
 21
207.35900000000001
 31
0.0
  0
LINE
  5
356
  8
0
 62
     7
 10
118.562
 20
207.35900000000001
 30
0.0
 11
118.532
 21
207.446
 31
0.0
  0
LINE
  5
357
  8
0
 62
     7
 10
118.532
 20
207.446
 30
0.0
 11
118.497
 21
207.529
 31
0.0
  0
LINE
  5
358
  8
0
 62
     7
 10
118.497
 20
207.529
 30
0.0
 11
118.45699999999999
 21
207.607
 31
0.0
  0
LINE
  5
359
  8
0
 62
     7
 10
118.45699999999999
 20
207.607
 30
0.0
 11
118.4129999999999
 21
207.67899999999989
 31
0.0
  0
LINE
  5
35A
  8
0
 62
     7
 10
118.4129999999999
 20
207.67899999999989
 30
0.0
 11
118.364
 21
207.745
 31
0.0
  0
LINE
  5
35B
  8
0
 62
     7
 10
118.364
 20
207.745
 30
0.0
 11
118.313
 21
207.804
 31
0.0
  0
LINE
  5
35C
  8
0
 62
     7
 10
118.313
 20
207.804
 30
0.0
 11
118.25700000000001
 21
207.857
 31
0.0
  0
LINE
  5
35D
  8
0
 62
     7
 10
118.25700000000001
 20
207.857
 30
0.0
 11
118.2
 21
207.90299999999991
 31
0.0
  0
LINE
  5
35E
  8
0
 62
     7
 10
118.2
 20
207.90299999999991
 30
0.0
 11
118.1389999999999
 21
207.94
 31
0.0
  0
LINE
  5
35F
  8
0
 62
     7
 10
118.1389999999999
 20
207.94
 30
0.0
 11
118.077
 21
207.96899999999999
 31
0.0
  0
LINE
  5
360
  8
0
 62
     7
 10
118.077
 20
207.96899999999999
 30
0.0
 11
118.01299999999991
 21
207.9909999999999
 31
0.0
  0
LINE
  5
361
  8
0
 62
     7
 10
118.01299999999991
 20
207.9909999999999
 30
0.0
 11
117.94799999999989
 21
208.00399999999999
 31
0.0
  0
LINE
  5
362
  8
0
 62
     7
 10
117.94799999999989
 20
208.00399999999999
 30
0.0
 11
117.883
 21
208.0079999999999
 31
0.0
  0
LINE
  5
363
  8
0
 62
     7
 10
117.883
 20
208.0079999999999
 30
0.0
 11
117.818
 21
208.00399999999999
 31
0.0
  0
LINE
  5
364
  8
0
 62
     7
 10
117.818
 20
208.00399999999999
 30
0.0
 11
117.7529999999999
 21
207.9909999999999
 31
0.0
  0
LINE
  5
365
  8
0
 62
     7
 10
117.7529999999999
 20
207.9909999999999
 30
0.0
 11
117.68899999999989
 21
207.96899999999999
 31
0.0
  0
LINE
  5
366
  8
0
 62
     7
 10
117.68899999999989
 20
207.96899999999999
 30
0.0
 11
117.627
 21
207.94
 31
0.0
  0
LINE
  5
367
  8
0
 62
     7
 10
117.627
 20
207.94
 30
0.0
 11
117.566
 21
207.90299999999991
 31
0.0
  0
LINE
  5
368
  8
0
 62
     7
 10
117.566
 20
207.90299999999991
 30
0.0
 11
117.5079999999999
 21
207.857
 31
0.0
  0
LINE
  5
369
  8
0
 62
     7
 10
117.5079999999999
 20
207.857
 30
0.0
 11
117.45399999999989
 21
207.804
 31
0.0
  0
LINE
  5
36A
  8
0
 62
     7
 10
117.45399999999989
 20
207.804
 30
0.0
 11
117.402
 21
207.745
 31
0.0
  0
LINE
  5
36B
  8
0
 62
     7
 10
117.402
 20
207.745
 30
0.0
 11
117.35299999999989
 21
207.67899999999989
 31
0.0
  0
LINE
  5
36C
  8
0
 62
     7
 10
117.35299999999989
 20
207.67899999999989
 30
0.0
 11
117.3089999999999
 21
207.607
 31
0.0
  0
LINE
  5
36D
  8
0
 62
     7
 10
117.3089999999999
 20
207.607
 30
0.0
 11
117.27
 21
207.529
 31
0.0
  0
LINE
  5
36E
  8
0
 62
     7
 10
117.27
 20
207.529
 30
0.0
 11
117.235
 21
207.446
 31
0.0
  0
LINE
  5
36F
  8
0
 62
     7
 10
117.235
 20
207.446
 30
0.0
 11
117.20399999999989
 21
207.35900000000001
 31
0.0
  0
LINE
  5
370
  8
0
 62
     7
 10
117.20399999999989
 20
207.35900000000001
 30
0.0
 11
117.179
 21
207.26900000000001
 31
0.0
  0
LINE
  5
371
  8
0
 62
     7
 10
117.179
 20
207.26900000000001
 30
0.0
 11
117.1599999999999
 21
207.17500000000001
 31
0.0
  0
LINE
  5
372
  8
0
 62
     7
 10
117.1599999999999
 20
207.17500000000001
 30
0.0
 11
117.1459999999999
 21
207.08000000000001
 31
0.0
  0
LINE
  5
373
  8
0
 62
     7
 10
117.1459999999999
 20
207.08000000000001
 30
0.0
 11
117.137
 21
206.98199999999991
 31
0.0
  0
LINE
  5
374
  8
0
 62
     7
 10
117.137
 20
206.98199999999991
 30
0.0
 11
117.134
 21
206.88399999999999
 31
0.0
  0
LINE
  5
375
  8
0
 62
     7
 10
117.134
 20
206.88399999999999
 30
0.0
 11
117.137
 21
206.78700000000001
 31
0.0
  0
LINE
  5
376
  8
0
 62
     7
 10
117.137
 20
206.78700000000001
 30
0.0
 11
117.1459999999999
 21
206.68899999999999
 31
0.0
  0
LINE
  5
377
  8
0
 62
     7
 10
117.1459999999999
 20
206.68899999999999
 30
0.0
 11
117.1599999999999
 21
206.59399999999999
 31
0.0
  0
LINE
  5
378
  8
0
 62
     7
 10
117.1599999999999
 20
206.59399999999999
 30
0.0
 11
117.179
 21
206.501
 31
0.0
  0
LINE
  5
379
  8
0
 62
     7
 10
117.179
 20
206.501
 30
0.0
 11
117.20399999999989
 21
206.40999999999991
 31
0.0
  0
LINE
  5
37A
  8
0
 62
     7
 10
117.20399999999989
 20
206.40999999999991
 30
0.0
 11
117.235
 21
206.32299999999989
 31
0.0
  0
LINE
  5
37B
  8
0
 62
     7
 10
117.235
 20
206.32299999999989
 30
0.0
 11
117.27
 21
206.24000000000001
 31
0.0
  0
LINE
  5
37C
  8
0
 62
     7
 10
117.27
 20
206.24000000000001
 30
0.0
 11
117.3089999999999
 21
206.16300000000001
 31
0.0
  0
LINE
  5
37D
  8
0
 62
     7
 10
117.3089999999999
 20
206.16300000000001
 30
0.0
 11
117.35299999999989
 21
206.09099999999989
 31
0.0
  0
LINE
  5
37E
  8
0
 62
     7
 10
117.35299999999989
 20
206.09099999999989
 30
0.0
 11
117.402
 21
206.02399999999989
 31
0.0
  0
LINE
  5
37F
  8
0
 62
     7
 10
117.402
 20
206.02399999999989
 30
0.0
 11
117.45399999999989
 21
205.964
 31
0.0
  0
LINE
  5
380
  8
0
 62
     7
 10
117.45399999999989
 20
205.964
 30
0.0
 11
117.5079999999999
 21
205.91200000000001
 31
0.0
  0
LINE
  5
381
  8
0
 62
     7
 10
117.5079999999999
 20
205.91200000000001
 30
0.0
 11
117.566
 21
205.86699999999999
 31
0.0
  0
LINE
  5
382
  8
0
 62
     7
 10
117.566
 20
205.86699999999999
 30
0.0
 11
117.627
 21
205.82899999999989
 31
0.0
  0
LINE
  5
383
  8
0
 62
     7
 10
117.627
 20
205.82899999999989
 30
0.0
 11
117.68899999999989
 21
205.79900000000001
 31
0.0
  0
LINE
  5
384
  8
0
 62
     7
 10
117.68899999999989
 20
205.79900000000001
 30
0.0
 11
117.7529999999999
 21
205.77799999999999
 31
0.0
  0
LINE
  5
385
  8
0
 62
     7
 10
117.7529999999999
 20
205.77799999999999
 30
0.0
 11
117.818
 21
205.76599999999991
 31
0.0
  0
LINE
  5
386
  8
0
 62
     7
 10
117.818
 20
205.76599999999991
 30
0.0
 11
117.883
 21
205.76099999999991
 31
0.0
  0
LINE
  5
387
  8
0
 62
     7
 10
118.63200000000001
 20
209.6509999999999
 30
0.0
 11
118.62899999999991
 21
209.70400000000001
 31
0.0
  0
LINE
  5
388
  8
0
 62
     7
 10
118.62899999999991
 20
209.70400000000001
 30
0.0
 11
118.621
 21
209.75599999999989
 31
0.0
  0
LINE
  5
389
  8
0
 62
     7
 10
118.621
 20
209.75599999999989
 30
0.0
 11
118.60599999999999
 21
209.80799999999991
 31
0.0
  0
LINE
  5
38A
  8
0
 62
     7
 10
118.60599999999999
 20
209.80799999999991
 30
0.0
 11
118.5869999999999
 21
209.858
 31
0.0
  0
LINE
  5
38B
  8
0
 62
     7
 10
118.5869999999999
 20
209.858
 30
0.0
 11
118.562
 21
209.90700000000001
 31
0.0
  0
LINE
  5
38C
  8
0
 62
     7
 10
118.562
 20
209.90700000000001
 30
0.0
 11
118.532
 21
209.95400000000001
 31
0.0
  0
LINE
  5
38D
  8
0
 62
     7
 10
118.532
 20
209.95400000000001
 30
0.0
 11
118.497
 21
209.999
 31
0.0
  0
LINE
  5
38E
  8
0
 62
     7
 10
118.497
 20
209.999
 30
0.0
 11
118.45699999999999
 21
210.03999999999999
 31
0.0
  0
LINE
  5
38F
  8
0
 62
     7
 10
118.45699999999999
 20
210.03999999999999
 30
0.0
 11
118.4129999999999
 21
210.07899999999989
 31
0.0
  0
LINE
  5
390
  8
0
 62
     7
 10
118.4129999999999
 20
210.07899999999989
 30
0.0
 11
118.364
 21
210.11500000000001
 31
0.0
  0
LINE
  5
391
  8
0
 62
     7
 10
118.364
 20
210.11500000000001
 30
0.0
 11
118.313
 21
210.14699999999999
 31
0.0
  0
LINE
  5
392
  8
0
 62
     7
 10
118.313
 20
210.14699999999999
 30
0.0
 11
118.25700000000001
 21
210.17500000000001
 31
0.0
  0
LINE
  5
393
  8
0
 62
     7
 10
118.25700000000001
 20
210.17500000000001
 30
0.0
 11
118.2
 21
210.1999999999999
 31
0.0
  0
LINE
  5
394
  8
0
 62
     7
 10
118.2
 20
210.1999999999999
 30
0.0
 11
118.1389999999999
 21
210.21999999999991
 31
0.0
  0
LINE
  5
395
  8
0
 62
     7
 10
118.1389999999999
 20
210.21999999999991
 30
0.0
 11
118.077
 21
210.23599999999999
 31
0.0
  0
LINE
  5
396
  8
0
 62
     7
 10
118.077
 20
210.23599999999999
 30
0.0
 11
118.01299999999991
 21
210.24700000000001
 31
0.0
  0
LINE
  5
397
  8
0
 62
     7
 10
118.01299999999991
 20
210.24700000000001
 30
0.0
 11
117.94799999999989
 21
210.25399999999999
 31
0.0
  0
LINE
  5
398
  8
0
 62
     7
 10
117.94799999999989
 20
210.25399999999999
 30
0.0
 11
117.883
 21
210.25599999999989
 31
0.0
  0
LINE
  5
399
  8
0
 62
     7
 10
117.883
 20
210.25599999999989
 30
0.0
 11
117.818
 21
210.25399999999999
 31
0.0
  0
LINE
  5
39A
  8
0
 62
     7
 10
117.818
 20
210.25399999999999
 30
0.0
 11
117.7529999999999
 21
210.24700000000001
 31
0.0
  0
LINE
  5
39B
  8
0
 62
     7
 10
117.7529999999999
 20
210.24700000000001
 30
0.0
 11
117.68899999999989
 21
210.23599999999999
 31
0.0
  0
LINE
  5
39C
  8
0
 62
     7
 10
117.68899999999989
 20
210.23599999999999
 30
0.0
 11
117.627
 21
210.21999999999991
 31
0.0
  0
LINE
  5
39D
  8
0
 62
     7
 10
117.627
 20
210.21999999999991
 30
0.0
 11
117.566
 21
210.1999999999999
 31
0.0
  0
LINE
  5
39E
  8
0
 62
     7
 10
117.566
 20
210.1999999999999
 30
0.0
 11
117.5079999999999
 21
210.17500000000001
 31
0.0
  0
LINE
  5
39F
  8
0
 62
     7
 10
117.5079999999999
 20
210.17500000000001
 30
0.0
 11
117.45399999999989
 21
210.14699999999999
 31
0.0
  0
LINE
  5
3A0
  8
0
 62
     7
 10
117.45399999999989
 20
210.14699999999999
 30
0.0
 11
117.402
 21
210.11500000000001
 31
0.0
  0
LINE
  5
3A1
  8
0
 62
     7
 10
117.402
 20
210.11500000000001
 30
0.0
 11
117.35299999999989
 21
210.07899999999989
 31
0.0
  0
LINE
  5
3A2
  8
0
 62
     7
 10
117.35299999999989
 20
210.07899999999989
 30
0.0
 11
117.3089999999999
 21
210.03999999999999
 31
0.0
  0
LINE
  5
3A3
  8
0
 62
     7
 10
117.3089999999999
 20
210.03999999999999
 30
0.0
 11
117.27
 21
209.999
 31
0.0
  0
LINE
  5
3A4
  8
0
 62
     7
 10
117.27
 20
209.999
 30
0.0
 11
117.235
 21
209.95400000000001
 31
0.0
  0
LINE
  5
3A5
  8
0
 62
     7
 10
117.235
 20
209.95400000000001
 30
0.0
 11
117.20399999999989
 21
209.90700000000001
 31
0.0
  0
LINE
  5
3A6
  8
0
 62
     7
 10
117.20399999999989
 20
209.90700000000001
 30
0.0
 11
117.179
 21
209.858
 31
0.0
  0
LINE
  5
3A7
  8
0
 62
     7
 10
117.179
 20
209.858
 30
0.0
 11
117.1599999999999
 21
209.80799999999991
 31
0.0
  0
LINE
  5
3A8
  8
0
 62
     7
 10
117.1599999999999
 20
209.80799999999991
 30
0.0
 11
117.1459999999999
 21
209.75599999999989
 31
0.0
  0
LINE
  5
3A9
  8
0
 62
     7
 10
117.1459999999999
 20
209.75599999999989
 30
0.0
 11
117.137
 21
209.70400000000001
 31
0.0
  0
LINE
  5
3AA
  8
0
 62
     7
 10
117.137
 20
209.70400000000001
 30
0.0
 11
117.134
 21
209.6509999999999
 31
0.0
  0
LINE
  5
3AB
  8
0
 62
     7
 10
117.134
 20
209.6509999999999
 30
0.0
 11
117.137
 21
209.59899999999999
 31
0.0
  0
LINE
  5
3AC
  8
0
 62
     7
 10
117.137
 20
209.59899999999999
 30
0.0
 11
117.1459999999999
 21
209.54599999999999
 31
0.0
  0
LINE
  5
3AD
  8
0
 62
     7
 10
117.1459999999999
 20
209.54599999999999
 30
0.0
 11
117.1599999999999
 21
209.49499999999989
 31
0.0
  0
LINE
  5
3AE
  8
0
 62
     7
 10
117.1599999999999
 20
209.49499999999989
 30
0.0
 11
117.179
 21
209.44499999999999
 31
0.0
  0
LINE
  5
3AF
  8
0
 62
     7
 10
117.179
 20
209.44499999999999
 30
0.0
 11
117.20399999999989
 21
209.39599999999999
 31
0.0
  0
LINE
  5
3B0
  8
0
 62
     7
 10
117.20399999999989
 20
209.39599999999999
 30
0.0
 11
117.235
 21
209.34899999999999
 31
0.0
  0
LINE
  5
3B1
  8
0
 62
     7
 10
117.235
 20
209.34899999999999
 30
0.0
 11
117.27
 21
209.304
 31
0.0
  0
LINE
  5
3B2
  8
0
 62
     7
 10
117.27
 20
209.304
 30
0.0
 11
117.3089999999999
 21
209.262
 31
0.0
  0
LINE
  5
3B3
  8
0
 62
     7
 10
117.3089999999999
 20
209.262
 30
0.0
 11
117.35299999999989
 21
209.22399999999999
 31
0.0
  0
LINE
  5
3B4
  8
0
 62
     7
 10
117.35299999999989
 20
209.22399999999999
 30
0.0
 11
117.402
 21
209.1879999999999
 31
0.0
  0
LINE
  5
3B5
  8
0
 62
     7
 10
117.402
 20
209.1879999999999
 30
0.0
 11
117.45399999999989
 21
209.15599999999989
 31
0.0
  0
LINE
  5
3B6
  8
0
 62
     7
 10
117.45399999999989
 20
209.15599999999989
 30
0.0
 11
117.5079999999999
 21
209.12700000000001
 31
0.0
  0
LINE
  5
3B7
  8
0
 62
     7
 10
117.5079999999999
 20
209.12700000000001
 30
0.0
 11
117.566
 21
209.10299999999989
 31
0.0
  0
LINE
  5
3B8
  8
0
 62
     7
 10
117.566
 20
209.10299999999989
 30
0.0
 11
117.627
 21
209.08299999999991
 31
0.0
  0
LINE
  5
3B9
  8
0
 62
     7
 10
117.627
 20
209.08299999999991
 30
0.0
 11
117.68899999999989
 21
209.06700000000001
 31
0.0
  0
LINE
  5
3BA
  8
0
 62
     7
 10
117.68899999999989
 20
209.06700000000001
 30
0.0
 11
117.7529999999999
 21
209.05499999999989
 31
0.0
  0
LINE
  5
3BB
  8
0
 62
     7
 10
117.7529999999999
 20
209.05499999999989
 30
0.0
 11
117.818
 21
209.04899999999989
 31
0.0
  0
LINE
  5
3BC
  8
0
 62
     7
 10
117.818
 20
209.04899999999989
 30
0.0
 11
117.883
 21
209.04599999999991
 31
0.0
  0
LINE
  5
3BD
  8
0
 62
     7
 10
117.883
 20
209.04599999999991
 30
0.0
 11
117.94799999999989
 21
209.04899999999989
 31
0.0
  0
LINE
  5
3BE
  8
0
 62
     7
 10
117.94799999999989
 20
209.04899999999989
 30
0.0
 11
118.01299999999991
 21
209.05499999999989
 31
0.0
  0
LINE
  5
3BF
  8
0
 62
     7
 10
118.01299999999991
 20
209.05499999999989
 30
0.0
 11
118.077
 21
209.06700000000001
 31
0.0
  0
LINE
  5
3C0
  8
0
 62
     7
 10
118.077
 20
209.06700000000001
 30
0.0
 11
118.1389999999999
 21
209.08299999999991
 31
0.0
  0
LINE
  5
3C1
  8
0
 62
     7
 10
118.1389999999999
 20
209.08299999999991
 30
0.0
 11
118.2
 21
209.10299999999989
 31
0.0
  0
LINE
  5
3C2
  8
0
 62
     7
 10
118.2
 20
209.10299999999989
 30
0.0
 11
118.25700000000001
 21
209.12700000000001
 31
0.0
  0
LINE
  5
3C3
  8
0
 62
     7
 10
118.25700000000001
 20
209.12700000000001
 30
0.0
 11
118.313
 21
209.15599999999989
 31
0.0
  0
LINE
  5
3C4
  8
0
 62
     7
 10
118.313
 20
209.15599999999989
 30
0.0
 11
118.364
 21
209.1879999999999
 31
0.0
  0
LINE
  5
3C5
  8
0
 62
     7
 10
118.364
 20
209.1879999999999
 30
0.0
 11
118.4129999999999
 21
209.22399999999999
 31
0.0
  0
LINE
  5
3C6
  8
0
 62
     7
 10
118.4129999999999
 20
209.22399999999999
 30
0.0
 11
118.45699999999999
 21
209.262
 31
0.0
  0
LINE
  5
3C7
  8
0
 62
     7
 10
118.45699999999999
 20
209.262
 30
0.0
 11
118.497
 21
209.304
 31
0.0
  0
LINE
  5
3C8
  8
0
 62
     7
 10
118.497
 20
209.304
 30
0.0
 11
118.532
 21
209.34899999999999
 31
0.0
  0
LINE
  5
3C9
  8
0
 62
     7
 10
118.532
 20
209.34899999999999
 30
0.0
 11
118.562
 21
209.39599999999999
 31
0.0
  0
LINE
  5
3CA
  8
0
 62
     7
 10
118.562
 20
209.39599999999999
 30
0.0
 11
118.5869999999999
 21
209.44499999999999
 31
0.0
  0
LINE
  5
3CB
  8
0
 62
     7
 10
118.5869999999999
 20
209.44499999999999
 30
0.0
 11
118.60599999999999
 21
209.49499999999989
 31
0.0
  0
LINE
  5
3CC
  8
0
 62
     7
 10
118.60599999999999
 20
209.49499999999989
 30
0.0
 11
118.621
 21
209.54599999999999
 31
0.0
  0
LINE
  5
3CD
  8
0
 62
     7
 10
118.621
 20
209.54599999999999
 30
0.0
 11
118.62899999999991
 21
209.59899999999999
 31
0.0
  0
LINE
  5
3CE
  8
0
 62
     7
 10
118.62899999999991
 20
209.59899999999999
 30
0.0
 11
118.63200000000001
 21
209.6509999999999
 31
0.0
  0
LINE
  5
3CF
  8
0
 62
     7
 10
121.44499999999999
 20
209.99000000000001
 30
0.0
 11
121.42399999999989
 21
209.98599999999999
 31
0.0
  0
LINE
  5
3D0
  8
0
 62
     7
 10
121.42399999999989
 20
209.98599999999999
 30
0.0
 11
121.402
 21
209.982
 31
0.0
  0
LINE
  5
3D1
  8
0
 62
     7
 10
121.402
 20
209.982
 30
0.0
 11
121.3799999999999
 21
209.97900000000001
 31
0.0
  0
LINE
  5
3D2
  8
0
 62
     7
 10
121.3799999999999
 20
209.97900000000001
 30
0.0
 11
121.3579999999999
 21
209.97599999999991
 31
0.0
  0
LINE
  5
3D3
  8
0
 62
     7
 10
121.3579999999999
 20
209.97599999999991
 30
0.0
 11
121.337
 21
209.97200000000001
 31
0.0
  0
LINE
  5
3D4
  8
0
 62
     7
 10
121.337
 20
209.97200000000001
 30
0.0
 11
121.3149999999999
 21
209.96899999999999
 31
0.0
  0
LINE
  5
3D5
  8
0
 62
     7
 10
121.3149999999999
 20
209.96899999999999
 30
0.0
 11
121.29299999999991
 21
209.96599999999989
 31
0.0
  0
LINE
  5
3D6
  8
0
 62
     7
 10
121.29299999999991
 20
209.96599999999989
 30
0.0
 11
121.27200000000001
 21
209.96299999999991
 31
0.0
  0
LINE
  5
3D7
  8
0
 62
     7
 10
121.27200000000001
 20
209.96299999999991
 30
0.0
 11
121.25
 21
209.96000000000001
 31
0.0
  0
LINE
  5
3D8
  8
0
 62
     7
 10
121.25
 20
209.96000000000001
 30
0.0
 11
121.22799999999999
 21
209.95699999999991
 31
0.0
  0
LINE
  5
3D9
  8
0
 62
     7
 10
121.22799999999999
 20
209.95699999999991
 30
0.0
 11
121.206
 21
209.95400000000001
 31
0.0
  0
LINE
  5
3DA
  8
0
 62
     7
 10
121.206
 20
209.95400000000001
 30
0.0
 11
121.185
 21
209.95099999999991
 31
0.0
  0
LINE
  5
3DB
  8
0
 62
     7
 10
121.185
 20
209.95099999999991
 30
0.0
 11
121.1629999999999
 21
209.94799999999989
 31
0.0
  0
LINE
  5
3DC
  8
0
 62
     7
 10
121.1629999999999
 20
209.94799999999989
 30
0.0
 11
121.14100000000001
 21
209.946
 31
0.0
  0
LINE
  5
3DD
  8
0
 62
     7
 10
121.14100000000001
 20
209.946
 30
0.0
 11
121.12
 21
209.9429999999999
 31
0.0
  0
LINE
  5
3DE
  8
0
 62
     7
 10
121.12
 20
209.9429999999999
 30
0.0
 11
121.0979999999999
 21
209.94
 31
0.0
  0
LINE
  5
3DF
  8
0
 62
     7
 10
121.0979999999999
 20
209.94
 30
0.0
 11
121.0749999999999
 21
209.9369999999999
 31
0.0
  0
LINE
  5
3E0
  8
0
 62
     7
 10
121.0749999999999
 20
209.9369999999999
 30
0.0
 11
121.0509999999999
 21
209.934
 31
0.0
  0
LINE
  5
3E1
  8
0
 62
     7
 10
121.0509999999999
 20
209.934
 30
0.0
 11
121.02800000000001
 21
209.93100000000001
 31
0.0
  0
LINE
  5
3E2
  8
0
 62
     7
 10
121.02800000000001
 20
209.93100000000001
 30
0.0
 11
121.004
 21
209.92899999999989
 31
0.0
  0
LINE
  5
3E3
  8
0
 62
     7
 10
121.004
 20
209.92899999999989
 30
0.0
 11
120.9799999999999
 21
209.92599999999999
 31
0.0
  0
LINE
  5
3E4
  8
0
 62
     7
 10
120.9799999999999
 20
209.92599999999999
 30
0.0
 11
120.95699999999999
 21
209.92399999999989
 31
0.0
  0
LINE
  5
3E5
  8
0
 62
     7
 10
120.95699999999999
 20
209.92399999999989
 30
0.0
 11
120.934
 21
209.92099999999991
 31
0.0
  0
LINE
  5
3E6
  8
0
 62
     7
 10
120.934
 20
209.92099999999991
 30
0.0
 11
120.91
 21
209.91900000000001
 31
0.0
  0
LINE
  5
3E7
  8
0
 62
     7
 10
120.91
 20
209.91900000000001
 30
0.0
 11
120.886
 21
209.91699999999989
 31
0.0
  0
LINE
  5
3E8
  8
0
 62
     7
 10
120.886
 20
209.91699999999989
 30
0.0
 11
120.863
 21
209.91499999999991
 31
0.0
  0
LINE
  5
3E9
  8
0
 62
     7
 10
120.863
 20
209.91499999999991
 30
0.0
 11
120.84
 21
209.9129999999999
 31
0.0
  0
LINE
  5
3EA
  8
0
 62
     7
 10
120.84
 20
209.9129999999999
 30
0.0
 11
120.816
 21
209.91099999999989
 31
0.0
  0
LINE
  5
3EB
  8
0
 62
     7
 10
120.816
 20
209.91099999999989
 30
0.0
 11
120.79299999999991
 21
209.90899999999999
 31
0.0
  0
LINE
  5
3EC
  8
0
 62
     7
 10
120.79299999999991
 20
209.90899999999999
 30
0.0
 11
120.76899999999991
 21
209.90700000000001
 31
0.0
  0
LINE
  5
3ED
  8
0
 62
     7
 10
120.76899999999991
 20
209.90700000000001
 30
0.0
 11
120.746
 21
209.90599999999989
 31
0.0
  0
LINE
  5
3EE
  8
0
 62
     7
 10
120.746
 20
209.90599999999989
 30
0.0
 11
120.72199999999999
 21
209.905
 31
0.0
  0
LINE
  5
3EF
  8
0
 62
     7
 10
120.72199999999999
 20
209.905
 30
0.0
 11
120.696
 21
209.90299999999991
 31
0.0
  0
LINE
  5
3F0
  8
0
 62
     7
 10
120.696
 20
209.90299999999991
 30
0.0
 11
120.669
 21
209.90199999999999
 31
0.0
  0
LINE
  5
3F1
  8
0
 62
     7
 10
120.669
 20
209.90199999999999
 30
0.0
 11
120.642
 21
209.90199999999999
 31
0.0
  0
LINE
  5
3F2
  8
0
 62
     7
 10
120.642
 20
209.90199999999999
 30
0.0
 11
120.616
 21
209.9009999999999
 31
0.0
  0
LINE
  5
3F3
  8
0
 62
     7
 10
120.616
 20
209.9009999999999
 30
0.0
 11
120.5889999999999
 21
209.90000000000001
 31
0.0
  0
LINE
  5
3F4
  8
0
 62
     7
 10
120.5889999999999
 20
209.90000000000001
 30
0.0
 11
120.5629999999999
 21
209.90000000000001
 31
0.0
  0
LINE
  5
3F5
  8
0
 62
     7
 10
120.5629999999999
 20
209.90000000000001
 30
0.0
 11
120.5359999999999
 21
209.899
 31
0.0
  0
LINE
  5
3F6
  8
0
 62
     7
 10
120.5359999999999
 20
209.899
 30
0.0
 11
120.51000000000001
 21
209.899
 31
0.0
  0
LINE
  5
3F7
  8
0
 62
     7
 10
120.51000000000001
 20
209.899
 30
0.0
 11
120.4829999999999
 21
209.899
 31
0.0
  0
LINE
  5
3F8
  8
0
 62
     7
 10
120.4829999999999
 20
209.899
 30
0.0
 11
120.456
 21
209.899
 31
0.0
  0
LINE
  5
3F9
  8
0
 62
     7
 10
120.456
 20
209.899
 30
0.0
 11
120.43000000000001
 21
209.898
 31
0.0
  0
LINE
  5
3FA
  8
0
 62
     7
 10
120.43000000000001
 20
209.898
 30
0.0
 11
120.40299999999991
 21
209.898
 31
0.0
  0
LINE
  5
3FB
  8
0
 62
     7
 10
120.40299999999991
 20
209.898
 30
0.0
 11
120.377
 21
209.898
 31
0.0
  0
LINE
  5
3FC
  8
0
 62
     7
 10
120.377
 20
209.898
 30
0.0
 11
120.34999999999999
 21
209.898
 31
0.0
  0
LINE
  5
3FD
  8
0
 62
     7
 10
120.34999999999999
 20
209.898
 30
0.0
 11
120.324
 21
209.898
 31
0.0
  0
LINE
  5
3FE
  8
0
 62
     7
 10
120.324
 20
209.898
 30
0.0
 11
120.297
 21
209.89699999999999
 31
0.0
  0
LINE
  5
3FF
  8
0
 62
     7
 10
120.297
 20
209.89699999999999
 30
0.0
 11
120.2679999999999
 21
209.89699999999999
 31
0.0
  0
LINE
  5
400
  8
0
 62
     7
 10
120.2679999999999
 20
209.89699999999999
 30
0.0
 11
120.238
 21
209.8959999999999
 31
0.0
  0
LINE
  5
401
  8
0
 62
     7
 10
120.238
 20
209.8959999999999
 30
0.0
 11
120.209
 21
209.8959999999999
 31
0.0
  0
LINE
  5
402
  8
0
 62
     7
 10
120.209
 20
209.8959999999999
 30
0.0
 11
120.18000000000001
 21
209.89500000000001
 31
0.0
  0
LINE
  5
403
  8
0
 62
     7
 10
120.18000000000001
 20
209.89500000000001
 30
0.0
 11
120.151
 21
209.89400000000001
 31
0.0
  0
LINE
  5
404
  8
0
 62
     7
 10
120.151
 20
209.89400000000001
 30
0.0
 11
120.122
 21
209.893
 31
0.0
  0
LINE
  5
405
  8
0
 62
     7
 10
120.122
 20
209.893
 30
0.0
 11
120.0929999999999
 21
209.892
 31
0.0
  0
LINE
  5
406
  8
0
 62
     7
 10
120.0929999999999
 20
209.892
 30
0.0
 11
120.0629999999999
 21
209.89099999999999
 31
0.0
  0
LINE
  5
407
  8
0
 62
     7
 10
120.0629999999999
 20
209.89099999999999
 30
0.0
 11
120.03399999999991
 21
209.8889999999999
 31
0.0
  0
LINE
  5
408
  8
0
 62
     7
 10
120.03399999999991
 20
209.8889999999999
 30
0.0
 11
120.005
 21
209.88800000000001
 31
0.0
  0
LINE
  5
409
  8
0
 62
     7
 10
120.005
 20
209.88800000000001
 30
0.0
 11
119.9759999999999
 21
209.887
 31
0.0
  0
LINE
  5
40A
  8
0
 62
     7
 10
119.9759999999999
 20
209.887
 30
0.0
 11
119.947
 21
209.886
 31
0.0
  0
LINE
  5
40B
  8
0
 62
     7
 10
119.947
 20
209.886
 30
0.0
 11
119.91799999999991
 21
209.88399999999999
 31
0.0
  0
LINE
  5
40C
  8
0
 62
     7
 10
119.91799999999991
 20
209.88399999999999
 30
0.0
 11
119.88799999999991
 21
209.8829999999999
 31
0.0
  0
LINE
  5
40D
  8
0
 62
     7
 10
119.88799999999991
 20
209.8829999999999
 30
0.0
 11
119.85899999999999
 21
209.88199999999989
 31
0.0
  0
LINE
  5
40E
  8
0
 62
     7
 10
119.85899999999999
 20
209.88199999999989
 30
0.0
 11
119.8299999999999
 21
209.87999999999991
 31
0.0
  0
LINE
  5
40F
  8
0
 62
     7
 10
121.5149999999999
 20
200.64400000000001
 30
0.0
 11
121.51600000000001
 21
200.667
 31
0.0
  0
LINE
  5
410
  8
0
 62
     7
 10
121.51600000000001
 20
200.667
 30
0.0
 11
121.5179999999999
 21
200.68899999999999
 31
0.0
  0
LINE
  5
411
  8
0
 62
     7
 10
121.5179999999999
 20
200.68899999999999
 30
0.0
 11
121.51899999999991
 21
200.7109999999999
 31
0.0
  0
LINE
  5
412
  8
0
 62
     7
 10
121.51899999999991
 20
200.7109999999999
 30
0.0
 11
121.521
 21
200.73400000000001
 31
0.0
  0
LINE
  5
413
  8
0
 62
     7
 10
121.521
 20
200.73400000000001
 30
0.0
 11
121.523
 21
200.75599999999989
 31
0.0
  0
LINE
  5
414
  8
0
 62
     7
 10
121.523
 20
200.75599999999989
 30
0.0
 11
121.52500000000001
 21
200.77799999999991
 31
0.0
  0
LINE
  5
415
  8
0
 62
     7
 10
121.52500000000001
 20
200.77799999999991
 30
0.0
 11
121.527
 21
200.80099999999999
 31
0.0
  0
LINE
  5
416
  8
0
 62
     7
 10
121.527
 20
200.80099999999999
 30
0.0
 11
121.5289999999999
 21
200.82299999999989
 31
0.0
  0
LINE
  5
417
  8
0
 62
     7
 10
121.5289999999999
 20
200.82299999999989
 30
0.0
 11
121.532
 21
200.84499999999991
 31
0.0
  0
LINE
  5
418
  8
0
 62
     7
 10
121.532
 20
200.84499999999991
 30
0.0
 11
121.5349999999999
 21
200.86699999999999
 31
0.0
  0
LINE
  5
419
  8
0
 62
     7
 10
121.5349999999999
 20
200.86699999999999
 30
0.0
 11
121.5379999999999
 21
200.88900000000001
 31
0.0
  0
LINE
  5
41A
  8
0
 62
     7
 10
121.5379999999999
 20
200.88900000000001
 30
0.0
 11
121.5419999999999
 21
200.91200000000001
 31
0.0
  0
LINE
  5
41B
  8
0
 62
     7
 10
121.5419999999999
 20
200.91200000000001
 30
0.0
 11
121.545
 21
200.934
 31
0.0
  0
LINE
  5
41C
  8
0
 62
     7
 10
121.545
 20
200.934
 30
0.0
 11
121.55
 21
200.95599999999999
 31
0.0
  0
LINE
  5
41D
  8
0
 62
     7
 10
121.55
 20
200.95599999999999
 30
0.0
 11
121.554
 21
200.97799999999989
 31
0.0
  0
LINE
  5
41E
  8
0
 62
     7
 10
121.554
 20
200.97799999999989
 30
0.0
 11
121.55799999999989
 21
201.0
 31
0.0
  0
LINE
  5
41F
  8
0
 62
     7
 10
121.55799999999989
 20
201.0
 30
0.0
 11
121.5629999999999
 21
201.024
 31
0.0
  0
LINE
  5
420
  8
0
 62
     7
 10
121.5629999999999
 20
201.024
 30
0.0
 11
121.569
 21
201.048
 31
0.0
  0
LINE
  5
421
  8
0
 62
     7
 10
121.569
 20
201.048
 30
0.0
 11
121.575
 21
201.07299999999989
 31
0.0
  0
LINE
  5
422
  8
0
 62
     7
 10
121.575
 20
201.07299999999989
 30
0.0
 11
121.581
 21
201.09699999999989
 31
0.0
  0
LINE
  5
423
  8
0
 62
     7
 10
121.581
 20
201.09699999999989
 30
0.0
 11
121.587
 21
201.1209999999999
 31
0.0
  0
LINE
  5
424
  8
0
 62
     7
 10
121.587
 20
201.1209999999999
 30
0.0
 11
121.59399999999999
 21
201.1449999999999
 31
0.0
  0
LINE
  5
425
  8
0
 62
     7
 10
121.59399999999999
 20
201.1449999999999
 30
0.0
 11
121.601
 21
201.16900000000001
 31
0.0
  0
LINE
  5
426
  8
0
 62
     7
 10
121.601
 20
201.16900000000001
 30
0.0
 11
121.607
 21
201.1929999999999
 31
0.0
  0
LINE
  5
427
  8
0
 62
     7
 10
121.607
 20
201.1929999999999
 30
0.0
 11
121.61499999999999
 21
201.21700000000001
 31
0.0
  0
LINE
  5
428
  8
0
 62
     7
 10
121.61499999999999
 20
201.21700000000001
 30
0.0
 11
121.622
 21
201.24100000000001
 31
0.0
  0
LINE
  5
429
  8
0
 62
     7
 10
121.622
 20
201.24100000000001
 30
0.0
 11
121.62899999999991
 21
201.2649999999999
 31
0.0
  0
LINE
  5
42A
  8
0
 62
     7
 10
121.62899999999991
 20
201.2649999999999
 30
0.0
 11
121.636
 21
201.28899999999999
 31
0.0
  0
LINE
  5
42B
  8
0
 62
     7
 10
121.636
 20
201.28899999999999
 30
0.0
 11
121.64399999999991
 21
201.3129999999999
 31
0.0
  0
LINE
  5
42C
  8
0
 62
     7
 10
121.64399999999991
 20
201.3129999999999
 30
0.0
 11
121.651
 21
201.33699999999999
 31
0.0
  0
LINE
  5
42D
  8
0
 62
     7
 10
121.651
 20
201.33699999999999
 30
0.0
 11
121.6579999999999
 21
201.3609999999999
 31
0.0
  0
LINE
  5
42E
  8
0
 62
     7
 10
121.6579999999999
 20
201.3609999999999
 30
0.0
 11
121.666
 21
201.38499999999999
 31
0.0
  0
LINE
  5
42F
  8
0
 62
     7
 10
121.666
 20
201.38499999999999
 30
0.0
 11
121.6729999999999
 21
201.40899999999999
 31
0.0
  0
LINE
  5
430
  8
0
 62
     7
 10
121.6729999999999
 20
201.40899999999999
 30
0.0
 11
121.68000000000001
 21
201.43199999999999
 31
0.0
  0
LINE
  5
431
  8
0
 62
     7
 10
121.68000000000001
 20
201.43199999999999
 30
0.0
 11
121.68600000000001
 21
201.45500000000001
 31
0.0
  0
LINE
  5
432
  8
0
 62
     7
 10
121.68600000000001
 20
201.45500000000001
 30
0.0
 11
121.693
 21
201.47900000000001
 31
0.0
  0
LINE
  5
433
  8
0
 62
     7
 10
121.693
 20
201.47900000000001
 30
0.0
 11
121.7
 21
201.50200000000001
 31
0.0
  0
LINE
  5
434
  8
0
 62
     7
 10
121.7
 20
201.50200000000001
 30
0.0
 11
121.70699999999999
 21
201.52600000000001
 31
0.0
  0
LINE
  5
435
  8
0
 62
     7
 10
121.70699999999999
 20
201.52600000000001
 30
0.0
 11
121.71299999999999
 21
201.54900000000001
 31
0.0
  0
LINE
  5
436
  8
0
 62
     7
 10
121.71299999999999
 20
201.54900000000001
 30
0.0
 11
121.71899999999989
 21
201.57199999999989
 31
0.0
  0
LINE
  5
437
  8
0
 62
     7
 10
121.71899999999989
 20
201.57199999999989
 30
0.0
 11
121.72499999999989
 21
201.59599999999989
 31
0.0
  0
LINE
  5
438
  8
0
 62
     7
 10
121.72499999999989
 20
201.59599999999989
 30
0.0
 11
121.73099999999999
 21
201.61999999999989
 31
0.0
  0
LINE
  5
439
  8
0
 62
     7
 10
121.73099999999999
 20
201.61999999999989
 30
0.0
 11
121.738
 21
201.643
 31
0.0
  0
LINE
  5
43A
  8
0
 62
     7
 10
121.738
 20
201.643
 30
0.0
 11
121.74299999999999
 21
201.66699999999989
 31
0.0
  0
LINE
  5
43B
  8
0
 62
     7
 10
121.74299999999999
 20
201.66699999999989
 30
0.0
 11
121.74799999999991
 21
201.69
 31
0.0
  0
LINE
  5
43C
  8
0
 62
     7
 10
121.74799999999991
 20
201.69
 30
0.0
 11
121.75399999999991
 21
201.714
 31
0.0
  0
LINE
  5
43D
  8
0
 62
     7
 10
121.75399999999991
 20
201.714
 30
0.0
 11
121.7589999999999
 21
201.738
 31
0.0
  0
LINE
  5
43E
  8
0
 62
     7
 10
121.7589999999999
 20
201.738
 30
0.0
 11
121.764
 21
201.76199999999989
 31
0.0
  0
LINE
  5
43F
  8
0
 62
     7
 10
121.764
 20
201.76199999999989
 30
0.0
 11
121.76899999999991
 21
201.785
 31
0.0
  0
LINE
  5
440
  8
0
 62
     7
 10
121.76899999999991
 20
201.785
 30
0.0
 11
121.7729999999999
 21
201.809
 31
0.0
  0
LINE
  5
441
  8
0
 62
     7
 10
121.7729999999999
 20
201.809
 30
0.0
 11
121.77799999999991
 21
201.83199999999999
 31
0.0
  0
LINE
  5
442
  8
0
 62
     7
 10
121.77799999999991
 20
201.83199999999999
 30
0.0
 11
121.782
 21
201.8549999999999
 31
0.0
  0
LINE
  5
443
  8
0
 62
     7
 10
121.782
 20
201.8549999999999
 30
0.0
 11
121.7859999999999
 21
201.87899999999999
 31
0.0
  0
LINE
  5
444
  8
0
 62
     7
 10
121.7859999999999
 20
201.87899999999999
 30
0.0
 11
121.78999999999991
 21
201.90199999999999
 31
0.0
  0
LINE
  5
445
  8
0
 62
     7
 10
121.78999999999991
 20
201.90199999999999
 30
0.0
 11
121.794
 21
201.92599999999999
 31
0.0
  0
LINE
  5
446
  8
0
 62
     7
 10
121.794
 20
201.92599999999999
 30
0.0
 11
121.797
 21
201.94900000000001
 31
0.0
  0
LINE
  5
447
  8
0
 62
     7
 10
121.797
 20
201.94900000000001
 30
0.0
 11
121.7999999999999
 21
201.97300000000001
 31
0.0
  0
LINE
  5
448
  8
0
 62
     7
 10
121.7999999999999
 20
201.97300000000001
 30
0.0
 11
121.8029999999999
 21
201.9959999999999
 31
0.0
  0
LINE
  5
449
  8
0
 62
     7
 10
121.8029999999999
 20
201.9959999999999
 30
0.0
 11
121.8059999999999
 21
202.0199999999999
 31
0.0
  0
LINE
  5
44A
  8
0
 62
     7
 10
121.8059999999999
 20
202.0199999999999
 30
0.0
 11
121.80800000000001
 21
202.04400000000001
 31
0.0
  0
LINE
  5
44B
  8
0
 62
     7
 10
121.80800000000001
 20
202.04400000000001
 30
0.0
 11
121.81100000000001
 21
202.06699999999989
 31
0.0
  0
LINE
  5
44C
  8
0
 62
     7
 10
121.81100000000001
 20
202.06699999999989
 30
0.0
 11
121.8129999999999
 21
202.09099999999989
 31
0.0
  0
LINE
  5
44D
  8
0
 62
     7
 10
121.8129999999999
 20
202.09099999999989
 30
0.0
 11
121.816
 21
202.11500000000001
 31
0.0
  0
LINE
  5
44E
  8
0
 62
     7
 10
121.816
 20
202.11500000000001
 30
0.0
 11
121.818
 21
202.13800000000001
 31
0.0
  0
LINE
  5
44F
  8
0
 62
     7
 10
122.601
 20
211.44300000000001
 30
0.0
 11
122.55
 21
211.2049999999999
 31
0.0
  0
LINE
  5
450
  8
0
 62
     7
 10
122.55
 20
211.2049999999999
 30
0.0
 11
122.4679999999999
 21
210.97399999999999
 31
0.0
  0
LINE
  5
451
  8
0
 62
     7
 10
122.4679999999999
 20
210.97399999999999
 30
0.0
 11
122.357
 21
210.75699999999989
 31
0.0
  0
LINE
  5
452
  8
0
 62
     7
 10
122.357
 20
210.75699999999989
 30
0.0
 11
122.2179999999999
 21
210.55500000000001
 31
0.0
  0
LINE
  5
453
  8
0
 62
     7
 10
122.2179999999999
 20
210.55500000000001
 30
0.0
 11
122.0539999999999
 21
210.374
 31
0.0
  0
LINE
  5
454
  8
0
 62
     7
 10
122.0539999999999
 20
210.374
 30
0.0
 11
121.869
 21
210.21700000000001
 31
0.0
  0
LINE
  5
455
  8
0
 62
     7
 10
121.869
 20
210.21700000000001
 30
0.0
 11
121.66500000000001
 21
210.0859999999999
 31
0.0
  0
LINE
  5
456
  8
0
 62
     7
 10
121.66500000000001
 20
210.0859999999999
 30
0.0
 11
121.447
 21
209.9849999999999
 31
0.0
  0
ARC
  5
457
  8
0
 62
     7
 10
127.9808339999999
 20
199.723895
 30
0.0
 40
1.294754999999999
 50
88.104573000000016
 51
134.70375200000001
  0
ARC
  5
458
  8
0
 62
     7
 10
122.41379499999999
 20
199.7293709999999
 30
0.0
 40
1.2898529999999999
 50
45.17057299999999
 51
81.235022000000015
  0
ARC
  5
459
  8
0
 62
     7
 10
125.1965949999999
 20
196.07874499999991
 30
0.0
 40
4.9348479999999997
 50
67.688742000000005
 51
112.311238
  0
ARC
  5
45A
  8
0
 62
     7
 10
127.9742209999999
 20
199.49473599999999
 30
0.0
 40
1.3275879999999991
 50
227.07324299999999
 51
312.92677700000002
  0
ARC
  5
45B
  8
0
 62
     7
 10
122.4189689999999
 20
199.49473599999999
 30
0.0
 40
1.3275879999999991
 50
227.07324299999999
 51
312.92677700000002
  0
ARC
  5
45C
  8
0
 62
     7
 10
125.1965949999999
 20
203.079803
 30
0.0
 40
4.9272249999999991
 50
247.6523819999999
 51
292.3476379999999
  0
ARC
  5
45D
  8
0
 62
     7
 10
113.7985409999999
 20
212.74307999999991
 30
0.0
 40
1.800179
 50
98.311430000000001
 51
171.68205099999989
  0
ARC
  5
45E
  8
0
 62
     7
 10
75.31853199999999
 20
291.18962599999992
 30
0.0
 40
50.081905999999989
 50
268.21487799999989
 51
271.78514200000001
  0
LINE
  5
45F
  8
0
 62
     7
 10
76.223399999999998
 20
241.1159999999999
 30
0.0
 11
76.223399999999998
 21
242.13099999999989
 31
0.0
  0
LINE
  5
460
  8
0
 62
     7
 10
76.597999999999999
 20
241.124
 30
0.0
 11
76.597999999999999
 21
242.13099999999989
 31
0.0
  0
LINE
  5
461
  8
0
 62
     7
 10
75.786699999999996
 20
241.11000000000001
 30
0.0
 11
75.786699999999996
 21
242.13099999999989
 31
0.0
  0
LINE
  5
462
  8
0
 62
     7
 10
74.849999999999994
 20
241.11000000000001
 30
0.0
 11
74.849999999999994
 21
242.13099999999989
 31
0.0
  0
LINE
  5
463
  8
0
 62
     7
 10
74.038700000000006
 20
241.124
 30
0.0
 11
74.038700000000006
 21
242.13099999999989
 31
0.0
  0
LINE
  5
464
  8
0
 62
     7
 10
74.413700000000006
 20
241.1159999999999
 30
0.0
 11
74.413700000000006
 21
242.13099999999989
 31
0.0
  0
LINE
  5
465
  8
0
 62
     7
 10
73.751199999999983
 20
241.13199999999989
 30
0.0
 11
73.751199999999983
 21
242.13099999999989
 31
0.0
  0
LINE
  5
466
  8
0
 62
     7
 10
73.570300000000003
 20
241.2409999999999
 30
0.0
 11
73.570300000000003
 21
242.13099999999989
 31
0.0
  0
LINE
  5
467
  8
0
 62
     7
 10
76.885499999999993
 20
241.13199999999989
 30
0.0
 11
76.885499999999993
 21
242.13099999999989
 31
0.0
  0
LINE
  5
468
  8
0
 62
     7
 10
75.3185
 20
241.107
 30
0.0
 11
75.3185
 21
242.13099999999989
 31
0.0
  0
LINE
  5
469
  8
0
 62
     7
 10
73.652500000000003
 20
242.13099999999989
 30
0.0
 11
77.128299999999996
 21
242.13099999999989
 31
0.0
  0
LINE
  5
46A
  8
0
 62
     7
 10
77.066400000000002
 20
241.2409999999999
 30
0.0
 11
77.066400000000002
 21
242.13099999999989
 31
0.0
  0
LINE
  5
46B
  8
0
 62
     7
 10
73.758399999999995
 20
241.13199999999989
 30
0.0
 11
73.508799999999994
 21
241.27600000000001
 31
0.0
  0
LINE
  5
46C
  8
0
 62
     7
 10
73.508799999999994
 20
241.27600000000001
 30
0.0
 11
73.508799999999994
 21
242.13099999999989
 31
0.0
  0
LINE
  5
46D
  8
0
 62
     7
 10
76.878500000000003
 20
241.13199999999989
 30
0.0
 11
77.128299999999996
 21
241.27600000000001
 31
0.0
  0
LINE
  5
46E
  8
0
 62
     7
 10
73.508799999999994
 20
242.13099999999989
 30
0.0
 11
77.128299999999996
 21
242.13099999999989
 31
0.0
  0
LINE
  5
46F
  8
0
 62
     7
 10
77.128299999999996
 20
241.27600000000001
 30
0.0
 11
77.128299999999996
 21
242.13099999999989
 31
0.0
  0
ARC
  5
470
  8
0
 62
     7
 10
159.847159
 20
206.88445899999999
 30
0.0
 40
49.387584999999987
 50
178.18974299999991
 51
181.81025700000001
  0
ARC
  5
471
  8
0
 62
     7
 10
113.1944449999999
 20
203.826695
 30
0.0
 40
1.5426619999999991
 50
188.305858
 51
261.69417099999993
  0
ARC
  5
472
  8
0
 62
     7
 10
120.07930399999999
 20
202.14165199999991
 30
0.0
 40
1.7476219999999989
 50
0.002834
 51
90.002803999999983
  0
ARC
  5
473
  8
0
 62
     7
 10
129.05702999999991
 20
201.36295200000001
 30
0.0
 40
0.6344870000000001
 50
171.72538700000001
 51
224.547335
  0
ARC
  5
474
  8
0
 62
     7
 10
106.300995
 20
204.870462
 30
0.0
 40
22.390326999999999
 50
351.22339299999999
 51
0.010091
  0
ARC
  5
475
  8
0
 62
     7
 10
106.200344
 20
206.01827099999991
 30
0.0
 40
22.507650999999999
 50
357.79447399999998
 51
2.205525999999999
  0
ARC
  5
476
  8
0
 62
     7
 10
119.551661
 20
207.415952
 30
0.0
 40
3.7528669999999988
 50
136.3852389999999
 51
163.096937
  0
ARC
  5
477
  8
0
 62
     7
 10
117.833001
 20
208.79229900000001
 30
0.0
 40
1.570578
 50
50.529078999999989
 51
129.470901
  0
ARC
  5
478
  8
0
 62
     7
 10
117.833001
 20
204.9767919999999
 30
0.0
 40
1.570578
 50
230.529099
 51
309.47092099999992
  0
ARC
  5
479
  8
0
 62
     7
 10
119.5566409999999
 20
206.3552169999999
 30
0.0
 40
3.757906999999999
 50
196.91282899999999
 51
223.5853259999999
  0
LINE
  5
47A
  8
0
 62
     7
 10
115.961
 20
208.50699999999989
 30
0.0
 11
115.961
 21
205.262
 31
0.0
  0
LINE
  5
47B
  8
0
 62
     7
 10
127.7919999999999
 20
211.87700000000001
 30
0.0
 11
122.601
 21
211.87700000000001
 31
0.0
  0
LINE
  5
47C
  8
0
 62
     7
 10
122.84999999999989
 20
211.87700000000001
 30
0.0
 11
122.601
 21
211.44399999999999
 31
0.0
  0
LINE
  5
47D
  8
0
 62
     7
 10
122.601
 20
212.393
 30
0.0
 11
122.601
 21
211.44399999999999
 31
0.0
  0
LINE
  5
47E
  8
0
 62
     7
 10
122.84999999999989
 20
212.393
 30
0.0
 11
122.84999999999989
 21
211.87700000000001
 31
0.0
  0
LINE
  5
47F
  8
0
 62
     7
 10
127.54299999999991
 20
211.87700000000001
 30
0.0
 11
127.7919999999999
 21
211.44399999999999
 31
0.0
  0
LINE
  5
480
  8
0
 62
     7
 10
127.54299999999991
 20
212.393
 30
0.0
 11
127.54299999999991
 21
211.87700000000001
 31
0.0
  0
LINE
  5
481
  8
0
 62
     7
 10
127.7919999999999
 20
212.393
 30
0.0
 11
127.7919999999999
 21
211.44399999999999
 31
0.0
  0
LINE
  5
482
  8
0
  6
AIGENLINE001
 62
     7
 10
109.8449999999999
 20
206.88399999999999
 30
0.0
 11
129.86299999999989
 21
206.88399999999999
 31
0.0
  0
LINE
  5
483
  8
0
 62
     7
 10
123.32299999999999
 20
200.64400000000001
 30
0.0
 11
123.32299999999999
 21
198.52299999999991
 31
0.0
  0
LINE
  5
484
  8
0
 62
     7
 10
127.06999999999989
 20
200.64400000000001
 30
0.0
 11
127.06999999999989
 21
198.52299999999991
 31
0.0
  0
LINE
  5
485
  8
0
 62
     7
 10
110.4679999999999
 20
205.97999999999999
 30
0.0
 11
111.4829999999999
 21
205.97999999999999
 31
0.0
  0
LINE
  5
486
  8
0
 62
     7
 10
110.4759999999999
 20
205.6049999999999
 30
0.0
 11
111.4829999999999
 21
205.6049999999999
 31
0.0
  0
LINE
  5
487
  8
0
 62
     7
 10
110.462
 20
206.416
 30
0.0
 11
111.4829999999999
 21
206.416
 31
0.0
  0
LINE
  5
488
  8
0
 62
     7
 10
110.462
 20
207.35299999999989
 30
0.0
 11
111.4829999999999
 21
207.35299999999989
 31
0.0
  0
LINE
  5
489
  8
0
 62
     7
 10
110.4759999999999
 20
208.16399999999999
 30
0.0
 11
111.4829999999999
 21
208.16399999999999
 31
0.0
  0
LINE
  5
48A
  8
0
 62
     7
 10
110.4679999999999
 20
207.78999999999999
 30
0.0
 11
111.4829999999999
 21
207.78999999999999
 31
0.0
  0
LINE
  5
48B
  8
0
 62
     7
 10
110.485
 20
208.45199999999991
 30
0.0
 11
111.4829999999999
 21
208.45199999999991
 31
0.0
  0
LINE
  5
48C
  8
0
 62
     7
 10
110.5929999999999
 20
208.6329999999999
 30
0.0
 11
111.4829999999999
 21
208.6329999999999
 31
0.0
  0
LINE
  5
48D
  8
0
 62
     7
 10
110.485
 20
205.31700000000001
 30
0.0
 11
111.4829999999999
 21
205.31700000000001
 31
0.0
  0
LINE
  5
48E
  8
0
 62
     7
 10
110.45999999999999
 20
206.88399999999999
 30
0.0
 11
111.4829999999999
 21
206.88399999999999
 31
0.0
  0
LINE
  5
48F
  8
0
 62
     7
 10
111.4829999999999
 20
208.5509999999999
 30
0.0
 11
111.4829999999999
 21
205.0749999999999
 31
0.0
  0
LINE
  5
490
  8
0
 62
     7
 10
110.5929999999999
 20
205.13699999999989
 30
0.0
 11
111.4829999999999
 21
205.13699999999989
 31
0.0
  0
LINE
  5
491
  8
0
 62
     7
 10
112.017
 20
213.00399999999999
 30
0.0
 11
111.4829999999999
 21
208.66199999999989
 31
0.0
  0
LINE
  5
492
  8
0
 62
     7
 10
114.33799999999999
 20
202.13200000000001
 30
0.0
 11
112.97199999999999
 21
202.30000000000001
 31
0.0
  0
LINE
  5
493
  8
0
 62
     7
 10
114.33799999999999
 20
214.62299999999999
 30
0.0
 11
113.538
 21
214.524
 31
0.0
  0
LINE
  5
494
  8
0
 62
     7
 10
114.33799999999999
 20
202.14199999999991
 30
0.0
 11
114.33799999999999
 21
214.62299999999999
 31
0.0
  0
LINE
  5
495
  8
0
 62
     7
 10
110.48399999999999
 20
208.44499999999991
 30
0.0
 11
110.62899999999991
 21
208.69399999999999
 31
0.0
  0
LINE
  5
496
  8
0
 62
     7
 10
110.62899999999991
 20
208.69399999999999
 30
0.0
 11
111.4829999999999
 21
208.69399999999999
 31
0.0
  0
LINE
  5
497
  8
0
 62
     7
 10
110.48399999999999
 20
205.3249999999999
 30
0.0
 11
110.62899999999991
 21
205.0749999999999
 31
0.0
  0
LINE
  5
498
  8
0
 62
     7
 10
111.4829999999999
 20
208.69399999999999
 30
0.0
 11
111.4829999999999
 21
205.0749999999999
 31
0.0
  0
LINE
  5
499
  8
0
 62
     7
 10
111.66799999999991
 20
203.60400000000001
 30
0.0
 11
111.4829999999999
 21
205.107
 31
0.0
  0
LINE
  5
49A
  8
0
 62
     7
 10
110.62899999999991
 20
205.0749999999999
 30
0.0
 11
111.4829999999999
 21
205.0749999999999
 31
0.0
  0
LINE
  5
49B
  8
0
 62
     7
 10
118.8309999999999
 20
204.06399999999999
 30
0.0
 11
119.456
 21
204.06399999999999
 31
0.0
  0
LINE
  5
49C
  8
0
 62
     7
 10
119.758
 20
203.88900000000001
 30
0.0
 11
119.456
 21
204.06399999999999
 31
0.0
  0
LINE
  5
49D
  8
0
 62
     7
 10
118.8309999999999
 20
209.70500000000001
 30
0.0
 11
119.456
 21
209.70500000000001
 31
0.0
  0
LINE
  5
49E
  8
0
 62
     7
 10
119.456
 20
209.70500000000001
 30
0.0
 11
119.758
 21
209.87999999999991
 31
0.0
  0
LINE
  5
49F
  8
0
 62
     7
 10
115.836
 20
208.50699999999989
 30
0.0
 11
115.961
 21
208.50699999999989
 31
0.0
  0
LINE
  5
4A0
  8
0
 62
     7
 10
115.836
 20
208.50699999999989
 30
0.0
 11
115.836
 21
205.262
 31
0.0
  0
LINE
  5
4A1
  8
0
 62
     7
 10
118.8309999999999
 20
210.00499999999991
 30
0.0
 11
118.8309999999999
 21
203.76400000000001
 31
0.0
  0
LINE
  5
4A2
  8
0
 62
     7
 10
115.836
 20
205.262
 30
0.0
 11
115.961
 21
205.262
 31
0.0
  0
LINE
  5
4A3
  8
0
 62
     7
 10
114.33799999999999
 20
208.06999999999991
 30
0.0
 11
115.836
 21
208.06999999999991
 31
0.0
  0
LINE
  5
4A4
  8
0
 62
     7
 10
114.33799999999999
 20
205.69900000000001
 30
0.0
 11
115.836
 21
205.69900000000001
 31
0.0
  0
LINE
  5
4A5
  8
0
 62
     7
 10
128.50399999999991
 20
198.14799999999991
 30
0.0
 11
121.889
 21
198.14799999999991
 31
0.0
  0
LINE
  5
4A6
  8
0
 62
     7
 10
128.6049999999999
 20
200.91800000000001
 30
0.0
 11
128.8779999999999
 21
200.64400000000001
 31
0.0
  0
LINE
  5
4A7
  8
0
 62
     7
 10
121.889
 20
198.14799999999991
 30
0.0
 11
121.5149999999999
 21
198.52299999999991
 31
0.0
  0
LINE
  5
4A8
  8
0
 62
     7
 10
128.50399999999991
 20
198.14799999999991
 30
0.0
 11
128.8779999999999
 21
198.52299999999991
 31
0.0
  0
LINE
  5
4A9
  8
0
 62
     7
 10
128.8779999999999
 20
200.64400000000001
 30
0.0
 11
128.8779999999999
 21
198.52299999999991
 31
0.0
  0
LINE
  5
4AA
  8
0
 62
     7
 10
121.5149999999999
 20
200.64400000000001
 30
0.0
 11
121.5149999999999
 21
198.52299999999991
 31
0.0
  0
LINE
  5
4AB
  8
0
 62
     7
 10
128.69099999999989
 20
205.15199999999999
 30
0.0
 11
128.69099999999989
 21
204.874
 31
0.0
  0
LINE
  5
4AC
  8
0
  6
AIGENLINE001
 62
     7
 10
125.197
 20
219.042
 30
0.0
 11
125.197
 21
81.911800000000014
 31
0.0
  0
LINE
  5
4AD
  8
0
 62
     7
 10
118.8309999999999
 20
209.87999999999991
 30
0.0
 11
119.8299999999999
 21
209.87999999999991
 31
0.0
  0
LINE
  5
4AE
  8
0
 62
     7
 10
119.456
 20
209.87999999999991
 30
0.0
 11
119.456
 21
203.88900000000001
 31
0.0
  0
LINE
  5
4AF
  8
0
 62
     7
 10
119.8299999999999
 20
203.88900000000001
 30
0.0
 11
120.07899999999999
 21
203.88900000000001
 31
0.0
  0
LINE
  5
4B0
  8
0
 62
     7
 10
118.8309999999999
 20
203.88900000000001
 30
0.0
 11
119.8299999999999
 21
203.88900000000001
 31
0.0
  0
LINE
  5
4B1
  8
0
 62
     7
 10
125.197
 20
219.733
 30
0.0
 11
125.197
 21
224.26599999999991
 31
0.0
  0
LINE
  5
4B2
  8
0
 62
     7
 10
110.45999999999999
 20
209.20699999999999
 30
0.0
 11
110.45999999999999
 21
224.26599999999991
 31
0.0
  0
LINE
  5
4B3
  8
0
 62
     7
 10
112.67
 20
224.17699999999999
 30
0.0
 11
110.45999999999999
 21
223.58500000000001
 31
0.0
  0
LINE
  5
4B4
  8
0
 62
     7
 10
110.45999999999999
 20
223.58500000000001
 30
0.0
 11
112.67
 21
222.99199999999999
 31
0.0
  0
LINE
  5
4B5
  8
0
 62
     7
 10
112.67
 20
222.99199999999999
 30
0.0
 11
112.67
 21
224.17699999999999
 31
0.0
  0
LINE
  5
4B6
  8
0
 62
     7
 10
122.986
 20
223.00699999999989
 30
0.0
 11
125.197
 21
223.59899999999999
 31
0.0
  0
LINE
  5
4B7
  8
0
 62
     7
 10
125.197
 20
223.59899999999999
 30
0.0
 11
122.986
 21
224.19099999999989
 31
0.0
  0
LINE
  5
4B8
  8
0
 62
     7
 10
122.986
 20
224.19099999999989
 30
0.0
 11
122.986
 21
223.00699999999989
 31
0.0
  0
LINE
  5
4B9
  8
0
 62
     7
 10
110.45999999999999
 20
223.59200000000001
 30
0.0
 11
125.197
 21
223.59200000000001
 31
0.0
  0
LINE
  5
4BA
  8
0
 62
     7
 10
117.697
 20
84.738200000000006
 30
0.0
 11
117.697
 21
74.341499999999996
 31
0.0
  0
LINE
  5
4BB
  8
0
 62
     7
 10
132.69699999999989
 20
84.738200000000006
 30
0.0
 11
132.69699999999989
 21
74.341499999999996
 31
0.0
  0
LINE
  5
4BC
  8
0
 62
     7
 10
130.4859999999999
 20
74.456599999999995
 30
0.0
 11
132.69699999999989
 21
75.048799999999986
 31
0.0
  0
LINE
  5
4BD
  8
0
 62
     7
 10
132.69699999999989
 20
75.048799999999986
 30
0.0
 11
130.4859999999999
 21
75.641000000000005
 31
0.0
  0
LINE
  5
4BE
  8
0
 62
     7
 10
130.4859999999999
 20
75.641000000000005
 30
0.0
 11
130.4859999999999
 21
74.456599999999995
 31
0.0
  0
LINE
  5
4BF
  8
0
 62
     7
 10
119.907
 20
75.626499999999993
 30
0.0
 11
117.697
 21
75.034300000000002
 31
0.0
  0
LINE
  5
4C0
  8
0
 62
     7
 10
117.697
 20
75.034300000000002
 30
0.0
 11
119.907
 21
74.442099999999996
 31
0.0
  0
LINE
  5
4C1
  8
0
 62
     7
 10
119.907
 20
74.442099999999996
 30
0.0
 11
119.907
 21
75.626499999999993
 31
0.0
  0
LINE
  5
4C2
  8
0
 62
     7
 10
132.69699999999989
 20
75.041499999999999
 30
0.0
 11
117.697
 21
75.041499999999999
 31
0.0
  0
LINE
  5
4C3
  8
0
 62
     7
 10
121.447
 20
82.688699999999983
 30
0.0
 11
122.69499999999989
 21
84.606899999999996
 31
0.0
  0
LINE
  5
4C4
  8
0
 62
     7
 10
122.69499999999989
 20
84.606899999999996
 30
0.0
 11
120.655
 21
83.569599999999994
 31
0.0
  0
LINE
  5
4C5
  8
0
 62
     7
 10
120.655
 20
83.569599999999994
 30
0.0
 11
121.447
 21
82.688699999999983
 31
0.0
  0
LINE
  5
4C6
  8
0
 62
     7
 10
122.69499999999989
 20
84.606899999999996
 30
0.0
 11
117.235
 21
79.697299999999998
 31
0.0
  0
LINE
  5
4C7
  8
0
 62
     7
 10
117.235
 20
79.697299999999998
 30
0.0
 11
109.2789999999999
 21
79.697299999999998
 31
0.0
  0
TEXT
  5
4C8
  8
_________2
 62
     7
 10
29.7258
 20
21.827200000000001
 30
0.0
 40
3.9357000000000002
  1
・ストレーナ付、固定こま式
 41
0.5
  0
LINE
  5
4C9
  8
_________2
 62
     7
 10
210.24000000000001
 20
148.93100000000001
 30
0.0
 11
188.49000000000001
 21
148.93100000000001
 31
0.0
  0
LINE
  5
4CA
  8
_________2
 62
     7
 10
105.2389999999999
 20
17.428499999999989
 30
0.0
 11
105.2389999999999
 21
0.4482100000000001
 31
0.0
  0
LINE
  5
4CB
  8
_________2
 62
     7
 10
105.2389999999999
 20
297.44999999999987
 30
0.0
 11
105.2389999999999
 21
280.42999999999989
 31
0.0
  0
LINE
  5
4CC
  8
_________2
 62
     7
 10
21.988499999999991
 20
148.93100000000001
 30
0.0
 11
0.238058
 21
148.93100000000001
 31
0.0
  0
LINE
  5
4CD
  8
_________2
 62
     7
 10
81.679900000000004
 20
51.324300000000001
 30
0.0
 11
79.493700000000004
 21
51.324300000000001
 31
0.0
  0
LINE
  5
4CE
  8
_________2
 62
     7
 10
82.172600000000017
 20
51.324300000000001
 30
0.0
 11
81.920400000000001
 21
51.324300000000001
 31
0.0
  0
LINE
  5
4CF
  8
_________2
 62
     7
 10
82.665199999999984
 20
51.324300000000001
 30
0.0
 11
85.590100000000007
 21
51.324300000000001
 31
0.0
  0
LINE
  5
4D0
  8
_________2
 62
     7
 10
82.172600000000017
 20
51.324300000000001
 30
0.0
 11
82.424800000000005
 21
51.324300000000001
 31
0.0
  0
LINE
  5
4D1
  8
_________2
 62
     7
 10
75.776399999999995
 20
51.324300000000001
 30
0.0
 11
73.589399999999998
 21
51.324300000000001
 31
0.0
  0
LINE
  5
4D2
  8
_________2
 62
     7
 10
76.2684
 20
51.324300000000001
 30
0.0
 11
76.016900000000007
 21
51.324300000000001
 31
0.0
  0
LINE
  5
4D3
  8
_________2
 62
     7
 10
76.2684
 20
51.817
 30
0.0
 11
76.2684
 21
54.003900000000002
 31
0.0
  0
LINE
  5
4D4
  8
_________2
 62
     7
 10
76.2684
 20
51.324300000000001
 30
0.0
 11
76.2684
 21
51.576500000000003
 31
0.0
  0
LINE
  5
4D5
  8
_________2
 62
     7
 10
76.76100000000001
 20
51.324300000000001
 30
0.0
 11
78.947999999999993
 21
51.324300000000001
 31
0.0
  0
LINE
  5
4D6
  8
_________2
 62
     7
 10
76.2684
 20
51.324300000000001
 30
0.0
 11
76.520499999999998
 21
51.324300000000001
 31
0.0
  0
LINE
  5
4D7
  8
_________2
 62
     7
 10
76.2684
 20
50.832399999999993
 30
0.0
 11
76.2684
 21
48.645400000000002
 31
0.0
  0
LINE
  5
4D8
  8
_________2
 62
     7
 10
76.2684
 20
51.324300000000001
 30
0.0
 11
76.2684
 21
51.072800000000001
 31
0.0
  0
LINE
  5
4D9
  8
_________2
 62
     7
 10
79.979399999999984
 20
50.104799999999997
 30
0.0
 11
85.157399999999996
 21
49.240000000000002
 31
0.0
  0
LINE
  5
4DA
  8
_________2
 62
     7
 10
79.979399999999984
 20
52.543900000000001
 30
0.0
 11
85.157399999999996
 21
53.409300000000002
 31
0.0
  0
LINE
  5
4DB
  8
_________2
 62
     7
 10
85.157399999999996
 20
49.240000000000002
 30
0.0
 11
85.157399999999996
 21
53.409300000000002
 31
0.0
  0
LINE
  5
4DC
  8
_________2
 62
     7
 10
79.979399999999984
 20
50.104799999999997
 30
0.0
 11
79.979399999999984
 21
52.543900000000001
 31
0.0
  0
ARC
  5
4DD
  8
_________2
 62
     7
 10
76.222110000000001
 20
51.277366999999991
 30
0.0
 40
1.2673709999999989
 50
2.1232950000000002
 51
87.909056000000007
  0
ARC
  5
4DE
  8
_________2
 62
     7
 10
76.315273000000005
 20
51.277400999999998
 30
0.0
 40
1.267363
 50
92.121785999999986
 51
177.878185
  0
ARC
  5
4DF
  8
_________2
 62
     7
 10
76.315273000000005
 20
51.371245999999992
 30
0.0
 40
1.267363
 50
182.12181499999991
 51
267.87821400000001
  0
ARC
  5
4E0
  8
_________2
 62
     7
 10
76.221461000000005
 20
51.371928999999987
 30
0.0
 40
1.2680439999999991
 50
272.11916400000001
 51
357.84848499999993
  0
ARC
  5
4E1
  8
_________2
 62
     7
 10
76.268349999999984
 20
51.324323
 30
0.0
 40
2.0849849999999992
 50
0.00001
 51
89.999980000000008
  0
ARC
  5
4E2
  8
_________2
 62
     7
 10
76.348388
 20
51.245001999999992
 30
0.0
 40
2.1657860000000002
 50
92.117855000000034
 51
177.90105299999991
  0
ARC
  5
4E3
  8
_________2
 62
     7
 10
76.348354
 20
51.404327000000002
 30
0.0
 40
2.1657779999999991
 50
182.11700400000001
 51
267.88302499999992
  0
ARC
  5
4E4
  8
_________2
 62
     7
 10
76.188378999999983
 20
51.405009999999997
 30
0.0
 40
2.1664590000000001
 50
272.11546800000002
 51
357.86560400000002
  0
TEXT
  5
4E5
  8
_________2
 62
     7
 10
109.5439999999999
 20
23.199100000000001
 30
0.0
 40
3.0923400000000001
  1
図番
 41
0.5
  0
LINE
  5
4E6
  8
_________2
 62
     7
 10
108.4889999999999
 20
27.4283
 30
0.0
 11
188.49000000000001
 21
27.4283
 31
0.0
  0
TEXT
  5
4E7
  8
_________2
 62
     7
 10
109.5439999999999
 20
33.198900000000002
 30
0.0
 40
3.0923400000000001
  1
品番
 41
0.5
  0
TEXT
  5
4E8
  8
_________2
 62
     7
 10
109.5439999999999
 20
53.337699999999998
 30
0.0
 40
3.0923400000000001
  1
名称
 41
0.5
  0
TEXT
  5
4E9
  8
_________2
 62
     7
 10
96.784058333333334
 20
48.341500000000011
 30
0.0
 40
3.6545800000000002
  1
mm
 41
0.5
 72
     1
 11
98.306799999999996
 21
48.341500000000011
 31
0.0
  0
TEXT
  5
4EA
  8
_________2
 62
     7
 10
90.582099999999997
 20
53.337699999999998
 30
0.0
 40
3.0923400000000001
  1
単位
 41
0.5
  0
TEXT
  5
4EB
  8
_________2
 62
     7
 10
90.582099999999997
 20
40.930399999999999
 30
0.0
 40
3.0923400000000001
  1
尺度
 41
0.5
  0
TEXT
  5
4EC
  8
_________2
 62
     7
 10
95.487658666666675
 20
34.73749999999999
 30
0.0
 40
3.6545800000000002
  1
1 ： 4
 41
0.5
 72
     1
 11
98.898600000000002
 21
34.73749999999999
 31
0.0
  0
TEXT
  5
4ED
  8
_________2
 62
     7
 10
143.2414
 20
30.627400000000002
 30
0.0
 40
3.9357000000000002
  1
CET145
 41
0.5
 72
     1
 11
148.489
 21
30.627400000000002
 31
0.0
  0
TEXT
  5
4EE
  8
_________2
 62
     7
 10
143.2414
 20
20.626999999999988
 30
0.0
 40
3.9357000000000002
  1
CET145
 41
0.5
 72
     1
 11
148.489
 21
20.626999999999988
 31
0.0
  0
TEXT
  5
4EF
  8
_________2
 62
     7
 10
114.11799999999999
 20
45.7453
 30
0.0
 40
3.9357000000000002
  1
ストレート止水栓
 41
0.5
  0
TEXT
  5
4F0
  8
_________2
 62
     7
 10
44.303290666666669
 20
35.122599999999991
 30
0.0
 40
3.6545800000000002
  1
高橋
 41
0.5
 72
     1
 11
46.252400000000002
 21
35.122599999999991
 31
0.0
  0
TEXT
  5
4F1
  8
_________2
 62
     7
 10
25.72929066666666
 20
35.122599999999991
 30
0.0
 40
3.6545800000000002
  1
石原
 41
0.5
 72
     1
 11
27.6784
 21
35.122599999999991
 31
0.0
  0
TEXT
  5
4F2
  8
_________2
 62
     7
 10
72.724699999999999
 20
34.73749999999999
 30
0.0
 40
3.6545800000000002
  1
07.11.05
 41
0.5
  0
TEXT
  5
4F3
  8
_________2
 62
     7
 10
71.531999999999996
 20
40.930399999999999
 30
0.0
 40
3.0923400000000001
  1
日付
 41
0.5
  0
TEXT
  5
4F4
  8
_________2
 62
     7
 10
34.578299999999992
 20
40.930399999999999
 30
0.0
 40
3.0923400000000001
  1
検図
 41
0.5
  0
TEXT
  5
4F5
  8
_________2
 62
     7
 10
22.960000000000001
 20
26.730999999999991
 30
0.0
 40
3.0923400000000001
  1
備考
 41
0.5
  0
TEXT
  5
4F6
  8
_________2
 62
     7
 10
22.960000000000001
 20
40.930399999999999
 30
0.0
 40
3.0923400000000001
  1
製図
 41
0.5
  0
TEXT
  5
4F7
  8
_________2
 62
     7
 10
28.727365333333339
 20
49.456400000000002
 30
0.0
 40
4.4979399999999989
  1
セラトレーディング株式会社
 41
0.5
 72
     1
 11
46.119399999999992
 21
49.456400000000002
 31
0.0
  0
LINE
  5
4F8
  8
_________2
 62
     7
 10
188.49000000000001
 20
17.428499999999989
 30
0.0
 11
21.988499999999991
 21
17.428499999999989
 31
0.0
  0
LINE
  5
4F9
  8
_________2
 62
     7
 10
21.988499999999991
 20
17.428499999999989
 30
0.0
 11
21.988499999999991
 21
280.42999999999989
 31
0.0
  0
LINE
  5
4FA
  8
_________2
 62
     7
 10
21.988499999999991
 20
280.42999999999989
 30
0.0
 11
188.49000000000001
 21
280.42999999999989
 31
0.0
  0
LINE
  5
4FB
  8
_________2
 62
     7
 10
188.49000000000001
 20
280.42999999999989
 30
0.0
 11
188.49000000000001
 21
17.428499999999989
 31
0.0
  0
LINE
  5
4FC
  8
_________2
 62
     7
 10
70.488799999999998
 20
30.9285
 30
0.0
 11
70.488799999999998
 21
57.428400000000011
 31
0.0
  0
LINE
  5
4FD
  8
_________2
 62
     7
 10
89.488600000000005
 20
30.9285
 30
0.0
 11
89.488600000000005
 21
57.428400000000011
 31
0.0
  0
LINE
  5
4FE
  8
_________2
 62
     7
 10
108.4889999999999
 20
17.428499999999989
 30
0.0
 11
108.4889999999999
 21
57.428400000000011
 31
0.0
  0
LINE
  5
4FF
  8
_________2
 62
     7
 10
33.488300000000002
 20
30.9285
 30
0.0
 11
33.488300000000002
 21
44.928800000000003
 31
0.0
  0
LINE
  5
500
  8
_________2
 62
     7
 10
21.988499999999991
 20
30.9285
 30
0.0
 11
108.4889999999999
 21
30.9285
 31
0.0
  0
LINE
  5
501
  8
_________2
 62
     7
 10
21.988499999999991
 20
44.928800000000003
 30
0.0
 11
108.4889999999999
 21
44.928800000000003
 31
0.0
  0
LINE
  5
502
  8
_________2
 62
     7
 10
108.4889999999999
 20
37.428100000000001
 30
0.0
 11
188.49000000000001
 21
37.428100000000001
 31
0.0
  0
LINE
  5
503
  8
_________2
 62
     7
 10
21.988499999999991
 20
57.428400000000011
 30
0.0
 11
188.49000000000001
 21
57.428400000000011
 31
0.0
  0
ENDSEC
  0
EOF
