  0
SECTION
  2
HEADER
  9
$ACADVER
  1
AC1009
  9
$INSBASE
 10
0.0
 20
0.0
 30
0.0
  9
$EXTMIN
 10
-4.7008599999999987
 20
-21.071400000000001
 30
0.0
  9
$EXTMAX
 10
205.30099999999999
 20
275.93099999999993
 30
0.0
  9
$LIMMIN
 10
0.0
 20
0.0
  9
$LIMMAX
 10
12.0
 20
9.0
  9
$ORTHOMODE
 70
     0
  9
$REGENMODE
 70
     1
  9
$FILLMODE
 70
     1
  9
$QTEXTMODE
 70
     0
  9
$MIRRTEXT
 70
     1
  9
$DRAGMODE
 70
     2
  9
$LTSCALE
 40
1.0
  9
$OSMODE
 70
    37
  9
$ATTMODE
 70
     1
  9
$TEXTSIZE
 40
0.0
  9
$TRACEWID
 40
0.05
  9
$TEXTSTYLE
  7
STANDARD
  9
$CLAYER
  8
0
  9
$CELTYPE
  6
CONTINUOUS
  9
$CECOLOR
 62
   256
  9
$DIMSCALE
 40
1.0
  9
$DIMASZ
 40
0.18
  9
$DIMEXO
 40
0.0625
  9
$DIMDLI
 40
0.38
  9
$DIMRND
 40
0.0
  9
$DIMDLE
 40
0.0
  9
$DIMEXE
 40
0.18
  9
$DIMTP
 40
0.0
  9
$DIMTM
 40
0.0
  9
$DIMTXT
 40
0.18
  9
$DIMCEN
 40
0.09
  9
$DIMTSZ
 40
0.0
  9
$DIMTOL
 70
     0
  9
$DIMLIM
 70
     0
  9
$DIMTIH
 70
     1
  9
$DIMTOH
 70
     1
  9
$DIMSE1
 70
     0
  9
$DIMSE2
 70
     0
  9
$DIMTAD
 70
     0
  9
$DIMZIN
 70
     0
  9
$DIMBLK
  1

  9
$DIMASO
 70
     1
  9
$DIMSHO
 70
     1
  9
$DIMPOST
  1

  9
$DIMAPOST
  1

  9
$DIMALT
 70
     0
  9
$DIMALTD
 70
     2
  9
$DIMALTF
 40
25.399999999999999
  9
$DIMLFAC
 40
1.0
  9
$DIMTOFL
 70
     0
  9
$DIMTVP
 40
0.0
  9
$DIMTIX
 70
     0
  9
$DIMSOXD
 70
     0
  9
$DIMSAH
 70
     0
  9
$DIMBLK1
  1

  9
$DIMBLK2
  1

  9
$DIMSTYLE
  2
STANDARD
  9
$DIMCLRD
 70
     0
  9
$DIMCLRE
 70
     0
  9
$DIMCLRT
 70
     0
  9
$DIMTFAC
 40
1.0
  9
$DIMGAP
 40
0.09
  9
$LUNITS
 70
     2
  9
$LUPREC
 70
     4
  9
$SKETCHINC
 40
0.1
  9
$FILLETRAD
 40
0.0
  9
$AUNITS
 70
     0
  9
$AUPREC
 70
     0
  9
$MENU
  1
.
  9
$ELEVATION
 40
0.0
  9
$PELEVATION
 40
0.0
  9
$THICKNESS
 40
0.0
  9
$LIMCHECK
 70
     0
  9
$BLIPMODE
 70
     0
  9
$CHAMFERA
 40
0.0
  9
$CHAMFERB
 40
0.0
  9
$SKPOLY
 70
     0
  9
$TDCREATE
 40
2444972.375
  9
$TDUPDATE
 40
2453972.2541142129
  9
$TDINDWG
 40
0.0000100463
  9
$TDUSRTIMER
 40
0.0000100463
  9
$USRTIMER
 70
     1
  9
$ANGBASE
 50
0.0
  9
$ANGDIR
 70
     0
  9
$PDMODE
 70
     0
  9
$PDSIZE
 40
0.0
  9
$PLINEWID
 40
0.0
  9
$COORDS
 70
     1
  9
$SPLFRAME
 70
     0
  9
$SPLINETYPE
 70
     6
  9
$SPLINESEGS
 70
     8
  9
$ATTDIA
 70
     0
  9
$ATTREQ
 70
     1
  9
$HANDLING
 70
     1
  9
$HANDSEED
  5
E1
  9
$SURFTAB1
 70
     6
  9
$SURFTAB2
 70
     6
  9
$SURFTYPE
 70
     6
  9
$SURFU
 70
     6
  9
$SURFV
 70
     6
  9
$UCSNAME
  2

  9
$UCSORG
 10
0.0
 20
0.0
 30
0.0
  9
$UCSXDIR
 10
1.0
 20
0.0
 30
0.0
  9
$UCSYDIR
 10
0.0
 20
1.0
 30
0.0
  9
$PUCSNAME
  2

  9
$PUCSORG
 10
0.0
 20
0.0
 30
0.0
  9
$PUCSXDIR
 10
1.0
 20
0.0
 30
0.0
  9
$PUCSYDIR
 10
0.0
 20
1.0
 30
0.0
  9
$USERI1
 70
     0
  9
$USERI2
 70
     0
  9
$USERI3
 70
     0
  9
$USERI4
 70
     0
  9
$USERI5
 70
     0
  9
$USERR1
 40
0.0
  9
$USERR2
 40
0.0
  9
$USERR3
 40
0.0
  9
$USERR4
 40
0.0
  9
$USERR5
 40
0.0
  9
$WORLDVIEW
 70
     1
  9
$SHADEDGE
 70
     3
  9
$SHADEDIF
 70
    70
  9
$TILEMODE
 70
     1
  9
$MAXACTVP
 70
    48
  9
$PLIMCHECK
 70
     0
  9
$PEXTMIN
 10
1.0000000000000000E+020
 20
1.0000000000000000E+020
 30
1.0000000000000000E+020
  9
$PEXTMAX
 10
-1.0000000000000000E+020
 20
-1.0000000000000000E+020
 30
-1.0000000000000000E+020
  9
$PLIMMIN
 10
0.0
 20
0.0
  9
$PLIMMAX
 10
12.0
 20
9.0
  9
$UNITMODE
 70
     0
  9
$VISRETAIN
 70
     1
  9
$PLINEGEN
 70
     0
  9
$PSLTSCALE
 70
     1
  0
ENDSEC
  0
SECTION
  2
TABLES
  0
TABLE
  2
VPORT
 70
     2
  0
VPORT
  2
*ACTIVE
 70
     0
 10
0.0
 20
0.0
 11
1.0
 21
1.0
 12
159.88503529811069
 22
127.4297999999999
 13
0.0
 23
0.0
 14
1.0
 24
1.0
 15
0.0
 25
0.0
 16
0.0
 26
0.0
 36
1.0
 17
0.0
 27
0.0
 37
0.0
 40
299.81314826498419
 41
2.1842105263157889
 42
50.0
 43
0.0
 44
0.0
 50
0.0
 51
0.0
 71
     0
 72
   100
 73
     1
 74
     1
 75
     0
 76
     0
 77
     0
 78
     0
  0
ENDTAB
  0
TABLE
  2
LTYPE
 70
     2
  0
LTYPE
  2
CONTINUOUS
 70
     0
  3
Solid line
 72
    65
 73
     0
 40
0.0
  0
LTYPE
  2
AIGENLINE001
 70
     0
  3
generate AI->DXF Converter
 72
    65
 73
     4
 40
5.8561449999999988
 49
3.5278
 49
-0.776115
 49
0.776115
 49
-0.776115
  0
ENDTAB
  0
TABLE
  2
LAYER
 70
     2
  0
LAYER
  2
0
 70
     0
 62
     7
  6
CONTINUOUS
  0
LAYER
  2
_________2
 70
     0
 62
     7
  6
CONTINUOUS
  0
ENDTAB
  0
TABLE
  2
STYLE
 70
     1
  0
STYLE
  2
STANDARD
 70
     0
 40
0.0
 41
0.0
 50
0.0
 71
     0
 42
0.0
  3
TXT
  4
EXTFONT.SHX
  0
ENDTAB
  0
TABLE
  2
VIEW
 70
     0
  0
ENDTAB
  0
TABLE
  2
UCS
 70
     0
  0
ENDTAB
  0
TABLE
  2
APPID
 70
     1
  0
APPID
  2
ACAD
 70
     0
  0
ENDTAB
  0
TABLE
  2
DIMSTYLE
 70
     1
  0
DIMSTYLE
  2
STANDARD
 70
     0
  3

  4

  5

  6

  7

 40
1.0
 41
0.18
 42
0.0625
 43
0.38
 44
0.18
 45
0.0
 46
0.0
 47
0.0
 48
0.0
140
0.18
141
0.09
142
0.0
143
25.399999999999999
144
1.0
145
0.0
146
1.0
147
0.09
 71
     0
 72
     0
 73
     1
 74
     1
 75
     0
 76
     0
 77
     0
 78
     0
170
     0
171
     2
172
     0
173
     0
174
     0
175
     0
176
     0
177
     0
178
     0
  0
ENDTAB
  0
ENDSEC
  0
SECTION
  2
BLOCKS
  0
BLOCK
  8
0
  2
$MODEL_SPACE
 70
     0
 10
0.0
 20
0.0
 30
0.0
  3
$MODEL_SPACE
  1

  0
ENDBLK
  5
1A
  8
0
  0
BLOCK
 67
     1
  8
0
  2
$PAPER_SPACE
 70
     0
 10
0.0
 20
0.0
 30
0.0
  3
$PAPER_SPACE
  1

  0
ENDBLK
  5
17
 67
     1
  8
0
  0
ENDSEC
  0
SECTION
  2
ENTITIES
  0
TEXT
  5
22
  8
0
 62
     7
 10
127.017
 20
138.65299999999999
 30
0.0
 40
3.0923400000000001
  1
30
 50
90.0
 41
0.5
  0
TEXT
  5
23
  8
0
 62
     7
 10
118.55
 20
147.072
 30
0.0
 40
3.0923400000000001
  1
13
 50
90.0
 41
0.5
  0
TEXT
  5
24
  8
0
 62
     7
 10
118.55
 20
128.13900000000001
 30
0.0
 40
3.0923400000000001
  1
9.5
 50
90.0
 41
0.5
  0
TEXT
  5
25
  8
0
 62
     7
 10
98.730199999999996
 20
173.667
 30
0.0
 40
3.0923400000000001
  1
通水方向
 41
0.5
  0
TEXT
  5
26
  8
0
 62
     7
 10
63.93589999999999
 20
157.4429999999999
 30
0.0
 40
3.0923400000000001
  1
26六角
 41
0.5
  0
TEXT
  5
27
  8
0
 62
     7
 10
92.689649999999986
 20
164.12200000000001
 30
0.0
 40
3.0923400000000001
  1
G1/2
 41
0.5
 72
     1
 11
95.266599999999997
 21
164.12200000000001
 31
0.0
  0
TEXT
  5
28
  8
0
 62
     7
 10
92.689649999999986
 20
118.5839999999999
 30
0.0
 40
3.0923400000000001
  1
G1/2
 41
0.5
 72
     1
 11
95.266599999999997
 21
118.5839999999999
 31
0.0
  0
LINE
  5
29
  8
0
 62
     7
 10
95.506699999999995
 20
182.54099999999991
 30
0.0
 11
98.598100000000017
 21
177.67500000000001
 31
0.0
  0
LINE
  5
2A
  8
0
 62
     7
 10
92.415599999999984
 20
177.67500000000001
 30
0.0
 11
95.506699999999995
 21
182.54099999999991
 31
0.0
  0
LINE
  5
2B
  8
0
 62
     7
 10
108.197
 20
142.95699999999999
 30
0.0
 11
120.562
 21
142.95699999999999
 31
0.0
  0
LINE
  5
2C
  8
0
 62
     7
 10
120.3359999999999
 20
153.68000000000001
 30
0.0
 11
119.744
 21
155.89099999999999
 31
0.0
  0
LINE
  5
2D
  8
0
 62
     7
 10
119.744
 20
155.89099999999999
 30
0.0
 11
119.151
 21
153.68000000000001
 31
0.0
  0
LINE
  5
2E
  8
0
 62
     7
 10
119.151
 20
153.68000000000001
 30
0.0
 11
120.3359999999999
 21
153.68000000000001
 31
0.0
  0
LINE
  5
2F
  8
0
 62
     7
 10
119.1659999999999
 20
145.17500000000001
 30
0.0
 11
119.758
 21
142.965
 31
0.0
  0
LINE
  5
30
  8
0
 62
     7
 10
119.758
 20
142.965
 30
0.0
 11
120.351
 21
145.17500000000001
 31
0.0
  0
LINE
  5
31
  8
0
 62
     7
 10
120.351
 20
145.17500000000001
 30
0.0
 11
119.1659999999999
 21
145.17500000000001
 31
0.0
  0
LINE
  5
32
  8
0
 62
     7
 10
119.751
 20
155.89099999999999
 30
0.0
 11
119.751
 21
142.965
 31
0.0
  0
LINE
  5
33
  8
0
 62
     7
 10
87.080500000000001
 20
163.5689999999999
 30
0.0
 11
84.869900000000001
 21
162.977
 31
0.0
  0
LINE
  5
34
  8
0
 62
     7
 10
84.869900000000001
 20
162.977
 30
0.0
 11
87.080500000000001
 21
162.3839999999999
 31
0.0
  0
LINE
  5
35
  8
0
 62
     7
 10
87.080500000000001
 20
162.3839999999999
 30
0.0
 11
87.080500000000001
 21
163.5689999999999
 31
0.0
  0
LINE
  5
36
  8
0
 62
     7
 10
77.764600000000002
 20
149.88099999999989
 30
0.0
 11
79.552599999999984
 21
148.453
 31
0.0
  0
LINE
  5
37
  8
0
 62
     7
 10
79.552599999999984
 20
148.453
 30
0.0
 11
78.718199999999996
 21
150.584
 31
0.0
  0
LINE
  5
38
  8
0
 62
     7
 10
78.718199999999996
 20
150.584
 30
0.0
 11
77.764600000000002
 21
149.88099999999989
 31
0.0
  0
LINE
  5
39
  8
0
 62
     7
 10
73.758600000000001
 20
156.30399999999989
 30
0.0
 11
79.497100000000003
 21
148.51599999999999
 31
0.0
  0
LINE
  5
3A
  8
0
 62
     7
 10
103.976
 20
162.399
 30
0.0
 11
106.187
 21
162.99100000000001
 31
0.0
  0
LINE
  5
3B
  8
0
 62
     7
 10
106.187
 20
162.99100000000001
 30
0.0
 11
103.976
 21
163.58399999999989
 31
0.0
  0
LINE
  5
3C
  8
0
 62
     7
 10
103.976
 20
163.58399999999989
 30
0.0
 11
103.976
 21
162.399
 31
0.0
  0
LINE
  5
3D
  8
0
 62
     7
 10
63.584600000000002
 20
156.30399999999989
 30
0.0
 11
73.758600000000001
 21
156.30399999999989
 31
0.0
  0
LINE
  5
3E
  8
0
 62
     7
 10
84.948700000000002
 20
162.98400000000001
 30
0.0
 11
106.10299999999989
 21
162.98400000000001
 31
0.0
  0
LINE
  5
3F
  8
0
 62
     7
 10
106.23
 20
163.833
 30
0.0
 11
106.23
 21
156.79899999999989
 31
0.0
  0
LINE
  5
40
  8
0
 62
     7
 10
84.784300000000016
 20
163.95400000000001
 30
0.0
 11
84.784300000000016
 21
156.79899999999989
 31
0.0
  0
LINE
  5
41
  8
0
 62
     7
 10
87.080500000000001
 20
118.03
 30
0.0
 11
84.869900000000001
 21
117.4379999999999
 31
0.0
  0
LINE
  5
42
  8
0
 62
     7
 10
84.869900000000001
 20
117.4379999999999
 30
0.0
 11
87.080500000000001
 21
116.846
 31
0.0
  0
LINE
  5
43
  8
0
 62
     7
 10
87.080500000000001
 20
116.846
 30
0.0
 11
87.080500000000001
 21
118.03
 31
0.0
  0
LINE
  5
44
  8
0
 62
     7
 10
103.976
 20
116.86
 30
0.0
 11
106.187
 21
117.4529999999999
 31
0.0
  0
LINE
  5
45
  8
0
 62
     7
 10
106.187
 20
117.4529999999999
 30
0.0
 11
103.976
 21
118.0449999999999
 31
0.0
  0
LINE
  5
46
  8
0
 62
     7
 10
103.976
 20
118.0449999999999
 30
0.0
 11
103.976
 21
116.86
 31
0.0
  0
LINE
  5
47
  8
0
 62
     7
 10
84.869900000000001
 20
117.44499999999989
 30
0.0
 11
106.187
 21
117.44499999999989
 31
0.0
  0
LINE
  5
48
  8
0
 62
     7
 10
106.23
 20
124.965
 30
0.0
 11
106.23
 21
116.63499999999991
 31
0.0
  0
LINE
  5
49
  8
0
 62
     7
 10
84.784300000000016
 20
125.95999999999999
 30
0.0
 11
84.784300000000016
 21
116.63499999999991
 31
0.0
  0
LINE
  5
4A
  8
0
 62
     7
 10
127.306
 20
128.2529999999999
 30
0.0
 11
127.898
 21
126.042
 31
0.0
  0
LINE
  5
4B
  8
0
 62
     7
 10
127.898
 20
126.042
 30
0.0
 11
128.49000000000001
 21
128.2529999999999
 31
0.0
  0
LINE
  5
4C
  8
0
 62
     7
 10
128.49000000000001
 20
128.2529999999999
 30
0.0
 11
127.306
 21
128.2529999999999
 31
0.0
  0
LINE
  5
4D
  8
0
 62
     7
 10
128.476
 20
153.70400000000001
 30
0.0
 11
127.8839999999999
 21
155.91399999999999
 31
0.0
  0
LINE
  5
4E
  8
0
 62
     7
 10
127.8839999999999
 20
155.91399999999999
 30
0.0
 11
127.292
 21
153.70400000000001
 31
0.0
  0
LINE
  5
4F
  8
0
 62
     7
 10
127.292
 20
153.70400000000001
 30
0.0
 11
128.476
 21
153.70400000000001
 31
0.0
  0
LINE
  5
50
  8
0
 62
     7
 10
127.89099999999991
 20
126.042
 30
0.0
 11
127.89099999999991
 21
155.91399999999999
 31
0.0
  0
LINE
  5
51
  8
0
 62
     7
 10
108.1479999999999
 20
155.95699999999991
 30
0.0
 11
128.70099999999991
 21
155.95699999999991
 31
0.0
  0
LINE
  5
52
  8
0
 62
     7
 10
107.33799999999999
 20
155.95699999999991
 30
0.0
 11
83.626800000000003
 21
155.95699999999991
 31
0.0
  0
ARC
  5
53
  8
0
 62
     7
 10
95.460720999999992
 20
162.82616299999989
 30
0.0
 40
19.869697999999989
 50
270.13372099999992
 51
282.46654000000001
  0
ARC
  5
54
  8
0
 62
     7
 10
96.972037999999998
 20
155.43653399999991
 30
0.0
 40
12.328632000000001
 50
283.02196199999997
 51
294.94970799999999
  0
LINE
  5
55
  8
0
 62
     7
 10
102.163
 20
154.60599999999991
 30
0.0
 11
102.163
 21
144.2579999999999
 31
0.0
  0
LINE
  5
56
  8
0
 62
     7
 10
102.163
 20
144.2579999999999
 30
0.0
 11
104.414
 21
144.2579999999999
 31
0.0
  0
ARC
  5
57
  8
0
 62
     7
 10
107.66228
 20
148.017
 30
0.0
 40
4.9679890000000002
 50
229.16170700000001
 51
247.90519900000001
  0
ARC
  5
58
  8
0
 62
     7
 10
108.8614509999999
 20
150.52667600000001
 30
0.0
 40
7.7462200000000001
 50
246.6690089999999
 51
258.65876200000002
  0
LINE
  5
59
  8
0
 62
     7
 10
104.414
 20
154.60599999999991
 30
0.0
 11
104.414
 21
144.2579999999999
 31
0.0
  0
ARC
  5
5A
  8
0
 62
     7
 10
98.026432
 20
146.15381099999999
 30
0.0
 40
9.4140320000000006
 50
63.869500999999993
 51
72.286422000000002
  0
ARC
  5
5B
  8
0
 62
     7
 10
96.297811999999993
 20
140.99225000000001
 30
0.0
 40
14.857023999999999
 50
71.992498000000012
 51
83.967969999999994
  0
ARC
  5
5C
  8
0
 62
     7
 10
95.471656999999979
 20
135.49201599999989
 30
0.0
 40
20.41507399999999
 50
83.284299000000004
 51
89.900542000000016
  0
LINE
  5
5D
  8
0
 62
     7
 10
102.163
 20
154.60599999999991
 30
0.0
 11
104.414
 21
154.60599999999991
 31
0.0
  0
ARC
  5
5E
  8
0
 62
     7
 10
109.044876
 20
147.820818
 30
0.0
 40
8.2886670000000002
 50
101.88287799999991
 51
115.6600169999999
  0
ARC
  5
5F
  8
0
 62
     7
 10
107.769412
 20
150.645139
 30
0.0
 40
5.1910869999999996
 50
116.46951299999991
 51
130.27523600000001
  0
LINE
  5
60
  8
0
 62
     7
 10
111.41199999999991
 20
153.41200000000001
 30
0.0
 11
107.33799999999999
 21
155.93199999999999
 31
0.0
  0
LINE
  5
61
  8
0
 62
     7
 10
111.41199999999991
 20
153.41200000000001
 30
0.0
 11
111.41199999999991
 21
145.452
 31
0.0
  0
LINE
  5
62
  8
0
 62
     7
 10
111.41199999999991
 20
145.452
 30
0.0
 11
107.33799999999999
 21
142.93199999999999
 31
0.0
  0
ARC
  5
63
  8
0
 62
     7
 10
92.937271999999993
 20
152.72691399999999
 30
0.0
 40
9.4061589999999988
 50
243.8542259999999
 51
252.2776779999999
  0
ARC
  5
64
  8
0
 62
     7
 10
94.664904000000007
 20
157.8841449999999
 30
0.0
 40
14.84473399999999
 50
251.98526899999999
 51
263.97022700000002
  0
ARC
  5
65
  8
0
 62
     7
 10
95.495346999999995
 20
163.412058
 30
0.0
 40
20.430769000000002
 50
263.282667
 51
269.89382000000001
  0
LINE
  5
66
  8
0
 62
     7
 10
88.801900000000003
 20
154.63
 30
0.0
 11
88.801900000000003
 21
144.2829999999999
 31
0.0
  0
LINE
  5
67
  8
0
 62
     7
 10
88.801900000000003
 20
144.2829999999999
 30
0.0
 11
86.550799999999995
 21
144.2829999999999
 31
0.0
  0
ARC
  5
68
  8
0
 62
     7
 10
81.922999000000004
 20
151.055104
 30
0.0
 40
8.2758640000000003
 50
281.88061699999992
 51
295.67956499999991
  0
ARC
  5
69
  8
0
 62
     7
 10
83.19844599999999
 20
148.2354629999999
 30
0.0
 40
5.1825209999999986
 50
296.47983699999997
 51
310.3054039999999
  0
LINE
  5
6A
  8
0
 62
     7
 10
86.550799999999995
 20
154.63
 30
0.0
 11
86.550799999999995
 21
144.2829999999999
 31
0.0
  0
ARC
  5
6B
  8
0
 62
     7
 10
95.504238999999998
 20
136.04996799999989
 30
0.0
 40
19.88195
 50
90.133744999999976
 51
102.4584949999999
  0
ARC
  5
6C
  8
0
 62
     7
 10
93.990255999999988
 20
143.45665
 30
0.0
 40
12.323641
 50
103.0142239999999
 51
114.947031
  0
LINE
  5
6D
  8
0
 62
     7
 10
88.801900000000003
 20
154.63
 30
0.0
 11
86.550799999999995
 21
154.63
 31
0.0
  0
ARC
  5
6E
  8
0
 62
     7
 10
83.304629000000006
 20
150.87597500000001
 30
0.0
 40
4.9632639999999988
 50
49.152836000000001
 51
67.910143999999988
  0
ARC
  5
6F
  8
0
 62
     7
 10
82.109905999999995
 20
148.37795099999991
 30
0.0
 40
7.7290270000000003
 50
66.667481999999993
 51
78.681865000000002
  0
LINE
  5
70
  8
0
 62
     7
 10
79.552599999999984
 20
153.43600000000001
 30
0.0
 11
83.626800000000003
 21
155.95699999999991
 31
0.0
  0
LINE
  5
71
  8
0
 62
     7
 10
79.552599999999984
 20
153.43600000000001
 30
0.0
 11
79.552599999999984
 21
145.477
 31
0.0
  0
LINE
  5
72
  8
0
 62
     7
 10
79.552599999999984
 20
145.477
 30
0.0
 11
83.626800000000003
 21
142.95699999999999
 31
0.0
  0
LINE
  5
73
  8
0
 62
     7
 10
83.626800000000003
 20
142.95699999999999
 30
0.0
 11
107.387
 21
142.95699999999999
 31
0.0
  0
LINE
  5
74
  8
0
 62
     7
 10
83.626800000000003
 20
142.95699999999999
 30
0.0
 11
83.626800000000003
 21
135.45599999999999
 31
0.0
  0
LINE
  5
75
  8
0
 62
     7
 10
107.387
 20
142.95699999999999
 30
0.0
 11
107.387
 21
135.45599999999999
 31
0.0
  0
LINE
  5
76
  8
0
 62
     7
 10
86.1524
 20
134.08799999999999
 30
0.0
 11
104.861
 21
134.08799999999999
 31
0.0
  0
LINE
  5
77
  8
0
 62
     7
 10
106.23
 20
135.45599999999999
 30
0.0
 11
104.861
 21
134.08799999999999
 31
0.0
  0
LINE
  5
78
  8
0
 62
     7
 10
84.784300000000016
 20
135.45599999999999
 30
0.0
 11
86.1524
 21
134.08799999999999
 31
0.0
  0
LINE
  5
79
  8
0
 62
     7
 10
83.626800000000003
 20
135.45599999999999
 30
0.0
 11
107.387
 21
135.45599999999999
 31
0.0
  0
LINE
  5
7A
  8
0
 62
     7
 10
86.1524
 20
125.956
 30
0.0
 11
104.861
 21
125.956
 31
0.0
  0
LINE
  5
7B
  8
0
 62
     7
 10
108.197
 20
135.45599999999999
 30
0.0
 11
120.562
 21
135.45599999999999
 31
0.0
  0
LINE
  5
7C
  8
0
 62
     7
 10
119.1659999999999
 20
128.0689999999999
 30
0.0
 11
119.758
 21
125.8589999999999
 31
0.0
  0
LINE
  5
7D
  8
0
 62
     7
 10
119.758
 20
125.8589999999999
 30
0.0
 11
120.351
 21
128.0689999999999
 31
0.0
  0
LINE
  5
7E
  8
0
 62
     7
 10
120.351
 20
128.0689999999999
 30
0.0
 11
119.1659999999999
 21
128.0689999999999
 31
0.0
  0
LINE
  5
7F
  8
0
 62
     7
 10
120.3359999999999
 20
133.12299999999991
 30
0.0
 11
119.744
 21
135.33399999999989
 31
0.0
  0
LINE
  5
80
  8
0
 62
     7
 10
119.744
 20
135.33399999999989
 30
0.0
 11
119.151
 21
133.12299999999991
 31
0.0
  0
LINE
  5
81
  8
0
 62
     7
 10
119.151
 20
133.12299999999991
 30
0.0
 11
120.3359999999999
 21
133.12299999999991
 31
0.0
  0
LINE
  5
82
  8
0
 62
     7
 10
119.751
 20
125.956
 30
0.0
 11
119.751
 21
135.33399999999989
 31
0.0
  0
LINE
  5
83
  8
0
 62
     7
 10
106.23
 20
127.3239999999999
 30
0.0
 11
104.861
 21
125.956
 31
0.0
  0
LINE
  5
84
  8
0
 62
     7
 10
105.67100000000001
 20
125.956
 30
0.0
 11
128.70099999999991
 21
125.956
 31
0.0
  0
LINE
  5
85
  8
0
 62
     7
 10
106.23
 20
135.45599999999999
 30
0.0
 11
106.23
 21
127.3239999999999
 31
0.0
  0
LINE
  5
86
  8
0
 62
     7
 10
104.861
 20
134.08799999999999
 30
0.0
 11
104.861
 21
125.956
 31
0.0
  0
LINE
  5
87
  8
0
  6
AIGENLINE001
 62
     7
 10
95.482600000000005
 20
157.92400000000001
 30
0.0
 11
95.482600000000005
 21
124.008
 31
0.0
  0
LINE
  5
88
  8
0
 62
     7
 10
84.784300000000016
 20
127.3239999999999
 30
0.0
 11
86.1524
 21
125.956
 31
0.0
  0
LINE
  5
89
  8
0
 62
     7
 10
84.784300000000016
 20
135.45599999999999
 30
0.0
 11
84.784300000000016
 21
127.3239999999999
 31
0.0
  0
LINE
  5
8A
  8
0
 62
     7
 10
96.786799999999985
 20
177.67500000000001
 30
0.0
 11
96.786799999999985
 21
171.405
 31
0.0
  0
LINE
  5
8B
  8
0
 62
     7
 10
94.226699999999994
 20
177.67500000000001
 30
0.0
 11
94.226699999999994
 21
171.405
 31
0.0
  0
LINE
  5
8C
  8
0
 62
     7
 10
96.786799999999985
 20
177.67500000000001
 30
0.0
 11
98.598100000000017
 21
177.67500000000001
 31
0.0
  0
LINE
  5
8D
  8
0
 62
     7
 10
92.415599999999984
 20
177.67500000000001
 30
0.0
 11
94.226699999999994
 21
177.67500000000001
 31
0.0
  0
LINE
  5
8E
  8
0
 62
     7
 10
94.226699999999994
 20
171.405
 30
0.0
 11
96.786799999999985
 21
171.405
 31
0.0
  0
LINE
  5
8F
  8
0
 62
     7
 10
84.784300000000016
 20
127.3239999999999
 30
0.0
 11
106.23
 21
127.3239999999999
 31
0.0
  0
LINE
  5
90
  8
0
 62
     7
 10
86.1524
 20
134.08799999999999
 30
0.0
 11
86.1524
 21
125.956
 31
0.0
  0
TEXT
  5
91
  8
_________2
 62
     7
 10
24.5868
 20
0.707283
 30
0.0
 40
3.9357000000000002
  1
G1/2×G1/2、逆止弁付・1セット2コ入り
 41
0.5
  0
LINE
  5
92
  8
_________2
 62
     7
 10
205.30099999999999
 20
127.411
 30
0.0
 11
183.55099999999999
 21
127.411
 31
0.0
  0
LINE
  5
93
  8
_________2
 62
     7
 10
100.2999999999999
 20
-4.0910799999999998
 30
0.0
 11
100.2999999999999
 21
-21.071400000000001
 31
0.0
  0
LINE
  5
94
  8
_________2
 62
     7
 10
100.2999999999999
 20
275.93099999999993
 30
0.0
 11
100.2999999999999
 21
258.911
 31
0.0
  0
LINE
  5
95
  8
_________2
 62
     7
 10
17.049499999999998
 20
127.411
 30
0.0
 11
-4.7008599999999987
 21
127.411
 31
0.0
  0
LINE
  5
96
  8
_________2
 62
     7
 10
76.741
 20
29.8047
 30
0.0
 11
74.554699999999997
 21
29.8047
 31
0.0
  0
LINE
  5
97
  8
_________2
 62
     7
 10
77.233699999999999
 20
29.8047
 30
0.0
 11
76.981499999999997
 21
29.8047
 31
0.0
  0
LINE
  5
98
  8
_________2
 62
     7
 10
77.726299999999995
 20
29.8047
 30
0.0
 11
80.651200000000003
 21
29.8047
 31
0.0
  0
LINE
  5
99
  8
_________2
 62
     7
 10
77.233699999999999
 20
29.8047
 30
0.0
 11
77.485900000000001
 21
29.8047
 31
0.0
  0
LINE
  5
9A
  8
_________2
 62
     7
 10
70.837500000000006
 20
29.8047
 30
0.0
 11
68.650499999999994
 21
29.8047
 31
0.0
  0
LINE
  5
9B
  8
_________2
 62
     7
 10
71.329400000000007
 20
29.8047
 30
0.0
 11
71.0779
 21
29.8047
 31
0.0
  0
LINE
  5
9C
  8
_________2
 62
     7
 10
71.329400000000007
 20
30.2974
 30
0.0
 11
71.329400000000007
 21
32.484400000000001
 31
0.0
  0
LINE
  5
9D
  8
_________2
 62
     7
 10
71.329400000000007
 20
29.8047
 30
0.0
 11
71.329400000000007
 21
30.056899999999992
 31
0.0
  0
LINE
  5
9E
  8
_________2
 62
     7
 10
71.822100000000006
 20
29.8047
 30
0.0
 11
74.009
 21
29.8047
 31
0.0
  0
LINE
  5
9F
  8
_________2
 62
     7
 10
71.329400000000007
 20
29.8047
 30
0.0
 11
71.581599999999995
 21
29.8047
 31
0.0
  0
LINE
  5
A0
  8
_________2
 62
     7
 10
71.329400000000007
 20
29.312799999999999
 30
0.0
 11
71.329400000000007
 21
27.125800000000002
 31
0.0
  0
LINE
  5
A1
  8
_________2
 62
     7
 10
71.329400000000007
 20
29.8047
 30
0.0
 11
71.329400000000007
 21
29.5532
 31
0.0
  0
LINE
  5
A2
  8
_________2
 62
     7
 10
75.040499999999994
 20
28.5852
 30
0.0
 11
80.218500000000006
 21
27.720400000000001
 31
0.0
  0
LINE
  5
A3
  8
_________2
 62
     7
 10
75.040499999999994
 20
31.0243
 30
0.0
 11
80.218500000000006
 21
31.889700000000001
 31
0.0
  0
LINE
  5
A4
  8
_________2
 62
     7
 10
80.218500000000006
 20
27.720400000000001
 30
0.0
 11
80.218500000000006
 21
31.889700000000001
 31
0.0
  0
LINE
  5
A5
  8
_________2
 62
     7
 10
75.040499999999994
 20
28.5852
 30
0.0
 11
75.040499999999994
 21
31.0243
 31
0.0
  0
ARC
  5
A6
  8
_________2
 62
     7
 10
71.283190000000005
 20
29.757787
 30
0.0
 40
1.2673709999999989
 50
2.1232950000000002
 51
87.909056000000007
  0
ARC
  5
A7
  8
_________2
 62
     7
 10
71.375959999999992
 20
29.758213000000001
 30
0.0
 40
1.2669559999999991
 50
92.104701000000006
 51
177.8952689999999
  0
ARC
  5
A8
  8
_________2
 62
     7
 10
71.376357999999996
 20
29.851671
 30
0.0
 40
1.2673680000000001
 50
182.12203600000001
 51
267.877993
  0
ARC
  5
A9
  8
_________2
 62
     7
 10
71.282541000000009
 20
29.852347999999999
 30
0.0
 40
1.2680439999999991
 50
272.11916400000001
 51
357.84848499999993
  0
ARC
  5
AA
  8
_________2
 62
     7
 10
71.329430000000002
 20
29.804742999999998
 30
0.0
 40
2.0849849999999992
 50
0.00001
 51
89.999980000000008
  0
ARC
  5
AB
  8
_________2
 62
     7
 10
71.409075999999999
 20
29.725812999999992
 30
0.0
 40
2.165379999999999
 50
92.107876000000005
 51
177.91103200000001
  0
ARC
  5
AC
  8
_________2
 62
     7
 10
71.409439000000006
 20
29.884751999999999
 30
0.0
 40
2.1657829999999998
 50
182.117133
 51
267.88289700000001
  0
ARC
  5
AD
  8
_________2
 62
     7
 10
71.249459000000002
 20
29.885429999999989
 30
0.0
 40
2.1664590000000001
 50
272.11546800000002
 51
357.86560400000002
  0
TEXT
  5
AE
  8
_________2
 62
     7
 10
104.605
 20
1.6794899999999999
 30
0.0
 40
3.0923400000000001
  1
図番
 41
0.5
  0
LINE
  5
AF
  8
_________2
 62
     7
 10
103.55
 20
5.9087199999999989
 30
0.0
 11
183.55099999999999
 21
5.9087199999999989
 31
0.0
  0
TEXT
  5
B0
  8
_________2
 62
     7
 10
104.605
 20
11.679299999999991
 30
0.0
 40
3.0923400000000001
  1
品番
 41
0.5
  0
TEXT
  5
B1
  8
_________2
 62
     7
 10
104.605
 20
31.818100000000001
 30
0.0
 40
3.0923400000000001
  1
名称
 41
0.5
  0
TEXT
  5
B2
  8
_________2
 62
     7
 10
91.845058333333341
 20
26.821999999999989
 30
0.0
 40
3.6545800000000002
  1
mm
 41
0.5
 72
     1
 11
93.367800000000003
 21
26.821999999999989
 31
0.0
  0
TEXT
  5
B3
  8
_________2
 62
     7
 10
85.643199999999993
 20
31.818100000000001
 30
0.0
 40
3.0923400000000001
  1
単位
 41
0.5
  0
TEXT
  5
B4
  8
_________2
 62
     7
 10
85.643199999999993
 20
19.410799999999991
 30
0.0
 40
3.0923400000000001
  1
尺度
 41
0.5
  0
TEXT
  5
B5
  8
_________2
 62
     7
 10
90.853307000000001
 20
13.2179
 30
0.0
 40
3.6545800000000002
  1
1 ： 1
 41
0.5
 72
     1
 11
93.959699999999998
 21
13.2179
 31
0.0
  0
TEXT
  5
B6
  8
_________2
 62
     7
 10
138.30240000000001
 20
9.1078600000000005
 30
0.0
 40
3.9357000000000002
  1
CET14R
 41
0.5
 72
     1
 11
143.55000000000001
 21
9.1078600000000005
 31
0.0
  0
TEXT
  5
B7
  8
_________2
 62
     7
 10
138.30240000000001
 20
-0.8926299999999999
 30
0.0
 40
3.9357000000000002
  1
CET14R
 41
0.5
 72
     1
 11
143.55000000000001
 21
-0.8926299999999999
 31
0.0
  0
TEXT
  5
B8
  8
_________2
 62
     7
 10
109.179
 20
24.2257
 30
0.0
 40
3.9357000000000002
  1
逆止弁付接続アダプタ
 41
0.5
  0
TEXT
  5
B9
  8
_________2
 62
     7
 10
39.364390666666658
 20
13.603
 30
0.0
 40
3.6545800000000002
  1
高橋
 41
0.5
 72
     1
 11
41.313499999999998
 21
13.603
 31
0.0
  0
TEXT
  5
BA
  8
_________2
 62
     7
 10
20.79039066666666
 20
13.603
 30
0.0
 40
3.6545800000000002
  1
石原
 41
0.5
 72
     1
 11
22.7395
 21
13.603
 31
0.0
  0
TEXT
  5
BB
  8
_________2
 62
     7
 10
67.785799999999995
 20
13.2179
 30
0.0
 40
3.6545800000000002
  1
06.08.22
 41
0.5
  0
TEXT
  5
BC
  8
_________2
 62
     7
 10
66.593100000000007
 20
19.410799999999991
 30
0.0
 40
3.0923400000000001
  1
日付
 41
0.5
  0
TEXT
  5
BD
  8
_________2
 62
     7
 10
29.639399999999998
 20
19.410799999999991
 30
0.0
 40
3.0923400000000001
  1
検図
 41
0.5
  0
TEXT
  5
BE
  8
_________2
 62
     7
 10
18.021100000000001
 20
5.21143
 30
0.0
 40
3.0923400000000001
  1
備考
 41
0.5
  0
TEXT
  5
BF
  8
_________2
 62
     7
 10
18.021100000000001
 20
19.410799999999991
 30
0.0
 40
3.0923400000000001
  1
製図
 41
0.5
  0
TEXT
  5
C0
  8
_________2
 62
     7
 10
23.788465333333338
 20
27.936800000000002
 30
0.0
 40
4.4979399999999989
  1
セラトレーディング株式会社
 41
0.5
 72
     1
 11
41.180500000000002
 21
27.936800000000002
 31
0.0
  0
LINE
  5
C1
  8
_________2
 62
     7
 10
183.55099999999999
 20
-4.0910799999999998
 30
0.0
 11
17.049499999999998
 21
-4.0910799999999998
 31
0.0
  0
LINE
  5
C2
  8
_________2
 62
     7
 10
17.049499999999998
 20
-4.0910799999999998
 30
0.0
 11
17.049499999999998
 21
258.911
 31
0.0
  0
LINE
  5
C3
  8
_________2
 62
     7
 10
17.049499999999998
 20
258.911
 30
0.0
 11
183.55099999999999
 21
258.911
 31
0.0
  0
LINE
  5
C4
  8
_________2
 62
     7
 10
183.55099999999999
 20
258.911
 30
0.0
 11
183.55099999999999
 21
-4.0910799999999998
 31
0.0
  0
LINE
  5
C5
  8
_________2
 62
     7
 10
65.549899999999994
 20
9.4089600000000004
 30
0.0
 11
65.549899999999994
 21
35.908799999999999
 31
0.0
  0
LINE
  5
C6
  8
_________2
 62
     7
 10
84.549700000000016
 20
9.4089600000000004
 30
0.0
 11
84.549700000000016
 21
35.908799999999999
 31
0.0
  0
LINE
  5
C7
  8
_________2
 62
     7
 10
103.55
 20
-4.0910799999999998
 30
0.0
 11
103.55
 21
35.908799999999999
 31
0.0
  0
LINE
  5
C8
  8
_________2
 62
     7
 10
28.549299999999992
 20
9.4089600000000004
 30
0.0
 11
28.549299999999992
 21
23.409199999999998
 31
0.0
  0
LINE
  5
C9
  8
_________2
 62
     7
 10
17.049499999999998
 20
9.4089600000000004
 30
0.0
 11
103.55
 21
9.4089600000000004
 31
0.0
  0
LINE
  5
CA
  8
_________2
 62
     7
 10
17.049499999999998
 20
23.409199999999998
 30
0.0
 11
103.55
 21
23.409199999999998
 31
0.0
  0
LINE
  5
CB
  8
_________2
 62
     7
 10
103.55
 20
15.9085
 30
0.0
 11
183.55099999999999
 21
15.9085
 31
0.0
  0
LINE
  5
CC
  8
_________2
 62
     7
 10
17.049499999999998
 20
35.908799999999999
 30
0.0
 11
183.55099999999999
 21
35.908799999999999
 31
0.0
  0
ENDSEC
  0
EOF
