  0
SECTION
  2
HEADER
  9
$ACADVER
  1
AC1009
  9
$INSBASE
 10
0.0
 20
0.0
 30
0.0
  9
$EXTMIN
 10
-4.7008599999999987
 20
-21.071400000000001
 30
0.0
  9
$EXTMAX
 10
205.30099999999999
 20
275.93099999999993
 30
0.0
  9
$LIMMIN
 10
0.0
 20
0.0
  9
$LIMMAX
 10
12.0
 20
9.0
  9
$ORTHOMODE
 70
     0
  9
$REGENMODE
 70
     1
  9
$FILLMODE
 70
     1
  9
$QTEXTMODE
 70
     0
  9
$MIRRTEXT
 70
     1
  9
$DRAGMODE
 70
     2
  9
$LTSCALE
 40
1.0
  9
$OSMODE
 70
    37
  9
$ATTMODE
 70
     1
  9
$TEXTSIZE
 40
0.0
  9
$TRACEWID
 40
0.05
  9
$TEXTSTYLE
  7
STANDARD
  9
$CLAYER
  8
0
  9
$CELTYPE
  6
CONTINUOUS
  9
$CECOLOR
 62
   256
  9
$DIMSCALE
 40
1.0
  9
$DIMASZ
 40
0.18
  9
$DIMEXO
 40
0.0625
  9
$DIMDLI
 40
0.38
  9
$DIMRND
 40
0.0
  9
$DIMDLE
 40
0.0
  9
$DIMEXE
 40
0.18
  9
$DIMTP
 40
0.0
  9
$DIMTM
 40
0.0
  9
$DIMTXT
 40
0.18
  9
$DIMCEN
 40
0.09
  9
$DIMTSZ
 40
0.0
  9
$DIMTOL
 70
     0
  9
$DIMLIM
 70
     0
  9
$DIMTIH
 70
     1
  9
$DIMTOH
 70
     1
  9
$DIMSE1
 70
     0
  9
$DIMSE2
 70
     0
  9
$DIMTAD
 70
     0
  9
$DIMZIN
 70
     0
  9
$DIMBLK
  1

  9
$DIMASO
 70
     1
  9
$DIMSHO
 70
     1
  9
$DIMPOST
  1

  9
$DIMAPOST
  1

  9
$DIMALT
 70
     0
  9
$DIMALTD
 70
     2
  9
$DIMALTF
 40
25.399999999999999
  9
$DIMLFAC
 40
1.0
  9
$DIMTOFL
 70
     0
  9
$DIMTVP
 40
0.0
  9
$DIMTIX
 70
     0
  9
$DIMSOXD
 70
     0
  9
$DIMSAH
 70
     0
  9
$DIMBLK1
  1

  9
$DIMBLK2
  1

  9
$DIMSTYLE
  2
STANDARD
  9
$DIMCLRD
 70
     0
  9
$DIMCLRE
 70
     0
  9
$DIMCLRT
 70
     0
  9
$DIMTFAC
 40
1.0
  9
$DIMGAP
 40
0.09
  9
$LUNITS
 70
     2
  9
$LUPREC
 70
     4
  9
$SKETCHINC
 40
0.1
  9
$FILLETRAD
 40
0.0
  9
$AUNITS
 70
     0
  9
$AUPREC
 70
     0
  9
$MENU
  1
.
  9
$ELEVATION
 40
0.0
  9
$PELEVATION
 40
0.0
  9
$THICKNESS
 40
0.0
  9
$LIMCHECK
 70
     0
  9
$BLIPMODE
 70
     0
  9
$CHAMFERA
 40
0.0
  9
$CHAMFERB
 40
0.0
  9
$SKPOLY
 70
     0
  9
$TDCREATE
 40
2444972.375
  9
$TDUPDATE
 40
2453972.2544290619
  9
$TDINDWG
 40
0.0000108218
  9
$TDUSRTIMER
 40
0.0000108218
  9
$USRTIMER
 70
     1
  9
$ANGBASE
 50
0.0
  9
$ANGDIR
 70
     0
  9
$PDMODE
 70
     0
  9
$PDSIZE
 40
0.0
  9
$PLINEWID
 40
0.0
  9
$COORDS
 70
     1
  9
$SPLFRAME
 70
     0
  9
$SPLINETYPE
 70
     6
  9
$SPLINESEGS
 70
     8
  9
$ATTDIA
 70
     0
  9
$ATTREQ
 70
     1
  9
$HANDLING
 70
     1
  9
$HANDSEED
  5
11F
  9
$SURFTAB1
 70
     6
  9
$SURFTAB2
 70
     6
  9
$SURFTYPE
 70
     6
  9
$SURFU
 70
     6
  9
$SURFV
 70
     6
  9
$UCSNAME
  2

  9
$UCSORG
 10
0.0
 20
0.0
 30
0.0
  9
$UCSXDIR
 10
1.0
 20
0.0
 30
0.0
  9
$UCSYDIR
 10
0.0
 20
1.0
 30
0.0
  9
$PUCSNAME
  2

  9
$PUCSORG
 10
0.0
 20
0.0
 30
0.0
  9
$PUCSXDIR
 10
1.0
 20
0.0
 30
0.0
  9
$PUCSYDIR
 10
0.0
 20
1.0
 30
0.0
  9
$USERI1
 70
     0
  9
$USERI2
 70
     0
  9
$USERI3
 70
     0
  9
$USERI4
 70
     0
  9
$USERI5
 70
     0
  9
$USERR1
 40
0.0
  9
$USERR2
 40
0.0
  9
$USERR3
 40
0.0
  9
$USERR4
 40
0.0
  9
$USERR5
 40
0.0
  9
$WORLDVIEW
 70
     1
  9
$SHADEDGE
 70
     3
  9
$SHADEDIF
 70
    70
  9
$TILEMODE
 70
     1
  9
$MAXACTVP
 70
    48
  9
$PLIMCHECK
 70
     0
  9
$PEXTMIN
 10
1.0000000000000000E+020
 20
1.0000000000000000E+020
 30
1.0000000000000000E+020
  9
$PEXTMAX
 10
-1.0000000000000000E+020
 20
-1.0000000000000000E+020
 30
-1.0000000000000000E+020
  9
$PLIMMIN
 10
0.0
 20
0.0
  9
$PLIMMAX
 10
12.0
 20
9.0
  9
$UNITMODE
 70
     0
  9
$VISRETAIN
 70
     1
  9
$PLINEGEN
 70
     0
  9
$PSLTSCALE
 70
     1
  0
ENDSEC
  0
SECTION
  2
TABLES
  0
TABLE
  2
VPORT
 70
     2
  0
VPORT
  2
*ACTIVE
 70
     0
 10
0.0
 20
0.0
 11
1.0
 21
1.0
 12
159.88503529811069
 22
127.4297999999999
 13
0.0
 23
0.0
 14
1.0
 24
1.0
 15
0.0
 25
0.0
 16
0.0
 26
0.0
 36
1.0
 17
0.0
 27
0.0
 37
0.0
 40
299.81314826498419
 41
2.1842105263157889
 42
50.0
 43
0.0
 44
0.0
 50
0.0
 51
0.0
 71
     0
 72
   100
 73
     1
 74
     1
 75
     0
 76
     0
 77
     0
 78
     0
  0
ENDTAB
  0
TABLE
  2
LTYPE
 70
     3
  0
LTYPE
  2
CONTINUOUS
 70
     0
  3
Solid line
 72
    65
 73
     0
 40
0.0
  0
LTYPE
  2
AIGENLINE001
 70
     0
  3
generate AI->DXF Converter
 72
    65
 73
     6
 40
7.4083750000000004
 49
3.5278
 49
-0.776115
 49
0.776115
 49
-0.776115
 49
0.776115
 49
-0.776115
  0
LTYPE
  2
AIGENLINE002
 70
     0
  3
generate AI->DXF Converter
 72
    65
 73
     4
 40
5.8561449999999988
 49
3.5278
 49
-0.776115
 49
0.776115
 49
-0.776115
  0
ENDTAB
  0
TABLE
  2
LAYER
 70
     2
  0
LAYER
  2
0
 70
     0
 62
     7
  6
CONTINUOUS
  0
LAYER
  2
_________2
 70
     0
 62
     7
  6
CONTINUOUS
  0
ENDTAB
  0
TABLE
  2
STYLE
 70
     1
  0
STYLE
  2
STANDARD
 70
     0
 40
0.0
 41
0.0
 50
0.0
 71
     0
 42
0.0
  3
TXT
  4
EXTFONT.SHX
  0
ENDTAB
  0
TABLE
  2
VIEW
 70
     0
  0
ENDTAB
  0
TABLE
  2
UCS
 70
     0
  0
ENDTAB
  0
TABLE
  2
APPID
 70
     1
  0
APPID
  2
ACAD
 70
     0
  0
ENDTAB
  0
TABLE
  2
DIMSTYLE
 70
     1
  0
DIMSTYLE
  2
STANDARD
 70
     0
  3

  4

  5

  6

  7

 40
1.0
 41
0.18
 42
0.0625
 43
0.38
 44
0.18
 45
0.0
 46
0.0
 47
0.0
 48
0.0
140
0.18
141
0.09
142
0.0
143
25.399999999999999
144
1.0
145
0.0
146
1.0
147
0.09
 71
     0
 72
     0
 73
     1
 74
     1
 75
     0
 76
     0
 77
     0
 78
     0
170
     0
171
     2
172
     0
173
     0
174
     0
175
     0
176
     0
177
     0
178
     0
  0
ENDTAB
  0
ENDSEC
  0
SECTION
  2
BLOCKS
  0
BLOCK
  8
0
  2
$MODEL_SPACE
 70
     0
 10
0.0
 20
0.0
 30
0.0
  3
$MODEL_SPACE
  1

  0
ENDBLK
  5
1A
  8
0
  0
BLOCK
 67
     1
  8
0
  2
$PAPER_SPACE
 70
     0
 10
0.0
 20
0.0
 30
0.0
  3
$PAPER_SPACE
  1

  0
ENDBLK
  5
17
 67
     1
  8
0
  0
ENDSEC
  0
SECTION
  2
ENTITIES
  0
TEXT
  5
23
  8
0
 62
     7
 10
106.328
 20
188.4909999999999
 30
0.0
 40
3.0923400000000001
  1
通水方向
 41
0.5
  0
TEXT
  5
24
  8
0
 62
     7
 10
124.5092419999999
 20
160.9499999999999
 30
0.0
 40
3.0923400000000001
  1
23六角
 41
0.5
 72
     2
 11
130.797
 21
160.9499999999999
 31
0.0
  0
TEXT
  5
25
  8
0
 62
     7
 10
125.5082419999999
 20
120.3449999999999
 30
0.0
 40
3.0923400000000001
  1
26六角
 41
0.5
 72
     2
 11
131.79599999999999
 21
120.3449999999999
 31
0.0
  0
TEXT
  5
26
  8
0
 62
     7
 10
110.75698250000001
 20
173.51599999999999
 30
0.0
 40
3.0923400000000001
  1
%%c10
 41
0.5
 72
     1
 11
112.4319999999999
 21
173.51599999999999
 31
0.0
  0
TEXT
  5
27
  8
0
 62
     7
 10
79.76100000000001
 20
112.14722
 30
0.0
 40
3.0923400000000001
  1
17
 50
90.0
 41
0.5
 72
     1
 11
79.76100000000001
 21
113.178
 31
0.0
  0
TEXT
  5
28
  8
0
 62
     7
 10
99.935050000000004
 20
94.461699999999993
 30
0.0
 40
3.0923400000000001
  1
G1/2
 41
0.5
 72
     1
 11
102.512
 21
94.461699999999993
 31
0.0
  0
TEXT
  5
29
  8
0
 62
     7
 10
71.316699999999983
 20
131.372525
 30
0.0
 40
3.0923400000000001
  1
59
 50
90.0
 41
0.5
 72
     1
 11
71.316699999999983
 21
132.661
 31
0.0
  0
TEXT
  5
2A
  8
0
 62
     7
 10
79.552899999999994
 20
152.2184399999999
 30
0.0
 40
3.0923400000000001
  1
18.5
 50
90.0
 41
0.5
 72
     1
 11
79.552899999999994
 21
154.27999999999989
 31
0.0
  0
LINE
  5
2B
  8
0
 62
     7
 10
103.1039999999999
 20
197.36500000000001
 30
0.0
 11
106.196
 21
192.499
 31
0.0
  0
LINE
  5
2C
  8
0
 62
     7
 10
100.01299999999991
 20
192.499
 30
0.0
 11
103.1039999999999
 21
197.36500000000001
 31
0.0
  0
LINE
  5
2D
  8
0
 62
     7
 10
104.384
 20
192.499
 30
0.0
 11
104.384
 21
186.22900000000001
 31
0.0
  0
LINE
  5
2E
  8
0
 62
     7
 10
101.825
 20
192.499
 30
0.0
 11
101.825
 21
186.22900000000001
 31
0.0
  0
LINE
  5
2F
  8
0
 62
     7
 10
104.384
 20
192.499
 30
0.0
 11
106.196
 21
192.499
 31
0.0
  0
LINE
  5
30
  8
0
 62
     7
 10
100.01299999999991
 20
192.499
 30
0.0
 11
101.825
 21
192.499
 31
0.0
  0
LINE
  5
31
  8
0
 62
     7
 10
101.825
 20
186.22900000000001
 30
0.0
 11
104.384
 21
186.22900000000001
 31
0.0
  0
LINE
  5
32
  8
0
 62
     7
 10
116.809
 20
153.452
 30
0.0
 11
115.0209999999999
 21
152.024
 31
0.0
  0
LINE
  5
33
  8
0
 62
     7
 10
115.0209999999999
 20
152.024
 30
0.0
 11
115.85599999999999
 21
154.15499999999989
 31
0.0
  0
LINE
  5
34
  8
0
 62
     7
 10
115.85599999999999
 20
154.15499999999989
 30
0.0
 11
116.809
 21
153.452
 31
0.0
  0
LINE
  5
35
  8
0
 62
     7
 10
120.7589999999999
 20
159.81200000000001
 30
0.0
 11
115.0209999999999
 21
152.024
 31
0.0
  0
LINE
  5
36
  8
0
 62
     7
 10
130.93299999999991
 20
159.81200000000001
 30
0.0
 11
120.7589999999999
 21
159.81200000000001
 31
0.0
  0
LINE
  5
37
  8
0
 62
     7
 10
117.809
 20
112.846
 30
0.0
 11
116.0209999999999
 21
111.41799999999991
 31
0.0
  0
LINE
  5
38
  8
0
 62
     7
 10
116.0209999999999
 20
111.41799999999991
 30
0.0
 11
116.8549999999999
 21
113.54899999999989
 31
0.0
  0
LINE
  5
39
  8
0
 62
     7
 10
116.8549999999999
 20
113.54899999999989
 30
0.0
 11
117.809
 21
112.846
 31
0.0
  0
LINE
  5
3A
  8
0
 62
     7
 10
121.7589999999999
 20
119.206
 30
0.0
 11
116.0209999999999
 21
111.41799999999991
 31
0.0
  0
LINE
  5
3B
  8
0
 62
     7
 10
131.93299999999991
 20
119.206
 30
0.0
 11
121.7589999999999
 21
119.206
 31
0.0
  0
ARC
  5
3C
  8
0
 62
     7
 10
106.816253
 20
148.00863399999989
 30
0.0
 40
2.033984999999999
 50
295.24270999999987
 51
314.823601
  0
ARC
  5
3D
  8
0
 62
     7
 10
105.7635129999999
 20
149.93201899999991
 30
0.0
 40
4.2247120000000002
 50
289.67534000000001
 51
297.03290800000002
  0
ARC
  5
3E
  8
0
 62
     7
 10
104.923677
 20
152.25208499999999
 30
0.0
 40
6.6920929999999981
 50
284.29983099999998
 51
289.75804699999998
  0
ARC
  5
3F
  8
0
 62
     7
 10
103.7184859999999
 20
157.0831739999999
 30
0.0
 40
11.671203
 50
275.11090300000001
 51
284.17509000000001
  0
ARC
  5
40
  8
0
 62
     7
 10
102.8650639999999
 20
163.88637199999991
 30
0.0
 40
18.524985000000001
 50
270.74038200000001
 51
275.86551400000002
  0
ARC
  5
41
  8
0
 62
     7
 10
113.337473
 20
151.0094729999999
 30
0.0
 40
5.6329570000000002
 50
232.07730799999999
 51
269.15180099999992
  0
ARC
  5
42
  8
0
 62
     7
 10
113.9216899999999
 20
161.01514899999989
 30
0.0
 40
15.65225899999999
 50
267.55547200000001
 51
270.13520299999988
  0
ARC
  5
43
  8
0
 62
     7
 10
99.392617999999999
 20
148.00863399999989
 30
0.0
 40
2.033984999999999
 50
225.1764189999999
 51
244.75730999999999
  0
ARC
  5
44
  8
0
 62
     7
 10
100.445359
 20
149.93201899999991
 30
0.0
 40
4.2247120000000002
 50
242.96711199999999
 51
250.32467999999989
  0
ARC
  5
45
  8
0
 62
     7
 10
101.2851949999999
 20
152.25208499999999
 30
0.0
 40
6.6920929999999981
 50
250.241973
 51
255.70018899999999
  0
ARC
  5
46
  8
0
 62
     7
 10
102.4903859999999
 20
157.0831739999999
 30
0.0
 40
11.671203
 50
255.82492999999999
 51
264.889116
  0
ARC
  5
47
  8
0
 62
     7
 10
103.343808
 20
163.88637199999991
 30
0.0
 40
18.524985000000001
 50
264.13450599999987
 51
269.25963799999988
  0
ARC
  5
48
  8
0
 62
     7
 10
92.872318000000007
 20
151.00685999999999
 30
0.0
 40
5.6303309999999991
 50
270.83936899999992
 51
307.93167599999992
  0
ARC
  5
49
  8
0
 62
     7
 10
92.287177999999997
 20
161.01586199999991
 30
0.0
 40
15.652972999999999
 50
269.86483799999991
 51
272.44449100000003
  0
ARC
  5
4A
  8
0
 62
     7
 10
106.81608899999991
 20
161.217296
 30
0.0
 40
2.034621
 50
45.187674999999999
 51
64.760618999999991
  0
ARC
  5
4B
  8
0
 62
     7
 10
105.7643919999999
 20
159.29517799999991
 30
0.0
 40
4.2237410000000004
 50
62.973759999999992
 51
70.332617000000013
  0
ARC
  5
4C
  8
0
 62
     7
 10
104.92551999999991
 20
156.978542
 30
0.0
 40
6.6875679999999988
 50
70.244800000000012
 51
75.706576999999996
  0
ARC
  5
4D
  8
0
 62
     7
 10
103.71876399999999
 20
152.141649
 30
0.0
 40
11.67268999999999
 50
75.828162000000006
 51
84.891120000000001
  0
ARC
  5
4E
  8
0
 62
     7
 10
102.86509599999999
 20
145.33634499999991
 30
0.0
 40
18.52858599999999
 50
84.135730000000009
 51
89.259861999999998
  0
ARC
  5
4F
  8
0
 62
     7
 10
113.336433
 20
158.218513
 30
0.0
 40
5.6312739999999986
 50
90.837873000000002
 51
127.922619
  0
ARC
  5
50
  8
0
 62
     7
 10
113.9216899999999
 20
148.2111699999999
 30
0.0
 40
15.65225899999999
 50
89.864796999999996
 51
92.444528000000005
  0
ARC
  5
51
  8
0
 62
     7
 10
106.081509
 20
110.925006
 30
0.0
 40
5.7762000000000002
 50
286.00640800000002
 51
296.75410399999998
  0
ARC
  5
52
  8
0
 62
     7
 10
104.72264199999999
 20
115.2758759999999
 30
0.0
 40
10.333639
 50
277.41129899999999
 51
286.59667300000001
  0
ARC
  5
53
  8
0
 62
     7
 10
103.6901979999999
 20
122.11581099999999
 30
0.0
 40
17.250188999999999
 50
268.0540509999999
 51
277.88138300000003
  0
ARC
  5
54
  8
0
 62
     7
 10
114.296359
 20
113.68485800000001
 30
0.0
 40
8.8054800000000011
 50
244.05019999999999
 51
268.40893499999987
  0
ARC
  5
55
  8
0
 62
     7
 10
114.84201299999989
 20
121.357187
 30
0.0
 40
16.493351000000001
 50
267.25409200000001
 51
270.09314199999989
  0
ARC
  5
56
  8
0
 62
     7
 10
100.127363
 20
110.925006
 30
0.0
 40
5.7762000000000002
 50
243.24591599999999
 51
253.99361200000001
  0
ARC
  5
57
  8
0
 62
     7
 10
101.48623000000001
 20
115.2758759999999
 30
0.0
 40
10.333639
 50
253.403347
 51
262.58872100000002
  0
ARC
  5
58
  8
0
 62
     7
 10
102.518674
 20
122.11581099999999
 30
0.0
 40
17.250188999999999
 50
262.11863699999998
 51
271.94596899999988
  0
ARC
  5
59
  8
0
 62
     7
 10
91.912552999999988
 20
113.68477799999999
 30
0.0
 40
8.8053899999999992
 50
271.58880499999992
 51
295.94980800000002
  0
ARC
  5
5A
  8
0
 62
     7
 10
91.366512000000014
 20
121.3586149999999
 30
0.0
 40
16.494779999999999
 50
269.90689300000003
 51
272.74580900000001
  0
ARC
  5
5B
  8
0
 62
     7
 10
106.08317
 20
114.86800700000001
 30
0.0
 40
5.7745040000000003
 50
63.255873999999999
 51
74.005914000000004
  0
ARC
  5
5C
  8
0
 62
     7
 10
104.721627
 20
110.5088309999999
 30
0.0
 40
10.340655
 50
73.409045999999989
 51
82.588087000000016
  0
ARC
  5
5D
  8
0
 62
     7
 10
103.68768299999989
 20
103.66131799999999
 30
0.0
 40
17.264917999999991
 50
82.116956000000002
 51
91.935936000000012
  0
ARC
  5
5E
  8
0
 62
     7
 10
114.60488100000001
 20
111.4888879999999
 30
0.0
 40
9.4963630000000006
 50
103.366989
 51
115.9914239999999
  0
ARC
  5
5F
  8
0
 62
     7
 10
114.24909699999991
 20
112.046708
 30
0.0
 40
8.8740600000000001
 50
88.198293000000007
 51
101.96458699999999
  0
ARC
  5
60
  8
0
 62
     7
 10
100.125702
 20
114.86800700000001
 30
0.0
 40
5.7745040000000003
 50
105.994067
 51
116.7441059999999
  0
ARC
  5
61
  8
0
 62
     7
 10
101.4872449999999
 20
110.5088309999999
 30
0.0
 40
10.340655
 50
97.41189300000002
 51
106.5909339999999
  0
ARC
  5
62
  8
0
 62
     7
 10
102.52118900000001
 20
103.66131799999999
 30
0.0
 40
17.264917999999991
 50
88.064043999999996
 51
97.88302400000002
  0
ARC
  5
63
  8
0
 62
     7
 10
91.603672000000003
 20
111.48823
 30
0.0
 40
9.4970949999999998
 50
64.008562999999995
 51
76.631591
  0
ARC
  5
64
  8
0
 62
     7
 10
91.959951000000004
 20
112.04768899999991
 30
0.0
 40
8.8730799999999999
 50
78.034711999999999
 51
91.801907
  0
ARC
  5
65
  8
0
 62
     7
 10
99.392782999999994
 20
161.217296
 30
0.0
 40
2.034621
 50
115.239361
 51
134.81230500000001
  0
ARC
  5
66
  8
0
 62
     7
 10
100.4444799999999
 20
159.29517799999991
 30
0.0
 40
4.2237410000000004
 50
109.66736399999991
 51
117.0262199999999
  0
ARC
  5
67
  8
0
 62
     7
 10
101.28335199999999
 20
156.978542
 30
0.0
 40
6.6875679999999988
 50
104.293403
 51
109.75518
  0
ARC
  5
68
  8
0
 62
     7
 10
102.49010800000001
 20
152.141649
 30
0.0
 40
11.67268999999999
 50
95.108860000000007
 51
104.171818
  0
ARC
  5
69
  8
0
 62
     7
 10
103.34377599999991
 20
145.33634499999991
 30
0.0
 40
18.52858599999999
 50
90.740119000000007
 51
95.864249999999998
  0
ARC
  5
6A
  8
0
 62
     7
 10
92.873356999999984
 20
158.221124
 30
0.0
 40
5.6286500000000004
 50
52.06839699999999
 51
89.170957000000001
  0
ARC
  5
6B
  8
0
 62
     7
 10
92.287177999999997
 20
148.21045599999991
 30
0.0
 40
15.652972999999999
 50
87.555509000000015
 51
90.135161999999994
  0
LINE
  5
6C
  8
0
 62
     7
 10
114.8689999999999
 20
104.864
 30
0.0
 11
116.0209999999999
 21
105.767
 31
0.0
  0
LINE
  5
6D
  8
0
 62
     7
 10
112.9429999999999
 20
121.863
 30
0.0
 11
116.0209999999999
 21
120.02500000000001
 31
0.0
  0
LINE
  5
6E
  8
0
 62
     7
 10
112.9429999999999
 20
121.863
 30
0.0
 11
103.1039999999999
 21
121.863
 31
0.0
  0
LINE
  5
6F
  8
0
 62
     7
 10
114.8689999999999
 20
104.864
 30
0.0
 11
103.1039999999999
 21
104.864
 31
0.0
  0
LINE
  5
70
  8
0
 62
     7
 10
108.682
 20
105.767
 30
0.0
 11
110.443
 21
105.767
 31
0.0
  0
LINE
  5
71
  8
0
 62
     7
 10
108.682
 20
120.02500000000001
 30
0.0
 11
108.682
 21
105.767
 31
0.0
  0
LINE
  5
72
  8
0
 62
     7
 10
110.443
 20
120.02500000000001
 30
0.0
 11
108.682
 21
120.02500000000001
 31
0.0
  0
LINE
  5
73
  8
0
 62
     7
 10
116.0209999999999
 20
120.02500000000001
 30
0.0
 11
116.0209999999999
 21
105.767
 31
0.0
  0
LINE
  5
74
  8
0
 62
     7
 10
110.443
 20
120.02500000000001
 30
0.0
 11
110.443
 21
105.767
 31
0.0
  0
LINE
  5
75
  8
0
 62
     7
 10
93.265900000000016
 20
140.613
 30
0.0
 11
94.265600000000006
 21
141.613
 31
0.0
  0
LINE
  5
76
  8
0
 62
     7
 10
111.9429999999999
 20
141.613
 30
0.0
 11
112.9429999999999
 21
140.613
 31
0.0
  0
LINE
  5
77
  8
0
 62
     7
 10
111.9429999999999
 20
141.613
 30
0.0
 11
111.9429999999999
 21
145.364
 31
0.0
  0
LINE
  5
78
  8
0
 62
     7
 10
94.265600000000006
 20
141.613
 30
0.0
 11
94.265600000000006
 21
145.364
 31
0.0
  0
LINE
  5
79
  8
0
 62
     7
 10
93.265900000000016
 20
141.613
 30
0.0
 11
112.9429999999999
 21
141.613
 31
0.0
  0
LINE
  5
7A
  8
0
 62
     7
 10
112.9429999999999
 20
121.863
 30
0.0
 11
112.9429999999999
 21
145.364
 31
0.0
  0
LINE
  5
7B
  8
0
 62
     7
 10
113.959
 20
163.863
 30
0.0
 11
115.0209999999999
 21
162.661
 31
0.0
  0
LINE
  5
7C
  8
0
 62
     7
 10
91.187799999999996
 20
162.661
 30
0.0
 11
92.250200000000007
 21
163.863
 31
0.0
  0
LINE
  5
7D
  8
0
 62
     7
 10
113.959
 20
145.364
 30
0.0
 11
115.0209999999999
 21
146.38499999999991
 31
0.0
  0
LINE
  5
7E
  8
0
 62
     7
 10
92.250200000000007
 20
145.364
 30
0.0
 11
91.187799999999996
 21
146.38499999999991
 31
0.0
  0
LINE
  5
7F
  8
0
 62
     7
 10
91.339699999999993
 20
104.864
 30
0.0
 11
90.188299999999984
 21
105.767
 31
0.0
  0
LINE
  5
80
  8
0
 62
     7
 10
93.265900000000016
 20
121.863
 30
0.0
 11
90.188299999999984
 21
120.02500000000001
 31
0.0
  0
LINE
  5
81
  8
0
 62
     7
 10
93.265900000000016
 20
121.863
 30
0.0
 11
93.265900000000016
 21
145.364
 31
0.0
  0
LINE
  5
82
  8
0
 62
     7
 10
93.265900000000016
 20
121.863
 30
0.0
 11
103.1039999999999
 21
121.863
 31
0.0
  0
LINE
  5
83
  8
0
 62
     7
 10
91.339699999999993
 20
104.864
 30
0.0
 11
103.1039999999999
 21
104.864
 31
0.0
  0
LINE
  5
84
  8
0
 62
     7
 10
97.527100000000004
 20
105.767
 30
0.0
 11
95.765600000000006
 21
105.767
 31
0.0
  0
LINE
  5
85
  8
0
 62
     7
 10
97.527100000000004
 20
120.02500000000001
 30
0.0
 11
97.527100000000004
 21
105.767
 31
0.0
  0
LINE
  5
86
  8
0
 62
     7
 10
95.765600000000006
 20
120.02500000000001
 30
0.0
 11
97.527100000000004
 21
120.02500000000001
 31
0.0
  0
LINE
  5
87
  8
0
 62
     7
 10
90.188299999999984
 20
120.02500000000001
 30
0.0
 11
90.188299999999984
 21
105.767
 31
0.0
  0
LINE
  5
88
  8
0
 62
     7
 10
95.765600000000006
 20
120.02500000000001
 30
0.0
 11
95.765600000000006
 21
105.767
 31
0.0
  0
LINE
  5
89
  8
0
 62
     7
 10
113.959
 20
145.364
 30
0.0
 11
103.1039999999999
 21
145.364
 31
0.0
  0
LINE
  5
8A
  8
0
 62
     7
 10
92.250200000000007
 20
145.364
 30
0.0
 11
103.1039999999999
 21
145.364
 31
0.0
  0
LINE
  5
8B
  8
0
 62
     7
 10
108.25
 20
146.56599999999989
 30
0.0
 11
109.875
 21
146.56599999999989
 31
0.0
  0
LINE
  5
8C
  8
0
 62
     7
 10
108.25
 20
162.661
 30
0.0
 11
108.25
 21
146.56599999999989
 31
0.0
  0
LINE
  5
8D
  8
0
 62
     7
 10
109.875
 20
162.661
 30
0.0
 11
108.25
 21
162.661
 31
0.0
  0
LINE
  5
8E
  8
0
 62
     7
 10
115.0209999999999
 20
162.661
 30
0.0
 11
115.0209999999999
 21
146.38499999999991
 31
0.0
  0
LINE
  5
8F
  8
0
 62
     7
 10
109.875
 20
162.661
 30
0.0
 11
109.875
 21
146.56599999999989
 31
0.0
  0
LINE
  5
90
  8
0
 62
     7
 10
113.959
 20
163.863
 30
0.0
 11
103.1039999999999
 21
163.863
 31
0.0
  0
LINE
  5
91
  8
0
 62
     7
 10
97.958799999999997
 20
146.56599999999989
 30
0.0
 11
96.333399999999997
 21
146.56599999999989
 31
0.0
  0
LINE
  5
92
  8
0
 62
     7
 10
97.958799999999997
 20
162.661
 30
0.0
 11
97.958799999999997
 21
146.56599999999989
 31
0.0
  0
LINE
  5
93
  8
0
 62
     7
 10
96.333399999999997
 20
162.661
 30
0.0
 11
97.958799999999997
 21
162.661
 31
0.0
  0
LINE
  5
94
  8
0
 62
     7
 10
91.187799999999996
 20
162.661
 30
0.0
 11
91.187799999999996
 21
146.38499999999991
 31
0.0
  0
LINE
  5
95
  8
0
 62
     7
 10
96.333399999999997
 20
162.661
 30
0.0
 11
96.333399999999997
 21
146.56599999999989
 31
0.0
  0
LINE
  5
96
  8
0
 62
     7
 10
92.250200000000007
 20
163.863
 30
0.0
 11
103.1039999999999
 21
163.863
 31
0.0
  0
ARC
  5
97
  8
0
 62
     7
 10
104.9246709999999
 20
179.8073169999999
 30
0.0
 40
2.49682
 50
223.19561999999999
 51
230.015154
  0
ARC
  5
98
  8
0
 62
     7
 10
105.956957
 20
180.94243199999991
 30
0.0
 40
4.0303639999999987
 50
229.14020600000001
 51
257.21529399999991
  0
ARC
  5
99
  8
0
 62
     7
 10
105.6294709999999
 20
179.97708299999991
 30
0.0
 40
3.0183309999999999
 50
259.22305299999999
 51
302.44494800000001
  0
ARC
  5
9A
  8
0
 62
     7
 10
104.85345699999991
 20
181.37950099999989
 30
0.0
 40
4.6191949999999986
 50
301.23551099999992
 51
314.73675899999989
  0
ARC
  5
9B
  8
0
 62
     7
 10
104.9246709999999
 20
176.3892139999999
 30
0.0
 40
2.49682
 50
129.98484599999989
 51
136.80438000000001
  0
ARC
  5
9C
  8
0
 62
     7
 10
105.956957
 20
175.254098
 30
0.0
 40
4.0303639999999987
 50
102.784706
 51
130.85979399999999
  0
ARC
  5
9D
  8
0
 62
     7
 10
105.6294709999999
 20
176.21944799999989
 30
0.0
 40
3.0183309999999999
 50
57.555052000000011
 51
100.77694699999989
  0
ARC
  5
9E
  8
0
 62
     7
 10
104.85345699999991
 20
174.81702899999999
 30
0.0
 40
4.6191949999999986
 50
45.263241000000001
 51
58.764489000000012
  0
ARC
  5
9F
  8
0
 62
     7
 10
99.924427000000009
 20
176.3892139999999
 30
0.0
 40
2.49682
 50
129.98484599999989
 51
136.80438000000001
  0
ARC
  5
A0
  8
0
 62
     7
 10
100.95671400000001
 20
175.254098
 30
0.0
 40
4.0303639999999987
 50
102.784706
 51
130.85979399999999
  0
ARC
  5
A1
  8
0
 62
     7
 10
100.629228
 20
176.21944799999989
 30
0.0
 40
3.0183309999999999
 50
57.555052000000011
 51
100.77694699999989
  0
ARC
  5
A2
  8
0
 62
     7
 10
99.853212999999997
 20
174.81702899999999
 30
0.0
 40
4.6191949999999986
 50
45.263241000000001
 51
58.764489000000012
  0
LINE
  5
A3
  8
0
  6
AIGENLINE001
 62
     7
 10
108.1039999999999
 20
163.863
 30
0.0
 11
108.1039999999999
 21
178.0979999999999
 31
0.0
  0
LINE
  5
A4
  8
0
  6
AIGENLINE001
 62
     7
 10
98.104200000000006
 20
178.0979999999999
 30
0.0
 11
98.104200000000006
 21
163.863
 31
0.0
  0
LINE
  5
A5
  8
0
 62
     7
 10
105.8929999999999
 20
171.6509999999999
 30
0.0
 11
108.1039999999999
 21
172.24299999999991
 31
0.0
  0
LINE
  5
A6
  8
0
 62
     7
 10
108.1039999999999
 20
172.24299999999991
 30
0.0
 11
105.8929999999999
 21
172.8359999999999
 31
0.0
  0
LINE
  5
A7
  8
0
 62
     7
 10
105.8929999999999
 20
172.8359999999999
 30
0.0
 11
105.8929999999999
 21
171.6509999999999
 31
0.0
  0
LINE
  5
A8
  8
0
 62
     7
 10
100.3149999999999
 20
172.82099999999991
 30
0.0
 11
98.104200000000006
 21
172.22799999999989
 31
0.0
  0
LINE
  5
A9
  8
0
 62
     7
 10
98.104200000000006
 20
172.22799999999989
 30
0.0
 11
100.3149999999999
 21
171.63599999999991
 31
0.0
  0
LINE
  5
AA
  8
0
 62
     7
 10
100.3149999999999
 20
171.63599999999991
 30
0.0
 11
100.3149999999999
 21
172.82099999999991
 31
0.0
  0
LINE
  5
AB
  8
0
 62
     7
 10
116.229
 20
172.2359999999999
 30
0.0
 11
96.130099999999999
 21
172.2359999999999
 31
0.0
  0
LINE
  5
AC
  8
0
 62
     7
 10
73.415099999999995
 20
161.75200000000001
 30
0.0
 11
72.822900000000004
 21
163.96199999999999
 31
0.0
  0
LINE
  5
AD
  8
0
 62
     7
 10
72.822900000000004
 20
163.96199999999999
 30
0.0
 11
72.230500000000006
 21
161.75200000000001
 31
0.0
  0
LINE
  5
AE
  8
0
 62
     7
 10
72.230500000000006
 20
161.75200000000001
 30
0.0
 11
73.415099999999995
 21
161.75200000000001
 31
0.0
  0
LINE
  5
AF
  8
0
 62
     7
 10
72.245099999999994
 20
107.0599999999999
 30
0.0
 11
72.837400000000002
 21
104.84999999999989
 31
0.0
  0
LINE
  5
B0
  8
0
 62
     7
 10
72.837400000000002
 20
104.84999999999989
 30
0.0
 11
73.429699999999997
 21
107.0599999999999
 31
0.0
  0
LINE
  5
B1
  8
0
 62
     7
 10
73.429699999999997
 20
107.0599999999999
 30
0.0
 11
72.245099999999994
 21
107.0599999999999
 31
0.0
  0
LINE
  5
B2
  8
0
 62
     7
 10
72.830100000000002
 20
163.96199999999999
 30
0.0
 11
72.830100000000002
 21
104.84999999999989
 31
0.0
  0
LINE
  5
B3
  8
0
 62
     7
 10
110.88799999999991
 20
92.981600000000014
 30
0.0
 11
113.098
 21
93.573499999999996
 31
0.0
  0
LINE
  5
B4
  8
0
 62
     7
 10
113.098
 20
93.573499999999996
 30
0.0
 11
110.88799999999991
 21
94.1661
 31
0.0
  0
LINE
  5
B5
  8
0
 62
     7
 10
110.88799999999991
 20
94.1661
 30
0.0
 11
110.88799999999991
 21
92.981600000000014
 31
0.0
  0
LINE
  5
B6
  8
0
 62
     7
 10
95.513499999999993
 20
94.151600000000002
 30
0.0
 11
93.303200000000004
 21
93.558999999999997
 31
0.0
  0
LINE
  5
B7
  8
0
 62
     7
 10
93.303200000000004
 20
93.558999999999997
 30
0.0
 11
95.513499999999993
 21
92.967200000000005
 31
0.0
  0
LINE
  5
B8
  8
0
 62
     7
 10
95.513499999999993
 20
92.967200000000005
 30
0.0
 11
95.513499999999993
 21
94.151600000000002
 31
0.0
  0
LINE
  5
B9
  8
0
 62
     7
 10
112.9379999999999
 20
93.566599999999994
 30
0.0
 11
93.303200000000004
 21
93.566599999999994
 31
0.0
  0
LINE
  5
BA
  8
0
 62
     7
 10
112.9379999999999
 20
103.54000000000001
 30
0.0
 11
112.9379999999999
 21
92.669499999999985
 31
0.0
  0
LINE
  5
BB
  8
0
 62
     7
 10
93.270700000000005
 20
92.761799999999994
 30
0.0
 11
93.270700000000005
 21
103.6399999999999
 31
0.0
  0
LINE
  5
BC
  8
0
 62
     7
 10
80.019400000000005
 20
106.9139999999999
 30
0.0
 11
80.611599999999996
 21
104.7029999999999
 31
0.0
  0
LINE
  5
BD
  8
0
 62
     7
 10
80.611599999999996
 20
104.7029999999999
 30
0.0
 11
81.203999999999994
 21
106.9139999999999
 31
0.0
  0
LINE
  5
BE
  8
0
 62
     7
 10
81.203999999999994
 20
106.9139999999999
 30
0.0
 11
80.019400000000005
 21
106.9139999999999
 31
0.0
  0
LINE
  5
BF
  8
0
 62
     7
 10
81.189400000000006
 20
119.62
 30
0.0
 11
80.597099999999998
 21
121.831
 31
0.0
  0
LINE
  5
C0
  8
0
 62
     7
 10
80.597099999999998
 20
121.831
 30
0.0
 11
80.004800000000003
 21
119.62
 31
0.0
  0
LINE
  5
C1
  8
0
 62
     7
 10
80.004800000000003
 20
119.62
 30
0.0
 11
81.189400000000006
 21
119.62
 31
0.0
  0
LINE
  5
C2
  8
0
 62
     7
 10
80.604399999999984
 20
104.7029999999999
 30
0.0
 11
80.604399999999984
 21
121.831
 31
0.0
  0
LINE
  5
C3
  8
0
 62
     7
 10
81.189400000000006
 20
161.6639999999999
 30
0.0
 11
80.597099999999998
 21
163.874
 31
0.0
  0
LINE
  5
C4
  8
0
 62
     7
 10
80.597099999999998
 20
163.874
 30
0.0
 11
80.004800000000003
 21
161.6639999999999
 31
0.0
  0
LINE
  5
C5
  8
0
 62
     7
 10
80.004800000000003
 20
161.6639999999999
 30
0.0
 11
81.189400000000006
 21
161.6639999999999
 31
0.0
  0
LINE
  5
C6
  8
0
 62
     7
 10
80.019400000000005
 20
147.59100000000001
 30
0.0
 11
80.611599999999996
 21
145.37899999999991
 31
0.0
  0
LINE
  5
C7
  8
0
 62
     7
 10
80.611599999999996
 20
145.37899999999991
 30
0.0
 11
81.203999999999994
 21
147.59100000000001
 31
0.0
  0
LINE
  5
C8
  8
0
 62
     7
 10
81.203999999999994
 20
147.59100000000001
 30
0.0
 11
80.019400000000005
 21
147.59100000000001
 31
0.0
  0
LINE
  5
C9
  8
0
 62
     7
 10
80.604399999999984
 20
163.81100000000001
 30
0.0
 11
80.604399999999984
 21
145.37899999999991
 31
0.0
  0
LINE
  5
CA
  8
0
 62
     7
 10
71.937799999999996
 20
163.863
 30
0.0
 11
90.187700000000007
 21
163.863
 31
0.0
  0
LINE
  5
CB
  8
0
 62
     7
 10
90.187700000000007
 20
145.364
 30
0.0
 11
78.770899999999983
 21
145.364
 31
0.0
  0
LINE
  5
CC
  8
0
 62
     7
 10
89.270899999999983
 20
104.8629999999999
 30
0.0
 11
71.937799999999996
 21
104.8629999999999
 31
0.0
  0
LINE
  5
CD
  8
0
 62
     7
 10
79.799599999999998
 20
121.863
 30
0.0
 11
91.187799999999996
 21
121.863
 31
0.0
  0
LINE
  5
CE
  8
0
  6
AIGENLINE002
 62
     7
 10
103.1039999999999
 20
101.3639999999999
 30
0.0
 11
103.1039999999999
 21
182.4129999999999
 31
0.0
  0
TEXT
  5
CF
  8
_________2
 62
     7
 10
24.5868
 20
0.707283
 30
0.0
 40
3.9357000000000002
  1
%%c10銅管用、逆止弁付・1セット2コ入り
 41
0.5
  0
LINE
  5
D0
  8
_________2
 62
     7
 10
205.30099999999999
 20
127.411
 30
0.0
 11
183.55099999999999
 21
127.411
 31
0.0
  0
LINE
  5
D1
  8
_________2
 62
     7
 10
100.2999999999999
 20
-4.0910799999999998
 30
0.0
 11
100.2999999999999
 21
-21.071400000000001
 31
0.0
  0
LINE
  5
D2
  8
_________2
 62
     7
 10
100.2999999999999
 20
275.93099999999993
 30
0.0
 11
100.2999999999999
 21
258.911
 31
0.0
  0
LINE
  5
D3
  8
_________2
 62
     7
 10
17.049499999999998
 20
127.411
 30
0.0
 11
-4.7008599999999987
 21
127.411
 31
0.0
  0
LINE
  5
D4
  8
_________2
 62
     7
 10
76.741
 20
29.8047
 30
0.0
 11
74.554699999999997
 21
29.8047
 31
0.0
  0
LINE
  5
D5
  8
_________2
 62
     7
 10
77.233699999999999
 20
29.8047
 30
0.0
 11
76.981499999999997
 21
29.8047
 31
0.0
  0
LINE
  5
D6
  8
_________2
 62
     7
 10
77.726299999999995
 20
29.8047
 30
0.0
 11
80.651200000000003
 21
29.8047
 31
0.0
  0
LINE
  5
D7
  8
_________2
 62
     7
 10
77.233699999999999
 20
29.8047
 30
0.0
 11
77.485900000000001
 21
29.8047
 31
0.0
  0
LINE
  5
D8
  8
_________2
 62
     7
 10
70.837500000000006
 20
29.8047
 30
0.0
 11
68.650499999999994
 21
29.8047
 31
0.0
  0
LINE
  5
D9
  8
_________2
 62
     7
 10
71.329400000000007
 20
29.8047
 30
0.0
 11
71.0779
 21
29.8047
 31
0.0
  0
LINE
  5
DA
  8
_________2
 62
     7
 10
71.329400000000007
 20
30.2974
 30
0.0
 11
71.329400000000007
 21
32.484400000000001
 31
0.0
  0
LINE
  5
DB
  8
_________2
 62
     7
 10
71.329400000000007
 20
29.8047
 30
0.0
 11
71.329400000000007
 21
30.056899999999992
 31
0.0
  0
LINE
  5
DC
  8
_________2
 62
     7
 10
71.822100000000006
 20
29.8047
 30
0.0
 11
74.009
 21
29.8047
 31
0.0
  0
LINE
  5
DD
  8
_________2
 62
     7
 10
71.329400000000007
 20
29.8047
 30
0.0
 11
71.581599999999995
 21
29.8047
 31
0.0
  0
LINE
  5
DE
  8
_________2
 62
     7
 10
71.329400000000007
 20
29.312799999999999
 30
0.0
 11
71.329400000000007
 21
27.125800000000002
 31
0.0
  0
LINE
  5
DF
  8
_________2
 62
     7
 10
71.329400000000007
 20
29.8047
 30
0.0
 11
71.329400000000007
 21
29.5532
 31
0.0
  0
LINE
  5
E0
  8
_________2
 62
     7
 10
75.040499999999994
 20
28.5852
 30
0.0
 11
80.218500000000006
 21
27.720400000000001
 31
0.0
  0
LINE
  5
E1
  8
_________2
 62
     7
 10
75.040499999999994
 20
31.0243
 30
0.0
 11
80.218500000000006
 21
31.889700000000001
 31
0.0
  0
LINE
  5
E2
  8
_________2
 62
     7
 10
80.218500000000006
 20
27.720400000000001
 30
0.0
 11
80.218500000000006
 21
31.889700000000001
 31
0.0
  0
LINE
  5
E3
  8
_________2
 62
     7
 10
75.040499999999994
 20
28.5852
 30
0.0
 11
75.040499999999994
 21
31.0243
 31
0.0
  0
ARC
  5
E4
  8
_________2
 62
     7
 10
71.283190000000005
 20
29.757787
 30
0.0
 40
1.2673709999999989
 50
2.1232950000000002
 51
87.909056000000007
  0
ARC
  5
E5
  8
_________2
 62
     7
 10
71.375959999999992
 20
29.758213000000001
 30
0.0
 40
1.2669559999999991
 50
92.104701000000006
 51
177.8952689999999
  0
ARC
  5
E6
  8
_________2
 62
     7
 10
71.376357999999996
 20
29.851671
 30
0.0
 40
1.2673680000000001
 50
182.12203600000001
 51
267.877993
  0
ARC
  5
E7
  8
_________2
 62
     7
 10
71.282541000000009
 20
29.852347999999999
 30
0.0
 40
1.2680439999999991
 50
272.11916400000001
 51
357.84848499999993
  0
ARC
  5
E8
  8
_________2
 62
     7
 10
71.329430000000002
 20
29.804742999999998
 30
0.0
 40
2.0849849999999992
 50
0.00001
 51
89.999980000000008
  0
ARC
  5
E9
  8
_________2
 62
     7
 10
71.409075999999999
 20
29.725812999999992
 30
0.0
 40
2.165379999999999
 50
92.107876000000005
 51
177.91103200000001
  0
ARC
  5
EA
  8
_________2
 62
     7
 10
71.409439000000006
 20
29.884751999999999
 30
0.0
 40
2.1657829999999998
 50
182.117133
 51
267.88289700000001
  0
ARC
  5
EB
  8
_________2
 62
     7
 10
71.249459000000002
 20
29.885429999999989
 30
0.0
 40
2.1664590000000001
 50
272.11546800000002
 51
357.86560400000002
  0
TEXT
  5
EC
  8
_________2
 62
     7
 10
104.605
 20
1.6794899999999999
 30
0.0
 40
3.0923400000000001
  1
図番
 41
0.5
  0
LINE
  5
ED
  8
_________2
 62
     7
 10
103.55
 20
5.9087199999999989
 30
0.0
 11
183.55099999999999
 21
5.9087199999999989
 31
0.0
  0
TEXT
  5
EE
  8
_________2
 62
     7
 10
104.605
 20
11.679299999999991
 30
0.0
 40
3.0923400000000001
  1
品番
 41
0.5
  0
TEXT
  5
EF
  8
_________2
 62
     7
 10
104.605
 20
31.818100000000001
 30
0.0
 40
3.0923400000000001
  1
名称
 41
0.5
  0
TEXT
  5
F0
  8
_________2
 62
     7
 10
91.845058333333341
 20
26.821999999999989
 30
0.0
 40
3.6545800000000002
  1
mm
 41
0.5
 72
     1
 11
93.367800000000003
 21
26.821999999999989
 31
0.0
  0
TEXT
  5
F1
  8
_________2
 62
     7
 10
85.643199999999993
 20
31.818100000000001
 30
0.0
 40
3.0923400000000001
  1
単位
 41
0.5
  0
TEXT
  5
F2
  8
_________2
 62
     7
 10
85.643199999999993
 20
19.410799999999991
 30
0.0
 40
3.0923400000000001
  1
尺度
 41
0.5
  0
TEXT
  5
F3
  8
_________2
 62
     7
 10
90.853307000000001
 20
13.2179
 30
0.0
 40
3.6545800000000002
  1
1 ： 1
 41
0.5
 72
     1
 11
93.959699999999998
 21
13.2179
 31
0.0
  0
TEXT
  5
F4
  8
_________2
 62
     7
 10
138.30240000000001
 20
9.1078600000000005
 30
0.0
 40
3.9357000000000002
  1
CET15R
 41
0.5
 72
     1
 11
143.55000000000001
 21
9.1078600000000005
 31
0.0
  0
TEXT
  5
F5
  8
_________2
 62
     7
 10
138.30240000000001
 20
-0.8926299999999999
 30
0.0
 40
3.9357000000000002
  1
CET15R
 41
0.5
 72
     1
 11
143.55000000000001
 21
-0.8926299999999999
 31
0.0
  0
TEXT
  5
F6
  8
_________2
 62
     7
 10
109.179
 20
24.2257
 30
0.0
 40
3.9357000000000002
  1
逆止弁付接続アダプタ
 41
0.5
  0
TEXT
  5
F7
  8
_________2
 62
     7
 10
39.364390666666658
 20
13.603
 30
0.0
 40
3.6545800000000002
  1
高橋
 41
0.5
 72
     1
 11
41.313499999999998
 21
13.603
 31
0.0
  0
TEXT
  5
F8
  8
_________2
 62
     7
 10
20.79039066666666
 20
13.603
 30
0.0
 40
3.6545800000000002
  1
石原
 41
0.5
 72
     1
 11
22.7395
 21
13.603
 31
0.0
  0
TEXT
  5
F9
  8
_________2
 62
     7
 10
67.785799999999995
 20
13.2179
 30
0.0
 40
3.6545800000000002
  1
06.08.22
 41
0.5
  0
TEXT
  5
FA
  8
_________2
 62
     7
 10
66.593100000000007
 20
19.410799999999991
 30
0.0
 40
3.0923400000000001
  1
日付
 41
0.5
  0
TEXT
  5
FB
  8
_________2
 62
     7
 10
29.639399999999998
 20
19.410799999999991
 30
0.0
 40
3.0923400000000001
  1
検図
 41
0.5
  0
TEXT
  5
FC
  8
_________2
 62
     7
 10
18.021100000000001
 20
5.21143
 30
0.0
 40
3.0923400000000001
  1
備考
 41
0.5
  0
TEXT
  5
FD
  8
_________2
 62
     7
 10
18.021100000000001
 20
19.410799999999991
 30
0.0
 40
3.0923400000000001
  1
製図
 41
0.5
  0
TEXT
  5
FE
  8
_________2
 62
     7
 10
23.788465333333338
 20
27.936800000000002
 30
0.0
 40
4.4979399999999989
  1
セラトレーディング株式会社
 41
0.5
 72
     1
 11
41.180500000000002
 21
27.936800000000002
 31
0.0
  0
LINE
  5
FF
  8
_________2
 62
     7
 10
183.55099999999999
 20
-4.0910799999999998
 30
0.0
 11
17.049499999999998
 21
-4.0910799999999998
 31
0.0
  0
LINE
  5
100
  8
_________2
 62
     7
 10
17.049499999999998
 20
-4.0910799999999998
 30
0.0
 11
17.049499999999998
 21
258.911
 31
0.0
  0
LINE
  5
101
  8
_________2
 62
     7
 10
17.049499999999998
 20
258.911
 30
0.0
 11
183.55099999999999
 21
258.911
 31
0.0
  0
LINE
  5
102
  8
_________2
 62
     7
 10
183.55099999999999
 20
258.911
 30
0.0
 11
183.55099999999999
 21
-4.0910799999999998
 31
0.0
  0
LINE
  5
103
  8
_________2
 62
     7
 10
65.549899999999994
 20
9.4089600000000004
 30
0.0
 11
65.549899999999994
 21
35.908799999999999
 31
0.0
  0
LINE
  5
104
  8
_________2
 62
     7
 10
84.549700000000016
 20
9.4089600000000004
 30
0.0
 11
84.549700000000016
 21
35.908799999999999
 31
0.0
  0
LINE
  5
105
  8
_________2
 62
     7
 10
103.55
 20
-4.0910799999999998
 30
0.0
 11
103.55
 21
35.908799999999999
 31
0.0
  0
LINE
  5
106
  8
_________2
 62
     7
 10
28.549299999999992
 20
9.4089600000000004
 30
0.0
 11
28.549299999999992
 21
23.409199999999998
 31
0.0
  0
LINE
  5
107
  8
_________2
 62
     7
 10
17.049499999999998
 20
9.4089600000000004
 30
0.0
 11
103.55
 21
9.4089600000000004
 31
0.0
  0
LINE
  5
108
  8
_________2
 62
     7
 10
17.049499999999998
 20
23.409199999999998
 30
0.0
 11
103.55
 21
23.409199999999998
 31
0.0
  0
LINE
  5
109
  8
_________2
 62
     7
 10
103.55
 20
15.9085
 30
0.0
 11
183.55099999999999
 21
15.9085
 31
0.0
  0
LINE
  5
10A
  8
_________2
 62
     7
 10
17.049499999999998
 20
35.908799999999999
 30
0.0
 11
183.55099999999999
 21
35.908799999999999
 31
0.0
  0
ENDSEC
  0
EOF
