  0
SECTION
  2
HEADER
  9
$ACADVER
  1
AC1009
  9
$INSBASE
 10
0.0
 20
0.0
 30
0.0
  9
$EXTMIN
 10
0.238058
 20
0.4482100000000001
 30
0.0
  9
$EXTMAX
 10
210.24000000000001
 20
297.44999999999999
 30
0.0
  9
$LIMMIN
 10
0.0
 20
0.0
  9
$LIMMAX
 10
12.0
 20
9.0
  9
$ORTHOMODE
 70
     0
  9
$REGENMODE
 70
     1
  9
$FILLMODE
 70
     1
  9
$QTEXTMODE
 70
     0
  9
$MIRRTEXT
 70
     1
  9
$DRAGMODE
 70
     2
  9
$LTSCALE
 40
1.0
  9
$OSMODE
 70
    37
  9
$ATTMODE
 70
     1
  9
$TEXTSIZE
 40
0.0
  9
$TRACEWID
 40
0.05
  9
$TEXTSTYLE
  7
STANDARD
  9
$CLAYER
  8
0
  9
$CELTYPE
  6
CONTINUOUS
  9
$CECOLOR
 62
   256
  9
$DIMSCALE
 40
1.0
  9
$DIMASZ
 40
0.18
  9
$DIMEXO
 40
0.0625
  9
$DIMDLI
 40
0.38
  9
$DIMRND
 40
0.0
  9
$DIMDLE
 40
0.0
  9
$DIMEXE
 40
0.18
  9
$DIMTP
 40
0.0
  9
$DIMTM
 40
0.0
  9
$DIMTXT
 40
0.18
  9
$DIMCEN
 40
0.09
  9
$DIMTSZ
 40
0.0
  9
$DIMTOL
 70
     0
  9
$DIMLIM
 70
     0
  9
$DIMTIH
 70
     1
  9
$DIMTOH
 70
     1
  9
$DIMSE1
 70
     0
  9
$DIMSE2
 70
     0
  9
$DIMTAD
 70
     0
  9
$DIMZIN
 70
     0
  9
$DIMBLK
  1

  9
$DIMASO
 70
     1
  9
$DIMSHO
 70
     1
  9
$DIMPOST
  1

  9
$DIMAPOST
  1

  9
$DIMALT
 70
     0
  9
$DIMALTD
 70
     2
  9
$DIMALTF
 40
25.399999999999999
  9
$DIMLFAC
 40
1.0
  9
$DIMTOFL
 70
     0
  9
$DIMTVP
 40
0.0
  9
$DIMTIX
 70
     0
  9
$DIMSOXD
 70
     0
  9
$DIMSAH
 70
     0
  9
$DIMBLK1
  1

  9
$DIMBLK2
  1

  9
$DIMSTYLE
  2
STANDARD
  9
$DIMCLRD
 70
     0
  9
$DIMCLRE
 70
     0
  9
$DIMCLRT
 70
     0
  9
$DIMTFAC
 40
1.0
  9
$DIMGAP
 40
0.09
  9
$LUNITS
 70
     2
  9
$LUPREC
 70
     4
  9
$SKETCHINC
 40
0.1
  9
$FILLETRAD
 40
0.0
  9
$AUNITS
 70
     0
  9
$AUPREC
 70
     0
  9
$MENU
  1
.
  9
$ELEVATION
 40
0.0
  9
$PELEVATION
 40
0.0
  9
$THICKNESS
 40
0.0
  9
$LIMCHECK
 70
     0
  9
$BLIPMODE
 70
     0
  9
$CHAMFERA
 40
0.0
  9
$CHAMFERB
 40
0.0
  9
$SKPOLY
 70
     0
  9
$TDCREATE
 40
2444972.375
  9
$TDUPDATE
 40
2458589.7355381711
  9
$TDINDWG
 40
0.00002625
  9
$TDUSRTIMER
 40
0.00002625
  9
$USRTIMER
 70
     1
  9
$ANGBASE
 50
0.0
  9
$ANGDIR
 70
     0
  9
$PDMODE
 70
     0
  9
$PDSIZE
 40
0.0
  9
$PLINEWID
 40
0.0
  9
$COORDS
 70
     1
  9
$SPLFRAME
 70
     0
  9
$SPLINETYPE
 70
     6
  9
$SPLINESEGS
 70
     8
  9
$ATTDIA
 70
     1
  9
$ATTREQ
 70
     1
  9
$HANDLING
 70
     1
  9
$HANDSEED
  5
181
  9
$SURFTAB1
 70
     6
  9
$SURFTAB2
 70
     6
  9
$SURFTYPE
 70
     6
  9
$SURFU
 70
     6
  9
$SURFV
 70
     6
  9
$UCSNAME
  2

  9
$UCSORG
 10
0.0
 20
0.0
 30
0.0
  9
$UCSXDIR
 10
1.0
 20
0.0
 30
0.0
  9
$UCSYDIR
 10
0.0
 20
1.0
 30
0.0
  9
$PUCSNAME
  2

  9
$PUCSORG
 10
0.0
 20
0.0
 30
0.0
  9
$PUCSXDIR
 10
1.0
 20
0.0
 30
0.0
  9
$PUCSYDIR
 10
0.0
 20
1.0
 30
0.0
  9
$USERI1
 70
     0
  9
$USERI2
 70
     0
  9
$USERI3
 70
     0
  9
$USERI4
 70
     0
  9
$USERI5
 70
     0
  9
$USERR1
 40
0.0
  9
$USERR2
 40
0.0
  9
$USERR3
 40
0.0
  9
$USERR4
 40
0.0
  9
$USERR5
 40
0.0
  9
$WORLDVIEW
 70
     1
  9
$SHADEDGE
 70
     3
  9
$SHADEDIF
 70
    70
  9
$TILEMODE
 70
     1
  9
$MAXACTVP
 70
    48
  9
$PLIMCHECK
 70
     0
  9
$PEXTMIN
 10
1.0000000000000000E+020
 20
1.0000000000000000E+020
 30
1.0000000000000000E+020
  9
$PEXTMAX
 10
-1.0000000000000000E+020
 20
-1.0000000000000000E+020
 30
-1.0000000000000000E+020
  9
$PLIMMIN
 10
0.0
 20
0.0
  9
$PLIMMAX
 10
12.0
 20
9.0
  9
$UNITMODE
 70
     0
  9
$VISRETAIN
 70
     1
  9
$PLINEGEN
 70
     0
  9
$PSLTSCALE
 70
     1
  0
ENDSEC
  0
SECTION
  2
TABLES
  0
TABLE
  2
VPORT
 70
     1
  0
VPORT
  2
*ACTIVE
 70
     0
 10
0.0
 20
0.0
 11
1.0
 21
1.0
 12
195.83816741455661
 22
148.72499999999991
 13
0.0
 23
0.0
 14
1.0
 24
1.0
 15
0.0
 25
0.0
 16
0.0
 26
0.0
 36
1.0
 17
0.0
 27
0.0
 37
0.0
 40
281.37269451488049
 41
2.298642533936651
 42
50.0
 43
0.0
 44
0.0
 50
0.0
 51
0.0
 71
     0
 72
   100
 73
     1
 74
     1
 75
     0
 76
     0
 77
     0
 78
     0
  0
ENDTAB
  0
TABLE
  2
LTYPE
 70
     2
  0
LTYPE
  2
CONTINUOUS
 70
     0
  3
Solid line
 72
    65
 73
     0
 40
0.0
  0
LTYPE
  2
AIGENLINE001
 70
     0
  3
generate AI->DXF Converter
 72
    65
 73
     4
 40
5.8561449999999988
 49
3.5278
 49
-0.776115
 49
0.776115
 49
-0.776115
  0
ENDTAB
  0
TABLE
  2
LAYER
 70
     4
  0
LAYER
  2
0
 70
     0
 62
     7
  6
CONTINUOUS
  0
LAYER
  2
____
 70
     0
 62
     7
  6
CONTINUOUS
  0
LAYER
  2
_________1
 70
     0
 62
     7
  6
CONTINUOUS
  0
LAYER
  2
_________2
 70
     0
 62
     7
  6
CONTINUOUS
  0
ENDTAB
  0
TABLE
  2
STYLE
 70
     1
  0
STYLE
  2
STANDARD
 70
     0
 40
0.0
 41
0.0
 50
0.0
 71
     0
 42
0.0
  3
TXT
  4
BIGFONT
  0
ENDTAB
  0
TABLE
  2
VIEW
 70
     0
  0
ENDTAB
  0
TABLE
  2
UCS
 70
     0
  0
ENDTAB
  0
TABLE
  2
APPID
 70
     3
  0
APPID
  2
ACAD
 70
     0
  0
APPID
  2
ACAD_NAV_VCDISPLAY
 70
     0
  0
APPID
  2
ACAD_MLEADERVER
 70
     0
  0
ENDTAB
  0
TABLE
  2
DIMSTYLE
 70
     1
  0
DIMSTYLE
  2
STANDARD
 70
     0
  3

  4

  5

  6

  7

 40
1.0
 41
0.18
 42
0.0625
 43
0.38
 44
0.18
 45
0.0
 46
0.0
 47
0.0
 48
0.0
140
0.18
141
0.09
142
0.0
143
25.399999999999999
144
1.0
145
0.0
146
1.0
147
0.09
 71
     0
 72
     0
 73
     1
 74
     1
 75
     0
 76
     0
 77
     0
 78
     0
170
     0
171
     2
172
     0
173
     0
174
     0
175
     0
176
     0
177
     0
178
     0
  0
ENDTAB
  0
ENDSEC
  0
SECTION
  2
BLOCKS
  0
BLOCK
  8
0
  2
$MODEL_SPACE
 70
     0
 10
0.0
 20
0.0
 30
0.0
  3
$MODEL_SPACE
  1

  0
ENDBLK
  5
1A
  8
0
  0
BLOCK
 67
     1
  8
0
  2
$PAPER_SPACE
 70
     0
 10
0.0
 20
0.0
 30
0.0
  3
$PAPER_SPACE
  1

  0
ENDBLK
  5
17
 67
     1
  8
0
  0
BLOCK
  8
____
  2
AIGNBL01010002
 70
     0
 10
0.0
 20
0.0
 30
0.0
  3
AIGNBL01010002
  1

  0
TEXT
  5
26
  8
____
 10
102.198199
 20
103.852
 30
0.0
 40
3.0923400000000001
  1
G 1/2
 41
0.5
 72
     1
 11
105.239
 21
103.852
 31
0.0
  0
ENDBLK
  5
27
  8
____
  0
BLOCK
  8
____
  2
AIGNBL01010003
 70
     0
 10
0.0
 20
0.0
 30
0.0
  3
AIGNBL01010003
  1

  0
TEXT
  5
2A
  8
____
 10
78.866
 20
136.051525
 30
0.0
 40
3.0923400000000001
  1
42
 50
90.0
 41
0.5
 72
     1
 11
78.866
 21
137.34
 31
0.0
  0
ENDBLK
  5
2B
  8
____
  0
BLOCK
  8
_________1
  2
AIGNBL02010002
 70
     0
 10
0.0
 20
0.0
 30
0.0
  3
AIGNBL02010002
  1

  0
LINE
  5
2E
  8
_________1
 10
80.158600000000007
 20
156.12899999999999
 30
0.0
 11
79.566000000000003
 21
158.34
 31
0.0
  0
LINE
  5
2F
  8
_________1
 10
79.566000000000003
 20
158.34
 30
0.0
 11
78.973500000000001
 21
156.12899999999999
 31
0.0
  0
LINE
  5
30
  8
_________1
 10
78.973500000000001
 20
156.12899999999999
 30
0.0
 11
80.158600000000007
 21
156.12899999999999
 31
0.0
  0
LINE
  5
31
  8
_________1
 10
78.973500000000001
 20
118.551
 30
0.0
 11
79.566000000000003
 21
116.34
 31
0.0
  0
LINE
  5
32
  8
_________1
 10
79.566000000000003
 20
116.34
 30
0.0
 11
80.158600000000007
 21
118.551
 31
0.0
  0
LINE
  5
33
  8
_________1
 10
80.158600000000007
 20
118.551
 30
0.0
 11
78.973500000000001
 21
118.551
 31
0.0
  0
LINE
  5
34
  8
_________1
 10
79.566000000000003
 20
158.34
 30
0.0
 11
79.566000000000003
 21
116.34
 31
0.0
  0
ENDBLK
  5
35
  8
_________1
  0
BLOCK
  8
_________1
  2
AIGNBL02010003
 70
     0
 10
0.0
 20
0.0
 30
0.0
  3
AIGNBL02010003
  1

  0
LINE
  5
38
  8
_________1
 10
113.505
 20
102.559
 30
0.0
 11
115.717
 21
103.152
 31
0.0
  0
LINE
  5
39
  8
_________1
 10
115.717
 20
103.152
 30
0.0
 11
113.505
 21
103.745
 31
0.0
  0
LINE
  5
3A
  8
_________1
 10
113.505
 20
103.745
 30
0.0
 11
113.505
 21
102.559
 31
0.0
  0
LINE
  5
3B
  8
_________1
 10
96.972800000000007
 20
103.745
 30
0.0
 11
94.761399999999995
 21
103.152
 31
0.0
  0
LINE
  5
3C
  8
_________1
 10
94.761399999999995
 20
103.152
 30
0.0
 11
96.972800000000007
 21
102.559
 31
0.0
  0
LINE
  5
3D
  8
_________1
 10
96.972800000000007
 20
102.559
 30
0.0
 11
96.972800000000007
 21
103.745
 31
0.0
  0
LINE
  5
3E
  8
_________1
 10
115.717
 20
103.152
 30
0.0
 11
94.761399999999995
 21
103.152
 31
0.0
  0
ENDBLK
  5
3F
  8
_________1
  0
BLOCK
  8
_________2
  2
AIGNBL03010002
 70
     0
 10
0.0
 20
0.0
 30
0.0
  3
AIGNBL03010002
  1

  0
LINE
  5
42
  8
_________2
 10
81.679900000000004
 20
51.324300000000001
 30
0.0
 11
79.493700000000004
 21
51.324300000000001
 31
0.0
  0
LINE
  5
43
  8
_________2
 10
82.172600000000017
 20
51.324300000000001
 30
0.0
 11
81.920400000000001
 21
51.324300000000001
 31
0.0
  0
LINE
  5
44
  8
_________2
 10
82.665199999999984
 20
51.324300000000001
 30
0.0
 11
85.590100000000007
 21
51.324300000000001
 31
0.0
  0
LINE
  5
45
  8
_________2
 10
82.172600000000017
 20
51.324300000000001
 30
0.0
 11
82.424800000000005
 21
51.324300000000001
 31
0.0
  0
LINE
  5
46
  8
_________2
 10
75.776399999999995
 20
51.324300000000001
 30
0.0
 11
73.589399999999998
 21
51.324300000000001
 31
0.0
  0
LINE
  5
47
  8
_________2
 10
76.2684
 20
51.324300000000001
 30
0.0
 11
76.016900000000007
 21
51.324300000000001
 31
0.0
  0
LINE
  5
48
  8
_________2
 10
76.2684
 20
51.817
 30
0.0
 11
76.2684
 21
54.003900000000002
 31
0.0
  0
LINE
  5
49
  8
_________2
 10
76.2684
 20
51.324300000000001
 30
0.0
 11
76.2684
 21
51.576500000000003
 31
0.0
  0
LINE
  5
4A
  8
_________2
 10
76.76100000000001
 20
51.324300000000001
 30
0.0
 11
78.947999999999993
 21
51.324300000000001
 31
0.0
  0
LINE
  5
4B
  8
_________2
 10
76.2684
 20
51.324300000000001
 30
0.0
 11
76.520499999999998
 21
51.324300000000001
 31
0.0
  0
LINE
  5
4C
  8
_________2
 10
76.2684
 20
50.832399999999993
 30
0.0
 11
76.2684
 21
48.645400000000002
 31
0.0
  0
LINE
  5
4D
  8
_________2
 10
76.2684
 20
51.324300000000001
 30
0.0
 11
76.2684
 21
51.072800000000001
 31
0.0
  0
LINE
  5
4E
  8
_________2
 10
79.979399999999984
 20
50.104799999999997
 30
0.0
 11
85.157399999999996
 21
49.240000000000002
 31
0.0
  0
LINE
  5
4F
  8
_________2
 10
79.979399999999984
 20
52.543900000000001
 30
0.0
 11
85.157399999999996
 21
53.409300000000002
 31
0.0
  0
LINE
  5
50
  8
_________2
 10
85.157399999999996
 20
49.240000000000002
 30
0.0
 11
85.157399999999996
 21
53.409300000000002
 31
0.0
  0
LINE
  5
51
  8
_________2
 10
79.979399999999984
 20
50.104799999999997
 30
0.0
 11
79.979399999999984
 21
52.543900000000001
 31
0.0
  0
ARC
  5
52
  8
_________2
 10
76.222110000000001
 20
51.277366999999991
 30
0.0
 40
1.2673709999999989
 50
2.1232950000000002
 51
87.909056000000007
  0
ARC
  5
53
  8
_________2
 10
76.315273000000005
 20
51.277400999999998
 30
0.0
 40
1.267363
 50
92.121785999999986
 51
177.878185
  0
ARC
  5
54
  8
_________2
 10
76.315273000000005
 20
51.371245999999992
 30
0.0
 40
1.267363
 50
182.121815
 51
267.87821400000001
  0
ARC
  5
55
  8
_________2
 10
76.221461000000005
 20
51.371928999999987
 30
0.0
 40
1.2680439999999991
 50
272.11916400000001
 51
357.84848499999998
  0
ARC
  5
56
  8
_________2
 10
76.268349999999984
 20
51.324323
 30
0.0
 40
2.0849849999999992
 50
0.00001
 51
89.999980000000008
  0
ARC
  5
57
  8
_________2
 10
76.348388
 20
51.245001999999992
 30
0.0
 40
2.1657860000000002
 50
92.117855000000034
 51
177.90105299999999
  0
ARC
  5
58
  8
_________2
 10
76.348354
 20
51.404327000000002
 30
0.0
 40
2.1657779999999991
 50
182.11700400000001
 51
267.88302499999998
  0
ARC
  5
59
  8
_________2
 10
76.188378999999983
 20
51.405009999999997
 30
0.0
 40
2.1664590000000001
 50
272.11546800000002
 51
357.86560400000002
  0
ENDBLK
  5
5A
  8
_________2
  0
ENDSEC
  0
SECTION
  2
ENTITIES
  0
TEXT
  5
5B
  8
____
 10
106.78805800000001
 20
167.40600000000001
 30
0.0
 40
3.0923400000000001
  1
NPT 1/2
 41
0.5
 72
     2
 11
115.962
 21
167.40600000000001
 31
0.0
  0
INSERT
  5
5C
  8
____
  2
AIGNBL01010002
 10
0.0
 20
0.0
 30
0.0
  0
INSERT
  5
5D
  8
____
  2
AIGNBL01010003
 10
0.0
 20
0.0
 30
0.0
  0
LINE
  5
5E
  8
_________1
 10
100.777
 20
160.61699999999999
 30
0.0
 11
100.54000000000001
 21
158.34
 31
0.0
  0
LINE
  5
5F
  8
_________1
 10
100.54000000000001
 20
158.34
 30
0.0
 11
101.883
 21
160.19300000000001
 31
0.0
  0
LINE
  5
60
  8
_________1
 10
101.883
 20
160.19300000000001
 30
0.0
 11
100.777
 21
160.61699999999999
 31
0.0
  0
LINE
  5
61
  8
_________1
 10
100.54000000000001
 20
158.34
 30
0.0
 11
103.741
 21
166.70599999999999
 31
0.0
  0
LINE
  5
62
  8
_________1
 10
103.741
 20
166.70599999999999
 30
0.0
 11
115.962
 21
166.70599999999999
 31
0.0
  0
INSERT
  5
63
  8
_________1
  2
AIGNBL02010002
 10
0.0
 20
0.0
 30
0.0
  0
INSERT
  5
64
  8
_________1
  2
AIGNBL02010003
 10
0.0
 20
0.0
 30
0.0
  0
LINE
  5
65
  8
_________1
  6
AIGENLINE001
 10
125.02
 20
212.977
 30
0.0
 11
85.204999999999998
 21
212.977
 31
0.0
  0
LINE
  5
66
  8
_________1
  6
AIGENLINE001
 10
105.239
 20
229.434
 30
0.0
 11
105.239
 21
196.88900000000001
 31
0.0
  0
ARC
  5
67
  8
_________1
 10
105.238857
 20
212.97697500000001
 30
0.0
 40
10.477809000000001
 50
359.99906800000002
 51
89.999037999999999
  0
ARC
  5
68
  8
_________1
 10
105.239205
 20
212.97697500000001
 30
0.0
 40
10.477809000000001
 50
90.000942000000009
 51
180.00095200000001
  0
ARC
  5
69
  8
_________1
 10
105.238857
 20
212.97697500000001
 30
0.0
 40
10.477461
 50
180.00095200000001
 51
270.00096200000002
  0
ARC
  5
6A
  8
_________1
 10
105.23920099999999
 20
212.976979
 30
0.0
 40
10.477465
 50
269.999078
 51
359.99904800000002
  0
ARC
  5
6B
  8
_________1
 10
105.239029
 20
212.97680299999999
 30
0.0
 40
9.3155990000000006
 50
0.00001
 51
89.999980000000008
  0
ARC
  5
6C
  8
_________1
 10
105.23903199999999
 20
212.97680299999999
 30
0.0
 40
9.3155990000000006
 50
90.0
 51
179.99996999999999
  0
ARC
  5
6D
  8
_________1
 10
105.239029
 20
212.97680299999999
 30
0.0
 40
9.3155950000000001
 50
179.99996999999999
 51
270.00002000000001
  0
ARC
  5
6E
  8
_________1
 10
105.239029
 20
212.97680600000001
 30
0.0
 40
9.3155990000000006
 50
270.00002000000001
 51
359.99999000000003
  0
ARC
  5
6F
  8
_________1
 10
105.239029
 20
212.97680299999999
 30
0.0
 40
11.000261
 50
0.00001
 51
89.999980000000008
  0
ARC
  5
70
  8
_________1
 10
105.23903300000001
 20
212.97680299999999
 30
0.0
 40
11.000261
 50
90.0
 51
179.99996999999999
  0
ARC
  5
71
  8
_________1
 10
105.238856
 20
212.97697500000001
 30
0.0
 40
11.000085
 50
180.00090700000001
 51
270.00091700000002
  0
ARC
  5
72
  8
_________1
 10
105.23920099999999
 20
212.976979
 30
0.0
 40
11.000088999999999
 50
269.999123
 51
359.99909300000002
  0
ARC
  5
73
  8
_________1
 10
105.23903
 20
212.97680399999999
 30
0.0
 40
5.0002440000000004
 50
0.00001
 51
89.999980000000008
  0
ARC
  5
74
  8
_________1
 10
105.239031
 20
212.97680399999999
 30
0.0
 40
5.0002440000000004
 50
90.0
 51
179.99996999999999
  0
ARC
  5
75
  8
_________1
 10
105.238857
 20
212.97697600000001
 30
0.0
 40
5.00007
 50
180.00198399999999
 51
270.00199400000002
  0
ARC
  5
76
  8
_________1
 10
105.23920200000001
 20
212.976978
 30
0.0
 40
5.0000720000000003
 50
269.99804599999999
 51
359.99801600000001
  0
ARC
  5
77
  8
_________1
 10
105.238856
 20
212.97697500000001
 30
0.0
 40
13.000325
 50
359.99925100000002
 51
89.999220999999991
  0
ARC
  5
78
  8
_________1
 10
105.239205
 20
212.97697500000001
 30
0.0
 40
13.000325
 50
90.000758999999974
 51
180.00076899999999
  0
ARC
  5
79
  8
_________1
 10
105.238856
 20
212.97697500000001
 30
0.0
 40
12.999974999999999
 50
180.00076899999999
 51
270.00077900000002
  0
ARC
  5
7A
  8
_________1
 10
105.23920099999999
 20
212.976979
 30
0.0
 40
12.999980000000001
 50
269.99926099999999
 51
359.99923100000001
  0
LINE
  5
7B
  8
_________1
 10
112.745
 20
225.977
 30
0.0
 11
97.733500000000006
 21
225.977
 31
0.0
  0
LINE
  5
7C
  8
_________1
 10
97.733500000000006
 20
225.977
 30
0.0
 11
90.227999999999994
 21
212.977
 31
0.0
  0
LINE
  5
7D
  8
_________1
 10
90.227999999999994
 20
212.977
 30
0.0
 11
97.733500000000006
 21
199.977
 31
0.0
  0
LINE
  5
7E
  8
_________1
 10
97.733500000000006
 20
199.977
 30
0.0
 11
112.745
 21
199.977
 31
0.0
  0
LINE
  5
7F
  8
_________1
 10
112.745
 20
199.977
 30
0.0
 11
120.25
 21
212.977
 31
0.0
  0
LINE
  5
80
  8
_________1
 10
120.25
 20
212.977
 30
0.0
 11
112.745
 21
225.977
 31
0.0
  0
LINE
  5
81
  8
_________1
  6
AIGENLINE001
 10
105.239
 20
161.62899999999999
 30
0.0
 11
105.239
 21
113.505
 31
0.0
  0
LINE
  5
82
  8
_________1
 10
92.238900000000001
 20
158.34
 30
0.0
 11
105.239
 21
158.34
 31
0.0
  0
LINE
  5
83
  8
_________1
 10
94.761399999999995
 20
133.34
 30
0.0
 11
94.761399999999995
 21
117.502
 31
0.0
  0
LINE
  5
84
  8
_________1
 10
95.923400000000001
 20
131.327
 30
0.0
 11
95.923400000000001
 21
116.34
 31
0.0
  0
LINE
  5
85
  8
_________1
 10
95.923400000000001
 20
116.34
 30
0.0
 11
105.239
 21
116.34
 31
0.0
  0
LINE
  5
86
  8
_________1
 10
95.923400000000001
 20
116.34
 30
0.0
 11
94.761399999999995
 21
117.502
 31
0.0
  0
LINE
  5
87
  8
_________1
 10
94.761399999999995
 20
117.502
 30
0.0
 11
105.239
 21
117.502
 31
0.0
  0
LINE
  5
88
  8
_________1
 10
94.761399999999995
 20
133.34
 30
0.0
 11
95.923400000000001
 21
131.327
 31
0.0
  0
LINE
  5
89
  8
_________1
 10
94.761399999999995
 20
131.327
 30
0.0
 11
105.239
 21
131.327
 31
0.0
  0
LINE
  5
8A
  8
_________1
 10
115.717
 20
133.34
 30
0.0
 11
115.717
 21
117.502
 31
0.0
  0
LINE
  5
8B
  8
_________1
 10
114.55500000000001
 20
116.34
 30
0.0
 11
105.239
 21
116.34
 31
0.0
  0
LINE
  5
8C
  8
_________1
 10
115.717
 20
117.502
 30
0.0
 11
105.239
 21
117.502
 31
0.0
  0
LINE
  5
8D
  8
_________1
 10
115.717
 20
133.34
 30
0.0
 11
114.55500000000001
 21
131.327
 31
0.0
  0
LINE
  5
8E
  8
_________1
 10
115.717
 20
131.327
 30
0.0
 11
105.239
 21
131.327
 31
0.0
  0
LINE
  5
8F
  8
_________1
 10
114.55500000000001
 20
116.34
 30
0.0
 11
115.717
 21
117.502
 31
0.0
  0
LINE
  5
90
  8
_________1
 10
114.55500000000001
 20
131.327
 30
0.0
 11
114.55500000000001
 21
116.34
 31
0.0
  0
LINE
  5
91
  8
_________1
 10
105.239
 20
133.34
 30
0.0
 11
92.238900000000001
 21
133.34
 31
0.0
  0
LINE
  5
92
  8
_________1
 10
90.227999999999994
 20
157.179
 30
0.0
 11
90.227999999999994
 21
134.501
 31
0.0
  0
LINE
  5
93
  8
_________1
 10
92.238900000000001
 20
158.34
 30
0.0
 11
90.227999999999994
 21
157.179
 31
0.0
  0
ARC
  5
94
  8
_________1
 10
93.980731999999975
 20
151.489372
 30
0.0
 40
6.815796999999999
 50
56.591922999999987
 51
123.408057
  0
ARC
  5
95
  8
_________1
 10
105.248037
 20
133.44081199999999
 30
0.0
 40
24.899190000000001
 50
90.020713999999998
 51
107.565646
  0
LINE
  5
96
  8
_________1
 10
92.238900000000001
 20
133.34
 30
0.0
 11
90.227999999999994
 21
134.501
 31
0.0
  0
ARC
  5
97
  8
_________1
 10
105.24638
 20
158.22125700000001
 30
0.0
 40
24.881440000000001
 50
252.42541600000001
 51
269.98308600000001
  0
LINE
  5
98
  8
_________1
 10
97.733500000000006
 20
157.179
 30
0.0
 11
97.733500000000006
 21
134.501
 31
0.0
  0
LINE
  5
99
  8
_________1
 10
118.239
 20
158.34
 30
0.0
 11
105.239
 21
158.34
 31
0.0
  0
LINE
  5
9A
  8
_________1
 10
105.239
 20
133.34
 30
0.0
 11
118.239
 21
133.34
 31
0.0
  0
ARC
  5
9B
  8
_________1
 10
105.23391599999999
 20
133.46597
 30
0.0
 40
24.874032
 50
72.425391000000005
 51
89.988209000000012
  0
ARC
  5
9C
  8
_________1
 10
105.230029
 20
158.23193599999999
 30
0.0
 40
24.892119000000001
 50
270.02073000000001
 51
287.570807
  0
LINE
  5
9D
  8
_________1
 10
112.745
 20
157.179
 30
0.0
 11
112.745
 21
134.501
 31
0.0
  0
LINE
  5
9E
  8
_________1
 10
118.239
 20
133.34
 30
0.0
 11
120.25
 21
134.501
 31
0.0
  0
ARC
  5
9F
  8
_________1
 10
116.49732899999999
 20
151.489372
 30
0.0
 40
6.815796999999999
 50
56.591922999999987
 51
123.408057
  0
LINE
  5
A0
  8
_________1
 10
118.239
 20
158.34
 30
0.0
 11
120.25
 21
157.179
 31
0.0
  0
LINE
  5
A1
  8
_________1
 10
120.25
 20
157.179
 30
0.0
 11
120.25
 21
134.501
 31
0.0
  0
LINE
  5
A2
  8
_________1
 10
90.038799999999995
 20
158.34
 30
0.0
 11
78.866
 21
158.34
 31
0.0
  0
LINE
  5
A3
  8
_________1
 10
93.723399999999984
 20
116.34
 30
0.0
 11
78.866
 21
116.34
 31
0.0
  0
LINE
  5
A4
  8
_________1
 10
94.761399999999995
 20
115.64
 30
0.0
 11
94.761399999999995
 21
102.452
 31
0.0
  0
LINE
  5
A5
  8
_________1
 10
115.717
 20
115.64
 30
0.0
 11
115.717
 21
102.452
 31
0.0
  0
ARC
  5
A6
  8
_________1
 10
93.980731999999975
 20
140.190258
 30
0.0
 40
6.8153509999999988
 50
236.589472
 51
303.41054800000001
  0
ARC
  5
A7
  8
_________1
 10
116.49732899999999
 20
140.19079199999999
 30
0.0
 40
6.815796999999999
 50
236.59194299999999
 51
303.40807699999999
  0
TEXT
  5
A8
  8
_________2
 10
29.525700000000001
 20
22.226900000000001
 30
0.0
 40
3.9357000000000002
  1
2個入り
 41
0.5
  0
LINE
  5
A9
  8
_________2
 10
210.24000000000001
 20
148.93100000000001
 30
0.0
 11
188.49000000000001
 21
148.93100000000001
 31
0.0
  0
LINE
  5
AA
  8
_________2
 10
105.239
 20
17.4285
 30
0.0
 11
105.239
 21
0.4482100000000001
 31
0.0
  0
LINE
  5
AB
  8
_________2
 10
105.239
 20
297.44999999999999
 30
0.0
 11
105.239
 21
280.43000000000001
 31
0.0
  0
LINE
  5
AC
  8
_________2
 10
21.988499999999998
 20
148.93100000000001
 30
0.0
 11
0.238058
 21
148.93100000000001
 31
0.0
  0
INSERT
  5
AD
  8
_________2
  2
AIGNBL03010002
 10
0.0
 20
0.0
 30
0.0
  0
TEXT
  5
AE
  8
_________2
 10
109.544
 20
23.199100000000001
 30
0.0
 40
3.0923400000000001
  1
図番
 41
0.5
  0
LINE
  5
AF
  8
_________2
 10
108.489
 20
27.4283
 30
0.0
 11
188.49000000000001
 21
27.4283
 31
0.0
  0
TEXT
  5
B0
  8
_________2
 10
109.544
 20
33.198900000000002
 30
0.0
 40
3.0923400000000001
  1
品番
 41
0.5
  0
TEXT
  5
B1
  8
_________2
 10
109.544
 20
53.337699999999998
 30
0.0
 40
3.0923400000000001
  1
名称
 41
0.5
  0
TEXT
  5
B2
  8
_________2
 10
96.784058333333334
 20
48.341500000000011
 30
0.0
 40
3.6545800000000002
  1
mm
 41
0.5
 72
     1
 11
98.306799999999996
 21
48.341500000000011
 31
0.0
  0
TEXT
  5
B3
  8
_________2
 10
90.582099999999997
 20
53.337699999999998
 30
0.0
 40
3.0923400000000001
  1
単位
 41
0.5
  0
TEXT
  5
B4
  8
_________2
 10
90.582099999999997
 20
40.930399999999999
 30
0.0
 40
3.0923400000000001
  1
尺度
 41
0.5
  0
TEXT
  5
B5
  8
_________2
 10
95.792207000000005
 20
34.737499999999997
 30
0.0
 40
3.6545800000000002
  1
1 ： 1
 41
0.5
 72
     1
 11
98.898600000000002
 21
34.737499999999997
 31
0.0
  0
TEXT
  5
B6
  8
_________2
 10
144.225325
 20
30.627400000000002
 30
0.0
 40
3.9357000000000002
  1
CET19
 41
0.5
 72
     1
 11
148.489
 21
30.627400000000002
 31
0.0
  0
TEXT
  5
B7
  8
_________2
 10
144.225325
 20
20.626999999999999
 30
0.0
 40
3.9357000000000002
  1
CET19
 41
0.5
 72
     1
 11
148.489
 21
20.626999999999999
 31
0.0
  0
TEXT
  5
B8
  8
_________2
 10
114.11799999999999
 20
45.7453
 30
0.0
 40
3.9357000000000002
  1
接続アダプター（G 1/2-NPT 1/2）
 41
0.5
  0
TEXT
  5
B9
  8
_________2
 10
44.364200333333329
 20
35.122599999999998
 30
0.0
 40
3.6545800000000002
  1
井田
 41
0.5
 72
     1
 11
46.252400000000002
 21
35.122599999999998
 31
0.0
  0
TEXT
  5
BA
  8
_________2
 10
25.729290666666671
 20
35.122599999999998
 30
0.0
 40
3.6545800000000002
  1
恋塚
 41
0.5
 72
     1
 11
27.6784
 21
35.122599999999998
 31
0.0
  0
TEXT
  5
BB
  8
_________2
 10
72.724699999999999
 20
34.737499999999997
 30
0.0
 40
3.6545800000000002
  1
19.04.02
 41
0.5
  0
TEXT
  5
BC
  8
_________2
 10
71.531999999999996
 20
40.930399999999999
 30
0.0
 40
3.0923400000000001
  1
日付
 41
0.5
  0
TEXT
  5
BD
  8
_________2
 10
34.578299999999999
 20
40.930399999999999
 30
0.0
 40
3.0923400000000001
  1
検図
 41
0.5
  0
TEXT
  5
BE
  8
_________2
 10
22.960000000000001
 20
26.731000000000002
 30
0.0
 40
3.0923400000000001
  1
備考
 41
0.5
  0
TEXT
  5
BF
  8
_________2
 10
22.960000000000001
 20
40.930399999999999
 30
0.0
 40
3.0923400000000001
  1
製図
 41
0.5
  0
TEXT
  5
C0
  8
_________2
 10
28.802330999999999
 20
49.456400000000002
 30
0.0
 40
4.4979399999999989
  1
セラトレーディング株式会社
 41
0.5
 72
     1
 11
46.119399999999992
 21
49.456400000000002
 31
0.0
  0
LINE
  5
C1
  8
_________2
 10
188.49000000000001
 20
17.4285
 30
0.0
 11
21.988499999999998
 21
17.4285
 31
0.0
  0
LINE
  5
C2
  8
_________2
 10
21.988499999999998
 20
17.4285
 30
0.0
 11
21.988499999999998
 21
280.43000000000001
 31
0.0
  0
LINE
  5
C3
  8
_________2
 10
21.988499999999998
 20
280.43000000000001
 30
0.0
 11
188.49000000000001
 21
280.43000000000001
 31
0.0
  0
LINE
  5
C4
  8
_________2
 10
188.49000000000001
 20
280.43000000000001
 30
0.0
 11
188.49000000000001
 21
17.4285
 31
0.0
  0
LINE
  5
C5
  8
_________2
 10
70.488799999999998
 20
30.9285
 30
0.0
 11
70.488799999999998
 21
57.428400000000011
 31
0.0
  0
LINE
  5
C6
  8
_________2
 10
89.488600000000005
 20
30.9285
 30
0.0
 11
89.488600000000005
 21
57.428400000000011
 31
0.0
  0
LINE
  5
C7
  8
_________2
 10
108.489
 20
17.4285
 30
0.0
 11
108.489
 21
57.428400000000011
 31
0.0
  0
LINE
  5
C8
  8
_________2
 10
33.488300000000002
 20
30.9285
 30
0.0
 11
33.488300000000002
 21
44.928800000000003
 31
0.0
  0
LINE
  5
C9
  8
_________2
 10
21.988499999999998
 20
30.9285
 30
0.0
 11
108.489
 21
30.9285
 31
0.0
  0
LINE
  5
CA
  8
_________2
 10
21.988499999999998
 20
44.928800000000003
 30
0.0
 11
108.489
 21
44.928800000000003
 31
0.0
  0
LINE
  5
CB
  8
_________2
 10
108.489
 20
37.428100000000001
 30
0.0
 11
188.49000000000001
 21
37.428100000000001
 31
0.0
  0
LINE
  5
CC
  8
_________2
 10
21.988499999999998
 20
57.428400000000011
 30
0.0
 11
188.49000000000001
 21
57.428400000000011
 31
0.0
  0
ENDSEC
  0
EOF
