  0
SECTION
  2
HEADER
  9
$ACADVER
  1
AC1009
  9
$INSBASE
 10
0.0
 20
0.0
 30
0.0
  9
$EXTMIN
 10
0.238058
 20
0.4482100000000001
 30
0.0
  9
$EXTMAX
 10
210.24000000000001
 20
297.44999999999987
 30
0.0
  9
$LIMMIN
 10
0.0
 20
0.0
  9
$LIMMAX
 10
12.0
 20
9.0
  9
$ORTHOMODE
 70
     0
  9
$REGENMODE
 70
     1
  9
$FILLMODE
 70
     1
  9
$QTEXTMODE
 70
     0
  9
$MIRRTEXT
 70
     1
  9
$DRAGMODE
 70
     2
  9
$LTSCALE
 40
1.0
  9
$OSMODE
 70
    37
  9
$ATTMODE
 70
     1
  9
$TEXTSIZE
 40
0.0
  9
$TRACEWID
 40
0.05
  9
$TEXTSTYLE
  7
STANDARD
  9
$CLAYER
  8
0
  9
$CELTYPE
  6
CONTINUOUS
  9
$CECOLOR
 62
   256
  9
$DIMSCALE
 40
1.0
  9
$DIMASZ
 40
0.18
  9
$DIMEXO
 40
0.0625
  9
$DIMDLI
 40
0.38
  9
$DIMRND
 40
0.0
  9
$DIMDLE
 40
0.0
  9
$DIMEXE
 40
0.18
  9
$DIMTP
 40
0.0
  9
$DIMTM
 40
0.0
  9
$DIMTXT
 40
0.18
  9
$DIMCEN
 40
0.09
  9
$DIMTSZ
 40
0.0
  9
$DIMTOL
 70
     0
  9
$DIMLIM
 70
     0
  9
$DIMTIH
 70
     1
  9
$DIMTOH
 70
     1
  9
$DIMSE1
 70
     0
  9
$DIMSE2
 70
     0
  9
$DIMTAD
 70
     0
  9
$DIMZIN
 70
     0
  9
$DIMBLK
  1

  9
$DIMASO
 70
     1
  9
$DIMSHO
 70
     1
  9
$DIMPOST
  1

  9
$DIMAPOST
  1

  9
$DIMALT
 70
     0
  9
$DIMALTD
 70
     2
  9
$DIMALTF
 40
25.399999999999999
  9
$DIMLFAC
 40
1.0
  9
$DIMTOFL
 70
     0
  9
$DIMTVP
 40
0.0
  9
$DIMTIX
 70
     0
  9
$DIMSOXD
 70
     0
  9
$DIMSAH
 70
     0
  9
$DIMBLK1
  1

  9
$DIMBLK2
  1

  9
$DIMSTYLE
  2
STANDARD
  9
$DIMCLRD
 70
     0
  9
$DIMCLRE
 70
     0
  9
$DIMCLRT
 70
     0
  9
$DIMTFAC
 40
1.0
  9
$DIMGAP
 40
0.09
  9
$LUNITS
 70
     2
  9
$LUPREC
 70
     4
  9
$SKETCHINC
 40
0.1
  9
$FILLETRAD
 40
0.0
  9
$AUNITS
 70
     0
  9
$AUPREC
 70
     0
  9
$MENU
  1
.
  9
$ELEVATION
 40
0.0
  9
$PELEVATION
 40
0.0
  9
$THICKNESS
 40
0.0
  9
$LIMCHECK
 70
     0
  9
$BLIPMODE
 70
     0
  9
$CHAMFERA
 40
0.0
  9
$CHAMFERB
 40
0.0
  9
$SKPOLY
 70
     0
  9
$TDCREATE
 40
2444972.375
  9
$TDUPDATE
 40
2456675.245626458
  9
$TDINDWG
 40
0.0000086227
  9
$TDUSRTIMER
 40
0.0000086227
  9
$USRTIMER
 70
     1
  9
$ANGBASE
 50
0.0
  9
$ANGDIR
 70
     0
  9
$PDMODE
 70
     0
  9
$PDSIZE
 40
0.0
  9
$PLINEWID
 40
0.0
  9
$COORDS
 70
     1
  9
$SPLFRAME
 70
     0
  9
$SPLINETYPE
 70
     6
  9
$SPLINESEGS
 70
     8
  9
$ATTDIA
 70
     0
  9
$ATTREQ
 70
     1
  9
$HANDLING
 70
     1
  9
$HANDSEED
  5
497
  9
$SURFTAB1
 70
     6
  9
$SURFTAB2
 70
     6
  9
$SURFTYPE
 70
     6
  9
$SURFU
 70
     6
  9
$SURFV
 70
     6
  9
$UCSNAME
  2

  9
$UCSORG
 10
0.0
 20
0.0
 30
0.0
  9
$UCSXDIR
 10
1.0
 20
0.0
 30
0.0
  9
$UCSYDIR
 10
0.0
 20
1.0
 30
0.0
  9
$PUCSNAME
  2

  9
$PUCSORG
 10
0.0
 20
0.0
 30
0.0
  9
$PUCSXDIR
 10
1.0
 20
0.0
 30
0.0
  9
$PUCSYDIR
 10
0.0
 20
1.0
 30
0.0
  9
$USERI1
 70
     0
  9
$USERI2
 70
     0
  9
$USERI3
 70
     0
  9
$USERI4
 70
     0
  9
$USERI5
 70
     0
  9
$USERR1
 40
0.0
  9
$USERR2
 40
0.0
  9
$USERR3
 40
0.0
  9
$USERR4
 40
0.0
  9
$USERR5
 40
0.0
  9
$WORLDVIEW
 70
     1
  9
$SHADEDGE
 70
     3
  9
$SHADEDIF
 70
    70
  9
$TILEMODE
 70
     1
  9
$MAXACTVP
 70
    48
  9
$PLIMCHECK
 70
     0
  9
$PEXTMIN
 10
1.0000000000000000E+020
 20
1.0000000000000000E+020
 30
1.0000000000000000E+020
  9
$PEXTMAX
 10
-1.0000000000000000E+020
 20
-1.0000000000000000E+020
 30
-1.0000000000000000E+020
  9
$PLIMMIN
 10
0.0
 20
0.0
  9
$PLIMMAX
 10
12.0
 20
9.0
  9
$UNITMODE
 70
     0
  9
$VISRETAIN
 70
     1
  9
$PLINEGEN
 70
     0
  9
$PSLTSCALE
 70
     1
  0
ENDSEC
  0
SECTION
  2
TABLES
  0
TABLE
  2
VPORT
 70
     2
  0
VPORT
  2
*ACTIVE
 70
     0
 10
0.0
 20
0.0
 11
1.0
 21
1.0
 12
206.97982146115791
 22
148.72499999999991
 13
0.0
 23
0.0
 14
1.0
 24
1.0
 15
0.0
 25
0.0
 16
0.0
 26
0.0
 36
1.0
 17
0.0
 27
0.0
 37
0.0
 40
299.90488308115528
 41
2.2894736842105261
 42
50.0
 43
0.0
 44
0.0
 50
0.0
 51
0.0
 71
     0
 72
   100
 73
     1
 74
     1
 75
     0
 76
     0
 77
     0
 78
     0
  0
ENDTAB
  0
TABLE
  2
LTYPE
 70
     3
  0
LTYPE
  2
CONTINUOUS
 70
     0
  3
Solid line
 72
    65
 73
     0
 40
0.0
  0
LTYPE
  2
AIGENLINE001
 70
     0
  3
generate AI->DXF Converter
 72
    65
 73
     4
 40
5.8561449999999988
 49
3.5278
 49
-0.776115
 49
0.776115
 49
-0.776115
  0
LTYPE
  2
AIGENLINE002
 70
     0
  3
generate AI->DXF Converter
 72
    65
 73
     6
 40
7.4083750000000004
 49
3.5278
 49
-0.776115
 49
0.776115
 49
-0.776115
 49
0.776115
 49
-0.776115
  0
ENDTAB
  0
TABLE
  2
LAYER
 70
     2
  0
LAYER
  2
0
 70
     0
 62
     7
  6
CONTINUOUS
  0
LAYER
  2
_________2
 70
     0
 62
     7
  6
CONTINUOUS
  0
ENDTAB
  0
TABLE
  2
STYLE
 70
     1
  0
STYLE
  2
STANDARD
 70
     0
 40
0.0
 41
0.0
 50
0.0
 71
     0
 42
0.0
  3
TXT
  4
EXTFONT.SHX
  0
ENDTAB
  0
TABLE
  2
VIEW
 70
     0
  0
ENDTAB
  0
TABLE
  2
UCS
 70
     0
  0
ENDTAB
  0
TABLE
  2
APPID
 70
     1
  0
APPID
  2
ACAD
 70
     0
  0
ENDTAB
  0
TABLE
  2
DIMSTYLE
 70
     1
  0
DIMSTYLE
  2
STANDARD
 70
     0
  3

  4

  5

  6

  7

 40
1.0
 41
0.18
 42
0.0625
 43
0.38
 44
0.18
 45
0.0
 46
0.0
 47
0.0
 48
0.0
140
0.18
141
0.09
142
0.0
143
25.399999999999999
144
1.0
145
0.0
146
1.0
147
0.09
 71
     0
 72
     0
 73
     1
 74
     1
 75
     0
 76
     0
 77
     0
 78
     0
170
     0
171
     2
172
     0
173
     0
174
     0
175
     0
176
     0
177
     0
178
     0
  0
ENDTAB
  0
ENDSEC
  0
SECTION
  2
BLOCKS
  0
BLOCK
  8
0
  2
$MODEL_SPACE
 70
     0
 10
0.0
 20
0.0
 30
0.0
  3
$MODEL_SPACE
  1

  0
ENDBLK
  5
1A
  8
0
  0
BLOCK
 67
     1
  8
0
  2
$PAPER_SPACE
 70
     0
 10
0.0
 20
0.0
 30
0.0
  3
$PAPER_SPACE
  1

  0
ENDBLK
  5
17
 67
     1
  8
0
  0
ENDSEC
  0
SECTION
  2
ENTITIES
  0
TEXT
  5
23
  8
0
 62
     7
 10
50.530507999999998
 20
242.05299999999991
 30
0.0
 40
3.0923400000000001
  1
湯
 41
0.5
 72
     2
 11
51.97359999999999
 21
242.05299999999991
 31
0.0
  0
TEXT
  5
24
  8
0
 62
     7
 10
57.042900000000003
 20
233.93899999999999
 30
0.0
 40
3.0923400000000001
  1
45%%d
 41
0.5
  0
TEXT
  5
25
  8
0
 62
     7
 10
73.896069999999995
 20
233.93899999999999
 30
0.0
 40
3.0923400000000001
  1
45%%d
 41
0.5
 72
     2
 11
77.503799999999984
 21
233.93899999999999
 31
0.0
  0
TEXT
  5
26
  8
0
 62
     7
 10
82.665400000000005
 20
242.05299999999991
 30
0.0
 40
3.0923400000000001
  1
水
 41
0.5
  0
TEXT
  5
27
  8
0
 62
     7
 10
93.789199999999994
 20
169.64452499999999
 30
0.0
 40
3.0923400000000001
  1
65
 50
90.0
 41
0.5
 72
     1
 11
93.789199999999994
 21
170.93299999999999
 31
0.0
  0
TEXT
  5
28
  8
0
 62
     7
 10
115.9529999999999
 20
169.77337249999991
 30
0.0
 40
3.0923400000000001
  1
60
 50
90.0
 41
0.5
 72
     1
 11
115.9529999999999
 21
170.93299999999999
 31
0.0
  0
TEXT
  5
29
  8
0
 62
     7
 10
154.83500000000001
 20
118.3752874999999
 30
0.0
 40
3.0923400000000001
  1
340
 50
90.0
 41
0.5
 72
     1
 11
154.83500000000001
 21
120.30799999999989
 31
0.0
  0
TEXT
  5
2A
  8
0
 62
     7
 10
154.83500000000001
 20
181.75413499999991
 30
0.0
 40
3.0923400000000001
  1
166
 50
90.0
 41
0.5
 72
     1
 11
154.83500000000001
 21
183.55799999999999
 31
0.0
  0
TEXT
  5
2B
  8
0
 62
     7
 10
164.0
 20
184.58513500000001
 30
0.0
 40
3.0923400000000001
  1
189
 50
90.0
 41
0.5
 72
     1
 11
164.0
 21
186.3889999999999
 31
0.0
  0
TEXT
  5
2C
  8
0
 62
     7
 10
123.7559999999999
 20
148.048
 30
0.0
 40
3.0923400000000001
  1
max.35
 50
90.0
 41
0.5
  0
TEXT
  5
2D
  8
0
 62
     7
 10
115.9529999999999
 20
120.8752875
 30
0.0
 40
3.0923400000000001
  1
590
 50
90.0
 41
0.5
 72
     1
 11
115.9529999999999
 21
122.80800000000001
 31
0.0
  0
TEXT
  5
2E
  8
0
 62
     7
 10
142.96621999999999
 20
181.90599999999989
 30
0.0
 40
3.0923400000000001
  1
19
 41
0.5
 72
     1
 11
143.99700000000001
 21
181.90599999999989
 31
0.0
  0
TEXT
  5
2F
  8
0
 62
     7
 10
119.45805
 20
167.107
 30
0.0
 40
3.0923400000000001
  1
116.5
 41
0.5
 72
     1
 11
122.035
 21
167.107
 31
0.0
  0
TEXT
  5
30
  8
0
 62
     7
 10
73.959580000000003
 20
172.47
 30
0.0
 40
3.0923400000000001
  1
%%c48
 41
0.5
 72
     2
 11
78.082700000000003
 21
172.47
 31
0.0
  0
TEXT
  5
31
  8
0
 62
     7
 10
142.76787999999991
 20
170.4129999999999
 30
0.0
 40
3.0923400000000001
  1
%%c42
 41
0.5
 72
     2
 11
146.89099999999991
 21
170.4129999999999
 31
0.0
  0
TEXT
  5
32
  8
0
 62
     7
 10
98.679270000000017
 20
169.93999999999991
 30
0.0
 40
3.0923400000000001
  1
25%%d
 41
0.5
 72
     2
 11
102.28700000000001
 21
169.93999999999991
 31
0.0
  0
TEXT
  5
33
  8
0
 62
     7
 10
114.2929859999999
 20
199.45400000000001
 30
0.0
 40
3.0923400000000001
  1
閉
 41
0.5
 72
     2
 11
115.633
 21
199.45400000000001
 31
0.0
  0
TEXT
  5
34
  8
0
 62
     7
 10
118.260986
 20
208.637
 30
0.0
 40
3.0923400000000001
  1
開
 41
0.5
 72
     2
 11
119.601
 21
208.637
 31
0.0
  0
TEXT
  5
35
  8
0
 62
     7
 10
144.95287999999991
 20
263.49499999999989
 30
0.0
 40
3.0923400000000001
  1
%%c35
 41
0.5
 72
     2
 11
149.07599999999991
 21
263.49499999999989
 31
0.0
  0
TEXT
  5
36
  8
0
 62
     7
 10
131.9526459999999
 20
242.7229999999999
 30
0.0
 40
3.0923400000000001
  1
水栓取付穴
 41
0.5
 72
     1
 11
136.38499999999999
 21
242.7229999999999
 31
0.0
  0
TEXT
  5
37
  8
0
 62
     7
 10
117.58799999999999
 20
74.838999999999999
 30
0.0
 40
3.0923400000000001
  1
G 1/2
 41
0.5
  0
TEXT
  5
38
  8
0
 62
     7
 10
143.52104999999989
 20
109.0289999999999
 30
0.0
 40
3.0923400000000001
  1
%%c5
 41
0.5
 72
     2
 11
146.0979999999999
 21
109.0289999999999
 31
0.0
  0
ARC
  5
39
  8
0
 62
     7
 10
67.344313999999997
 20
255.79541800000001
 30
0.0
 40
24.604057000000001
 50
225.2857919999999
 51
269.71916099999987
  0
ARC
  5
3A
  8
0
 62
     7
 10
67.104367000000011
 20
255.79277300000001
 30
0.0
 40
24.601406000000001
 50
270.277962
 51
314.72073799999993
  0
LINE
  5
3B
  8
0
 62
     7
 10
51.2592
 20
236.37999999999991
 30
0.0
 11
50.0321
 21
238.31200000000001
 31
0.0
  0
LINE
  5
3C
  8
0
 62
     7
 10
50.0321
 20
238.31200000000001
 30
0.0
 11
52.061199999999999
 21
237.25200000000001
 31
0.0
  0
LINE
  5
3D
  8
0
 62
     7
 10
52.061199999999999
 20
237.25200000000001
 30
0.0
 11
51.2592
 21
236.37999999999991
 31
0.0
  0
LINE
  5
3E
  8
0
 62
     7
 10
65.012100000000004
 20
231.78399999999999
 30
0.0
 11
67.223699999999994
 21
231.19200000000001
 31
0.0
  0
LINE
  5
3F
  8
0
 62
     7
 10
67.223699999999994
 20
231.19200000000001
 30
0.0
 11
65.012100000000004
 21
230.59899999999999
 31
0.0
  0
LINE
  5
40
  8
0
 62
     7
 10
65.012100000000004
 20
230.59899999999999
 30
0.0
 11
65.012100000000004
 21
231.78399999999999
 31
0.0
  0
LINE
  5
41
  8
0
 62
     7
 10
83.188199999999995
 20
236.37999999999991
 30
0.0
 11
84.415400000000005
 21
238.31200000000001
 31
0.0
  0
LINE
  5
42
  8
0
 62
     7
 10
84.415400000000005
 20
238.31200000000001
 30
0.0
 11
82.386200000000002
 21
237.25200000000001
 31
0.0
  0
LINE
  5
43
  8
0
 62
     7
 10
82.386200000000002
 20
237.25200000000001
 30
0.0
 11
83.188199999999995
 21
236.37999999999991
 31
0.0
  0
LINE
  5
44
  8
0
 62
     7
 10
69.435299999999984
 20
231.78399999999999
 30
0.0
 11
67.223699999999994
 21
231.19200000000001
 31
0.0
  0
LINE
  5
45
  8
0
 62
     7
 10
67.223699999999994
 20
231.19200000000001
 30
0.0
 11
69.435299999999984
 21
230.59899999999999
 31
0.0
  0
LINE
  5
46
  8
0
 62
     7
 10
69.435299999999984
 20
230.59899999999999
 30
0.0
 11
69.435299999999984
 21
231.78399999999999
 31
0.0
  0
LINE
  5
47
  8
0
 62
     7
 10
52.320999999999998
 20
240.601
 30
0.0
 11
49.638999999999989
 21
237.91900000000001
 31
0.0
  0
LINE
  5
48
  8
0
 62
     7
 10
82.359700000000004
 20
240.36799999999999
 30
0.0
 11
84.808499999999995
 21
237.91900000000001
 31
0.0
  0
LINE
  5
49
  8
0
  6
AIGENLINE001
 62
     7
 10
75.247
 20
255.50399999999999
 30
0.0
 11
58.970399999999998
 21
255.50399999999999
 31
0.0
  0
LINE
  5
4A
  8
0
  6
AIGENLINE001
 62
     7
 10
67.223699999999994
 20
220.65299999999991
 30
0.0
 11
67.223699999999994
 21
266.87700000000001
 31
0.0
  0
ARC
  5
4B
  8
0
  6
AIGENLINE001
 62
     7
 10
59.488093999999997
 20
120.36892399999989
 30
0.0
 40
4.7644330000000004
 50
128.54001099999999
 51
179.57291000000001
  0
ARC
  5
4C
  8
0
  6
AIGENLINE001
 62
     7
 10
60.571624999999997
 20
133.32743500000001
 30
0.0
 40
4.7641229999999997
 50
308.54882900000001
 51
359.573015
  0
LINE
  5
4D
  8
0
  6
AIGENLINE001
 62
     7
 10
63.540500000000002
 20
129.602
 30
0.0
 11
56.51959999999999
 21
124.096
 31
0.0
  0
LINE
  5
4E
  8
0
 62
     7
 10
56.540599999999998
 20
82.054799999999986
 30
0.0
 11
55.311900000000001
 21
82.054799999999986
 31
0.0
  0
LINE
  5
4F
  8
0
 62
     7
 10
54.083500000000001
 20
82.054799999999986
 30
0.0
 11
55.311900000000001
 21
82.054799999999986
 31
0.0
  0
ARC
  5
50
  8
0
 62
     7
 10
55.891390000000001
 20
88.819144999999978
 30
0.0
 40
0.521632
 50
335.00925899999999
 51
60.770325
  0
ARC
  5
51
  8
0
 62
     7
 10
55.915148999999992
 20
88.829016000000024
 30
0.0
 40
0.5046260000000001
 50
317.67215699999991
 51
332.85326400000002
  0
LINE
  5
52
  8
0
 62
     7
 10
56.14609999999999
 20
89.2744
 30
0.0
 11
54.723399999999991
 21
89.2744
 31
0.0
  0
LINE
  5
53
  8
0
 62
     7
 10
56.28820000000001
 20
87.713700000000003
 30
0.0
 11
54.723399999999991
 21
87.713700000000003
 31
0.0
  0
LINE
  5
54
  8
0
 62
     7
 10
56.28820000000001
 20
88.476100000000017
 30
0.0
 11
54.723399999999991
 21
88.476100000000017
 31
0.0
  0
LINE
  5
55
  8
0
 62
     7
 10
56.28820000000001
 20
87.700299999999999
 30
0.0
 11
56.28820000000001
 21
88.489199999999997
 31
0.0
  0
LINE
  5
56
  8
0
 62
     7
 10
55.661000000000001
 20
87.914900000000003
 30
0.0
 11
55.661000000000001
 21
88.274900000000002
 31
0.0
  0
ARC
  5
57
  8
0
 62
     7
 10
55.513663000000001
 20
88.274015999999989
 30
0.0
 40
0.302233
 50
0.172964
 51
41.967782999999997
  0
ARC
  5
58
  8
0
 62
     7
 10
55.512556999999987
 20
87.916252
 30
0.0
 40
0.303341
 50
318.11207200000001
 51
359.74718100000001
  0
LINE
  5
59
  8
0
 62
     7
 10
55.815899999999999
 20
87.914900000000003
 30
0.0
 11
55.815899999999999
 21
88.274900000000002
 31
0.0
  0
ARC
  5
5A
  8
0
 62
     7
 10
55.964872
 20
88.273593000000005
 30
0.0
 40
0.303838
 50
138.196654
 51
179.7480129999999
  0
ARC
  5
5B
  8
0
 62
     7
 10
55.964406999999987
 20
87.916071000000002
 30
0.0
 40
0.303372
 50
180.21859599999999
 51
221.836737
  0
LINE
  5
5C
  8
0
 62
     7
 10
54.801099999999991
 20
87.914900000000003
 30
0.0
 11
54.801099999999991
 21
88.274900000000002
 31
0.0
  0
ARC
  5
5D
  8
0
 62
     7
 10
54.499133999999991
 20
88.273912999999993
 30
0.0
 40
0.302003
 50
0.192692
 51
42.033458000000003
  0
ARC
  5
5E
  8
0
 62
     7
 10
54.498291999999999
 20
87.916255000000007
 30
0.0
 40
0.302846
 50
318.02752599999991
 51
359.74632400000002
  0
ARC
  5
5F
  8
0
 62
     7
 10
54.948165000000003
 20
87.915825999999996
 30
0.0
 40
0.302233
 50
180.17296399999989
 51
221.96782200000001
  0
ARC
  5
60
  8
0
 62
     7
 10
54.949270999999989
 20
88.273589999999984
 30
0.0
 40
0.303341
 50
138.112053
 51
179.747162
  0
LINE
  5
61
  8
0
 62
     7
 10
54.645899999999997
 20
87.914900000000003
 30
0.0
 11
54.645899999999997
 21
88.274900000000002
 31
0.0
  0
ARC
  5
62
  8
0
 62
     7
 10
53.482866000000001
 20
87.916252
 30
0.0
 40
0.303341
 50
318.11207200000001
 51
359.74718100000001
  0
ARC
  5
63
  8
0
 62
     7
 10
53.483971999999987
 20
88.274015999999989
 30
0.0
 40
0.302233
 50
0.172964
 51
41.967782999999997
  0
LINE
  5
64
  8
0
 62
     7
 10
53.631
 20
87.914900000000003
 30
0.0
 11
53.631
 21
88.274900000000002
 31
0.0
  0
ARC
  5
65
  8
0
 62
     7
 10
53.933900999999999
 20
87.916275999999996
 30
0.0
 40
0.302902
 50
180.257712
 51
221.96847799999989
  0
ARC
  5
66
  8
0
 62
     7
 10
53.933844999999991
 20
88.273588000000004
 30
0.0
 40
0.302846
 50
138.02750599999999
 51
179.74630400000001
  0
LINE
  5
67
  8
0
 62
     7
 10
53.786200000000001
 20
87.914900000000003
 30
0.0
 11
53.786200000000001
 21
88.274900000000002
 31
0.0
  0
LINE
  5
68
  8
0
 62
     7
 10
53.158999999999999
 20
87.700299999999999
 30
0.0
 11
53.158999999999999
 21
88.489199999999997
 31
0.0
  0
LINE
  5
69
  8
0
 62
     7
 10
53.158999999999999
 20
88.476100000000017
 30
0.0
 11
54.723399999999991
 21
88.476100000000017
 31
0.0
  0
LINE
  5
6A
  8
0
 62
     7
 10
53.158999999999999
 20
87.713700000000003
 30
0.0
 11
54.723399999999991
 21
87.713700000000003
 31
0.0
  0
LINE
  5
6B
  8
0
 62
     7
 10
53.301099999999998
 20
89.2744
 30
0.0
 11
54.723399999999991
 21
89.2744
 31
0.0
  0
ARC
  5
6C
  8
0
 62
     7
 10
53.557167999999997
 20
88.826363999999998
 30
0.0
 40
0.521719
 50
134.48667199999991
 51
220.25771499999991
  0
ARC
  5
6D
  8
0
 62
     7
 10
53.540722000000002
 20
88.810966000000008
 30
0.0
 40
0.521666
 50
117.34061
 51
132.01218499999999
  0
ARC
  5
6E
  8
0
 62
     7
 10
55.892874999999997
 20
85.898535999999993
 30
0.0
 40
0.519859
 50
317.36098099999992
 51
40.492825000000003
  0
LINE
  5
6F
  8
0
 62
     7
 10
52.596600000000002
 20
85.416899999999998
 30
0.0
 11
56.863700000000001
 21
85.416899999999998
 31
0.0
  0
LINE
  5
70
  8
0
 62
     7
 10
56.540599999999998
 20
82.054799999999986
 30
0.0
 11
56.8508
 21
82.054799999999986
 31
0.0
  0
LINE
  5
71
  8
0
 62
     7
 10
56.28820000000001
 20
86.236099999999993
 30
0.0
 11
56.28820000000001
 21
87.024000000000001
 31
0.0
  0
ARC
  5
72
  8
0
 62
     7
 10
55.512514000000003
 20
86.452438999999998
 30
0.0
 40
0.303384
 50
318.11520200000001
 51
359.74405200000001
  0
ARC
  5
73
  8
0
 62
     7
 10
55.964406999999987
 20
86.452241000000001
 30
0.0
 40
0.303372
 50
180.21859599999999
 51
221.836737
  0
ARC
  5
74
  8
0
 62
     7
 10
54.498249000000001
 20
86.452441000000007
 30
0.0
 40
0.30289
 50
318.03065800000002
 51
359.74319199999991
  0
LINE
  5
75
  8
0
 62
     7
 10
54.723399999999991
 20
85.546400000000006
 30
0.0
 11
56.275300000000001
 21
85.546400000000006
 31
0.0
  0
LINE
  5
76
  8
0
 62
     7
 10
55.337899999999991
 20
85.546400000000006
 30
0.0
 11
54.723399999999991
 21
85.546400000000006
 31
0.0
  0
LINE
  5
77
  8
0
 62
     7
 10
56.28820000000001
 20
86.249899999999997
 30
0.0
 11
54.723399999999991
 21
86.249899999999997
 31
0.0
  0
LINE
  5
78
  8
0
 62
     7
 10
55.751600000000003
 20
85.546400000000006
 30
0.0
 11
55.337899999999991
 21
85.546400000000006
 31
0.0
  0
LINE
  5
79
  8
0
 62
     7
 10
56.28820000000001
 20
87.010599999999997
 30
0.0
 11
54.723399999999991
 21
87.010599999999997
 31
0.0
  0
LINE
  5
7A
  8
0
 62
     7
 10
55.661000000000001
 20
86.451099999999997
 30
0.0
 11
55.661000000000001
 21
86.809399999999997
 31
0.0
  0
ARC
  5
7B
  8
0
 62
     7
 10
55.513663000000001
 20
86.808463000000003
 30
0.0
 40
0.302233
 50
0.172964
 51
41.967782999999997
  0
LINE
  5
7C
  8
0
 62
     7
 10
55.815899999999999
 20
86.451099999999997
 30
0.0
 11
55.815899999999999
 21
86.809399999999997
 31
0.0
  0
ARC
  5
7D
  8
0
 62
     7
 10
55.964872
 20
86.808040000000005
 30
0.0
 40
0.303838
 50
138.196654
 51
179.7480129999999
  0
LINE
  5
7E
  8
0
 62
     7
 10
54.801099999999991
 20
86.451099999999997
 30
0.0
 11
54.801099999999991
 21
86.809399999999997
 31
0.0
  0
ARC
  5
7F
  8
0
 62
     7
 10
54.499133999999991
 20
86.808359999999993
 30
0.0
 40
0.302003
 50
0.192692
 51
42.033458000000003
  0
ARC
  5
80
  8
0
 62
     7
 10
54.949270999999989
 20
86.808036999999999
 30
0.0
 40
0.303341
 50
138.112053
 51
179.747162
  0
LINE
  5
81
  8
0
 62
     7
 10
54.645899999999997
 20
86.451099999999997
 30
0.0
 11
54.645899999999997
 21
86.809399999999997
 31
0.0
  0
ARC
  5
82
  8
0
 62
     7
 10
53.483971999999987
 20
86.808463000000003
 30
0.0
 40
0.302233
 50
0.172964
 51
41.967782999999997
  0
LINE
  5
83
  8
0
 62
     7
 10
53.631
 20
86.451099999999997
 30
0.0
 11
53.631
 21
86.809399999999997
 31
0.0
  0
ARC
  5
84
  8
0
 62
     7
 10
53.933844999999991
 20
86.808035000000004
 30
0.0
 40
0.302846
 50
138.02750599999999
 51
179.74630400000001
  0
LINE
  5
85
  8
0
 62
     7
 10
53.786200000000001
 20
86.451099999999997
 30
0.0
 11
53.786200000000001
 21
86.809399999999997
 31
0.0
  0
LINE
  5
86
  8
0
 62
     7
 10
53.158999999999999
 20
87.010599999999997
 30
0.0
 11
54.723399999999991
 21
87.010599999999997
 31
0.0
  0
LINE
  5
87
  8
0
 62
     7
 10
53.695399999999999
 20
85.546400000000006
 30
0.0
 11
54.108999999999988
 21
85.546400000000006
 31
0.0
  0
LINE
  5
88
  8
0
 62
     7
 10
53.158999999999999
 20
86.249899999999997
 30
0.0
 11
54.723399999999991
 21
86.249899999999997
 31
0.0
  0
LINE
  5
89
  8
0
 62
     7
 10
54.108999999999988
 20
85.546400000000006
 30
0.0
 11
54.723399999999991
 21
85.546400000000006
 31
0.0
  0
LINE
  5
8A
  8
0
 62
     7
 10
54.723399999999991
 20
85.546400000000006
 30
0.0
 11
53.171900000000001
 21
85.546400000000006
 31
0.0
  0
ARC
  5
8B
  8
0
 62
     7
 10
54.948165000000003
 20
86.451995999999994
 30
0.0
 40
0.302233
 50
180.17296399999989
 51
221.96782200000001
  0
ARC
  5
8C
  8
0
 62
     7
 10
53.482823000000003
 20
86.452438999999998
 30
0.0
 40
0.303384
 50
318.11520200000001
 51
359.74405200000001
  0
ARC
  5
8D
  8
0
 62
     7
 10
53.933900999999999
 20
86.452445999999995
 30
0.0
 40
0.302902
 50
180.257712
 51
221.96847799999989
  0
LINE
  5
8E
  8
0
 62
     7
 10
53.158999999999999
 20
86.236099999999993
 30
0.0
 11
53.158999999999999
 21
87.024000000000001
 31
0.0
  0
LINE
  5
8F
  8
0
 62
     7
 10
55.363700000000001
 20
85.416899999999998
 30
0.0
 11
55.622300000000003
 21
85.158500000000004
 31
0.0
  0
LINE
  5
90
  8
0
 62
     7
 10
55.622300000000003
 20
82.313500000000005
 30
0.0
 11
55.363700000000001
 21
82.054799999999986
 31
0.0
  0
LINE
  5
91
  8
0
 62
     7
 10
53.82480000000001
 20
82.313500000000005
 30
0.0
 11
53.82480000000001
 21
85.158500000000004
 31
0.0
  0
LINE
  5
92
  8
0
 62
     7
 10
53.82480000000001
 20
82.313500000000005
 30
0.0
 11
54.083500000000001
 21
82.054799999999986
 31
0.0
  0
LINE
  5
93
  8
0
 62
     7
 10
54.083500000000001
 20
85.416899999999998
 30
0.0
 11
53.82480000000001
 21
85.158500000000004
 31
0.0
  0
LINE
  5
94
  8
0
 62
     7
 10
56.275300000000001
 20
85.546400000000006
 30
0.0
 11
56.275300000000001
 21
85.416899999999998
 31
0.0
  0
LINE
  5
95
  8
0
 62
     7
 10
53.171900000000001
 20
85.546400000000006
 30
0.0
 11
53.171900000000001
 21
85.416899999999998
 31
0.0
  0
LINE
  5
96
  8
0
 62
     7
 10
52.337899999999991
 20
85.158500000000004
 30
0.0
 11
52.337899999999991
 21
82.313500000000005
 31
0.0
  0
LINE
  5
97
  8
0
 62
     7
 10
52.337899999999991
 20
82.313500000000005
 30
0.0
 11
52.596600000000002
 21
82.054799999999986
 31
0.0
  0
LINE
  5
98
  8
0
 62
     7
 10
53.566200000000002
 20
82.054799999999986
 30
0.0
 11
52.596600000000002
 21
82.054799999999986
 31
0.0
  0
LINE
  5
99
  8
0
 62
     7
 10
52.596600000000002
 20
85.416899999999998
 30
0.0
 11
52.337899999999991
 21
85.158500000000004
 31
0.0
  0
LINE
  5
9A
  8
0
 62
     7
 10
53.82480000000001
 20
82.313500000000005
 30
0.0
 11
53.566200000000002
 21
82.054799999999986
 31
0.0
  0
LINE
  5
9B
  8
0
 62
     7
 10
54.083500000000001
 20
82.054799999999986
 30
0.0
 11
53.566200000000002
 21
82.054799999999986
 31
0.0
  0
LINE
  5
9C
  8
0
 62
     7
 10
53.566200000000002
 20
85.416899999999998
 30
0.0
 11
53.82480000000001
 21
85.158500000000004
 31
0.0
  0
ARC
  5
9D
  8
0
 62
     7
 10
53.554906999999993
 20
85.898546999999994
 30
0.0
 40
0.5202640000000001
 50
139.54666099999989
 51
222.59953299999989
  0
ARC
  5
9E
  8
0
 62
     7
 10
55.893822999999998
 20
87.362144999999998
 30
0.0
 40
0.5195070000000001
 50
319.391775
 51
40.60822499999999
  0
ARC
  5
9F
  8
0
 62
     7
 10
53.553418000000008
 20
87.362144999999998
 30
0.0
 40
0.5195070000000001
 50
139.39173799999989
 51
220.608262
  0
LINE
  5
A0
  8
0
 62
     7
 10
56.8508
 20
85.416899999999998
 30
0.0
 11
57.109400000000001
 21
85.158500000000004
 31
0.0
  0
LINE
  5
A1
  8
0
 62
     7
 10
57.109400000000001
 20
82.313500000000005
 30
0.0
 11
56.8508
 21
82.054799999999986
 31
0.0
  0
LINE
  5
A2
  8
0
 62
     7
 10
55.881
 20
85.416899999999998
 30
0.0
 11
55.622300000000003
 21
85.158500000000004
 31
0.0
  0
LINE
  5
A3
  8
0
 62
     7
 10
56.8508
 20
82.054799999999986
 30
0.0
 11
55.881
 21
82.054799999999986
 31
0.0
  0
LINE
  5
A4
  8
0
 62
     7
 10
55.622300000000003
 20
82.313500000000005
 30
0.0
 11
55.881
 21
82.054799999999986
 31
0.0
  0
LINE
  5
A5
  8
0
 62
     7
 10
55.622300000000003
 20
85.158500000000004
 30
0.0
 11
55.622300000000003
 21
82.313500000000005
 31
0.0
  0
LINE
  5
A6
  8
0
 62
     7
 10
57.109400000000001
 20
82.313500000000005
 30
0.0
 11
57.109400000000001
 21
85.158500000000004
 31
0.0
  0
LINE
  5
A7
  8
0
 62
     7
 10
56.146299999999997
 20
89.2744
 30
0.0
 11
56.146299999999997
 21
120.4039999999999
 31
0.0
  0
LINE
  5
A8
  8
0
 62
     7
 10
53.301299999999998
 20
89.2744
 30
0.0
 11
53.301299999999998
 21
120.4039999999999
 31
0.0
  0
LINE
  5
A9
  8
0
  6
AIGENLINE001
 62
     7
 10
54.723599999999998
 20
80.420100000000005
 30
0.0
 11
54.723599999999998
 21
120.4039999999999
 31
0.0
  0
ARC
  5
AA
  8
0
  6
AIGENLINE001
 62
     7
 10
74.959327000000002
 20
120.368922
 30
0.0
 40
4.764435999999999
 50
0.4270890000000001
 51
51.459949999999992
  0
ARC
  5
AB
  8
0
  6
AIGENLINE001
 62
     7
 10
73.875795999999994
 20
133.32743300000001
 30
0.0
 40
4.7641200000000001
 50
180.42698499999989
 51
231.45120999999989
  0
LINE
  5
AC
  8
0
  6
AIGENLINE001
 62
     7
 10
70.906899999999993
 20
129.602
 30
0.0
 11
77.927899999999994
 21
124.096
 31
0.0
  0
LINE
  5
AD
  8
0
 62
     7
 10
70.534300000000002
 20
133.292
 30
0.0
 11
70.534300000000002
 21
161.77299999999991
 31
0.0
  0
LINE
  5
AE
  8
0
 62
     7
 10
67.689499999999995
 20
133.292
 30
0.0
 11
67.689499999999995
 21
161.77299999999991
 31
0.0
  0
LINE
  5
AF
  8
0
  6
AIGENLINE001
 62
     7
 10
69.111800000000002
 20
133.292
 30
0.0
 11
69.111800000000002
 21
165.80199999999999
 31
0.0
  0
LINE
  5
B0
  8
0
 62
     7
 10
93.789199999999994
 20
179.05799999999999
 30
0.0
 11
106.0089999999999
 21
179.05799999999999
 31
0.0
  0
LINE
  5
B1
  8
0
 62
     7
 10
93.896699999999996
 20
165.02000000000001
 30
0.0
 11
94.489199999999997
 21
162.80799999999991
 31
0.0
  0
LINE
  5
B2
  8
0
 62
     7
 10
94.489199999999997
 20
162.80799999999991
 30
0.0
 11
95.081800000000015
 21
165.02000000000001
 31
0.0
  0
LINE
  5
B3
  8
0
 62
     7
 10
95.081800000000015
 20
165.02000000000001
 30
0.0
 11
93.896699999999996
 21
165.02000000000001
 31
0.0
  0
LINE
  5
B4
  8
0
 62
     7
 10
95.081800000000015
 20
176.84599999999989
 30
0.0
 11
94.489199999999997
 21
179.05799999999999
 31
0.0
  0
LINE
  5
B5
  8
0
 62
     7
 10
94.489199999999997
 20
179.05799999999999
 30
0.0
 11
93.896699999999996
 21
176.84599999999989
 31
0.0
  0
LINE
  5
B6
  8
0
 62
     7
 10
93.896699999999996
 20
176.84599999999989
 30
0.0
 11
95.081800000000015
 21
176.84599999999989
 31
0.0
  0
LINE
  5
B7
  8
0
 62
     7
 10
94.489199999999997
 20
179.05799999999999
 30
0.0
 11
94.489199999999997
 21
162.80799999999991
 31
0.0
  0
LINE
  5
B8
  8
0
 62
     7
 10
111.19
 20
177.92799999999991
 30
0.0
 11
117.35299999999989
 21
177.92799999999991
 31
0.0
  0
LINE
  5
B9
  8
0
 62
     7
 10
136.38499999999999
 20
166.40700000000001
 30
0.0
 11
107.2589999999999
 21
166.40700000000001
 31
0.0
  0
ARC
  5
BA
  8
0
 62
     7
 10
66.657747000000001
 20
265.42365199999989
 30
0.0
 40
0.08109
 50
92.239394000000004
 51
177.76057599999999
  0
ARC
  5
BB
  8
0
 62
     7
 10
67.789275000000004
 20
265.42396799999989
 30
0.0
 40
0.080791
 50
2.0235199999999991
 51
87.467177000000007
  0
LINE
  5
BC
  8
0
 62
     7
 10
66.654600000000002
 20
265.505
 30
0.0
 11
67.792799999999986
 21
265.505
 31
0.0
  0
LINE
  5
BD
  8
0
 62
     7
 10
67.870000000000005
 20
261.28699999999998
 30
0.0
 11
67.870000000000005
 21
265.42700000000002
 31
0.0
  0
LINE
  5
BE
  8
0
 62
     7
 10
66.576700000000002
 20
261.28699999999998
 30
0.0
 11
66.576700000000002
 21
265.42700000000002
 31
0.0
  0
ARC
  5
BF
  8
0
 62
     7
 10
130.97976099999991
 20
164.09310199999999
 30
0.0
 40
0.266269
 50
91.227611999999993
 51
164.71795
  0
LINE
  5
C0
  8
0
 62
     7
 10
130.51300000000001
 20
162.80799999999991
 30
0.0
 11
130.51300000000001
 21
161.77299999999991
 31
0.0
  0
LINE
  5
C1
  8
0
 62
     7
 10
130.7229999999999
 20
164.1629999999999
 30
0.0
 11
130.38499999999991
 21
162.80799999999991
 31
0.0
  0
LINE
  5
C2
  8
0
 62
     7
 10
142.04599999999999
 20
164.1629999999999
 30
0.0
 11
142.38499999999991
 21
162.80799999999991
 31
0.0
  0
LINE
  5
C3
  8
0
 62
     7
 10
142.255
 20
162.80799999999991
 30
0.0
 11
142.255
 21
161.77299999999991
 31
0.0
  0
LINE
  5
C4
  8
0
 62
     7
 10
141.7949999999999
 20
164.35900000000001
 30
0.0
 11
130.9739999999999
 21
164.35900000000001
 31
0.0
  0
ARC
  5
C5
  8
0
 62
     7
 10
141.788668
 20
164.09297399999991
 30
0.0
 40
0.266407
 50
15.302524
 51
88.675567000000015
  0
LINE
  5
C6
  8
0
 62
     7
 10
142.38499999999991
 20
162.80799999999991
 30
0.0
 11
130.38499999999991
 21
162.80799999999991
 31
0.0
  0
LINE
  5
C7
  8
0
 62
     7
 10
130.51300000000001
 20
161.77299999999991
 30
0.0
 11
142.255
 21
161.77299999999991
 31
0.0
  0
LINE
  5
C8
  8
0
 62
     7
 10
124.197
 20
82.054799999999986
 30
0.0
 11
115.9529999999999
 21
82.054799999999986
 31
0.0
  0
LINE
  5
C9
  8
0
 62
     7
 10
129.3479999999999
 20
162.80799999999991
 30
0.0
 11
93.789199999999994
 21
162.80799999999991
 31
0.0
  0
LINE
  5
CA
  8
0
 62
     7
 10
165.40000000000001
 20
162.80799999999991
 30
0.0
 11
143.42099999999999
 21
162.80799999999991
 31
0.0
  0
LINE
  5
CB
  8
0
 62
     7
 10
156.23500000000001
 20
77.807299999999998
 30
0.0
 11
141.25999999999991
 21
77.807299999999998
 31
0.0
  0
LINE
  5
CC
  8
0
 62
     7
 10
156.23500000000001
 20
204.30799999999991
 30
0.0
 11
143.24600000000001
 21
204.30799999999991
 31
0.0
  0
LINE
  5
CD
  8
0
 62
     7
 10
165.40000000000001
 20
209.96899999999999
 30
0.0
 11
123.0509999999999
 21
209.96899999999999
 31
0.0
  0
ARC
  5
CE
  8
0
 62
     7
 10
136.38435399999989
 20
255.50376399999999
 30
0.0
 40
4.3748690000000003
 50
270.00340399999988
 51
0.003374
  0
ARC
  5
CF
  8
0
 62
     7
 10
136.38452599999991
 20
255.50410699999989
 30
0.0
 40
4.3752120000000003
 50
180.00113799999991
 51
270.001148
  0
ARC
  5
D0
  8
0
 62
     7
 10
136.38444199999989
 20
255.50384799999989
 30
0.0
 40
4.3751269999999991
 50
89.997743999999983
 51
179.997714
  0
ARC
  5
D1
  8
0
 62
     7
 10
136.3844399999999
 20
255.50419299999999
 30
0.0
 40
4.374782999999999
 50
359.99775399999987
 51
89.997724000000005
  0
LINE
  5
D2
  8
0
 62
     7
 10
143.16999999999999
 20
262.29000000000002
 30
0.0
 11
149.07599999999991
 21
262.29000000000002
 31
0.0
  0
LINE
  5
D3
  8
0
 62
     7
 10
132.14599999999999
 20
250.428
 30
0.0
 11
133.291
 21
252.41
 31
0.0
  0
LINE
  5
D4
  8
0
 62
     7
 10
133.291
 20
252.41
 30
0.0
 11
131.30799999999999
 21
251.26599999999991
 31
0.0
  0
LINE
  5
D5
  8
0
 62
     7
 10
131.30799999999999
 20
251.26599999999991
 30
0.0
 11
132.14599999999999
 21
250.428
 31
0.0
  0
LINE
  5
D6
  8
0
 62
     7
 10
140.62299999999991
 20
260.57999999999993
 30
0.0
 11
139.47799999999989
 21
258.59800000000001
 31
0.0
  0
LINE
  5
D7
  8
0
 62
     7
 10
139.47799999999989
 20
258.59800000000001
 30
0.0
 11
141.46100000000001
 21
259.74200000000002
 31
0.0
  0
LINE
  5
D8
  8
0
 62
     7
 10
141.46100000000001
 20
259.74200000000002
 30
0.0
 11
140.62299999999991
 21
260.57999999999993
 31
0.0
  0
LINE
  5
D9
  8
0
 62
     7
 10
143.16999999999999
 20
262.29000000000002
 30
0.0
 11
130.041
 21
249.16099999999989
 31
0.0
  0
ARC
  5
DA
  8
0
  6
AIGENLINE002
 62
     7
 10
121.748233
 20
209.751868
 30
0.0
 40
0.214945
 50
67.135992000000002
 51
152.933931
  0
ARC
  5
DB
  8
0
 62
     7
 10
107.3022379999999
 20
179.17307
 30
0.0
 40
12.766399
 50
229.14728099999999
 51
269.80706499999991
  0
ARC
  5
DC
  8
0
 62
     7
 10
67.009024999999994
 20
255.31073199999989
 30
0.0
 40
6.5534530000000002
 50
1.690143999999999
 51
82.450665000000001
  0
ARC
  5
DD
  8
0
 62
     7
 10
67.112808000000001
 20
255.56106800000001
 30
0.0
 40
6.4470710000000002
 50
305.3679029999999
 51
359.49301700000001
  0
ARC
  5
DE
  8
0
 62
     7
 10
67.345939000000001
 20
255.56714299999999
 30
0.0
 40
6.4586230000000002
 50
180.5599959999999
 51
234.58353199999991
  0
ARC
  5
DF
  8
0
 62
     7
 10
67.445414999999997
 20
255.3042549999999
 30
0.0
 40
6.5608320000000004
 50
97.616247000000001
 51
178.25515300000001
  0
ARC
  5
E0
  8
0
 62
     7
 10
66.877359999999996
 20
226.86558500000001
 30
0.0
 40
3.9674960000000001
 50
294.29884499999997
 51
359.09253899999987
  0
ARC
  5
E1
  8
0
 62
     7
 10
67.212289999999996
 20
226.35272399999999
 30
0.0
 40
3.3635660000000001
 50
270.191643
 51
292.6936859999999
  0
ARC
  5
E2
  8
0
 62
     7
 10
67.233317
 20
226.37670199999991
 30
0.0
 40
3.387538999999999
 50
232.33116799999999
 51
269.834632
  0
ARC
  5
E3
  8
0
 62
     7
 10
67.584886999999995
 20
226.85670400000001
 30
0.0
 40
3.9823579999999992
 50
180.77630300000001
 51
232.54756800000001
  0
ARC
  5
E4
  8
0
 62
     7
 10
67.223710999999994
 20
255.50402199999999
 30
0.0
 40
5.8188040000000001
 50
270.00002000000001
 51
359.99998999999991
  0
ARC
  5
E5
  8
0
 62
     7
 10
67.223710999999994
 20
255.50402
 30
0.0
 40
5.8188019999999989
 50
179.99996999999991
 51
270.00002000000001
  0
ARC
  5
E6
  8
0
 62
     7
 10
67.223713000000004
 20
255.50402
 30
0.0
 40
5.8188040000000001
 50
90.0
 51
179.99996999999991
  0
ARC
  5
E7
  8
0
 62
     7
 10
67.223710999999994
 20
255.50402
 30
0.0
 40
5.8188040000000001
 50
0.00001
 51
89.999980000000008
  0
LINE
  5
E8
  8
0
  6
AIGENLINE001
 62
     7
 10
134.833
 20
122.465
 30
0.0
 11
127.92700000000001
 21
133.01300000000001
 31
0.0
  0
LINE
  5
E9
  8
0
 62
     7
 10
144.17400000000001
 20
180.33199999999999
 30
0.0
 11
146.38499999999991
 21
180.92400000000001
 31
0.0
  0
LINE
  5
EA
  8
0
 62
     7
 10
146.38499999999991
 20
180.92400000000001
 30
0.0
 11
144.17400000000001
 21
181.51699999999991
 31
0.0
  0
LINE
  5
EB
  8
0
 62
     7
 10
144.17400000000001
 20
181.51699999999991
 30
0.0
 11
144.17400000000001
 21
180.33199999999999
 31
0.0
  0
LINE
  5
EC
  8
0
 62
     7
 10
143.846
 20
181.51699999999991
 30
0.0
 11
141.63499999999991
 21
180.92400000000001
 31
0.0
  0
LINE
  5
ED
  8
0
 62
     7
 10
141.63499999999991
 20
180.92400000000001
 30
0.0
 11
143.846
 21
180.33199999999999
 31
0.0
  0
LINE
  5
EE
  8
0
 62
     7
 10
143.846
 20
180.33199999999999
 30
0.0
 11
143.846
 21
181.51699999999991
 31
0.0
  0
LINE
  5
EF
  8
0
 62
     7
 10
146.38499999999991
 20
180.92400000000001
 30
0.0
 11
141.63499999999991
 21
180.92400000000001
 31
0.0
  0
LINE
  5
F0
  8
0
 62
     7
 10
125.0479999999999
 20
160.596
 30
0.0
 11
124.456
 21
162.80799999999991
 31
0.0
  0
LINE
  5
F1
  8
0
 62
     7
 10
124.456
 20
162.80799999999991
 30
0.0
 11
123.863
 21
160.596
 31
0.0
  0
LINE
  5
F2
  8
0
 62
     7
 10
123.863
 20
160.596
 30
0.0
 11
125.0479999999999
 21
160.596
 31
0.0
  0
LINE
  5
F3
  8
0
 62
     7
 10
123.8779999999999
 20
158.81200000000001
 30
0.0
 11
124.4699999999999
 21
156.601
 31
0.0
  0
LINE
  5
F4
  8
0
 62
     7
 10
124.4699999999999
 20
156.601
 30
0.0
 11
125.0629999999999
 21
158.81200000000001
 31
0.0
  0
LINE
  5
F5
  8
0
 62
     7
 10
125.0629999999999
 20
158.81200000000001
 30
0.0
 11
123.8779999999999
 21
158.81200000000001
 31
0.0
  0
LINE
  5
F6
  8
0
 62
     7
 10
124.456
 20
162.80799999999991
 30
0.0
 11
124.456
 21
148.048
 31
0.0
  0
LINE
  5
F7
  8
0
 62
     7
 10
117.246
 20
160.596
 30
0.0
 11
116.65299999999991
 21
162.80799999999991
 31
0.0
  0
LINE
  5
F8
  8
0
 62
     7
 10
116.65299999999991
 20
162.80799999999991
 30
0.0
 11
116.06
 21
160.596
 31
0.0
  0
LINE
  5
F9
  8
0
 62
     7
 10
116.06
 20
160.596
 30
0.0
 11
117.246
 21
160.596
 31
0.0
  0
LINE
  5
FA
  8
0
 62
     7
 10
116.06
 20
165.02000000000001
 30
0.0
 11
116.65299999999991
 21
162.80799999999991
 31
0.0
  0
LINE
  5
FB
  8
0
 62
     7
 10
116.65299999999991
 20
162.80799999999991
 30
0.0
 11
117.246
 21
165.02000000000001
 31
0.0
  0
LINE
  5
FC
  8
0
 62
     7
 10
117.246
 20
165.02000000000001
 30
0.0
 11
116.06
 21
165.02000000000001
 31
0.0
  0
LINE
  5
FD
  8
0
 62
     7
 10
156.12700000000001
 20
160.596
 30
0.0
 11
155.53499999999991
 21
162.80799999999991
 31
0.0
  0
LINE
  5
FE
  8
0
 62
     7
 10
155.53499999999991
 20
162.80799999999991
 30
0.0
 11
154.94200000000001
 21
160.596
 31
0.0
  0
LINE
  5
FF
  8
0
 62
     7
 10
154.94200000000001
 20
160.596
 30
0.0
 11
156.12700000000001
 21
160.596
 31
0.0
  0
LINE
  5
100
  8
0
 62
     7
 10
154.95699999999991
 20
80.018699999999995
 30
0.0
 11
155.54899999999989
 21
77.807299999999998
 31
0.0
  0
LINE
  5
101
  8
0
 62
     7
 10
155.54899999999989
 20
77.807299999999998
 30
0.0
 11
156.142
 21
80.018699999999995
 31
0.0
  0
LINE
  5
102
  8
0
 62
     7
 10
156.142
 20
80.018699999999995
 30
0.0
 11
154.95699999999991
 21
80.018699999999995
 31
0.0
  0
LINE
  5
103
  8
0
 62
     7
 10
155.53499999999991
 20
162.80799999999991
 30
0.0
 11
155.53499999999991
 21
77.807299999999998
 31
0.0
  0
LINE
  5
104
  8
0
 62
     7
 10
117.246
 20
175.71599999999989
 30
0.0
 11
116.65299999999991
 21
177.92799999999991
 31
0.0
  0
LINE
  5
105
  8
0
 62
     7
 10
116.65299999999991
 20
177.92799999999991
 30
0.0
 11
116.06
 21
175.71599999999989
 31
0.0
  0
LINE
  5
106
  8
0
 62
     7
 10
116.06
 20
175.71599999999989
 30
0.0
 11
117.246
 21
175.71599999999989
 31
0.0
  0
LINE
  5
107
  8
0
 62
     7
 10
116.0749999999999
 20
84.266199999999984
 30
0.0
 11
116.66799999999991
 21
82.054799999999986
 31
0.0
  0
LINE
  5
108
  8
0
 62
     7
 10
116.66799999999991
 20
82.054799999999986
 30
0.0
 11
117.26000000000001
 21
84.266199999999984
 31
0.0
  0
LINE
  5
109
  8
0
 62
     7
 10
117.26000000000001
 20
84.266199999999984
 30
0.0
 11
116.0749999999999
 21
84.266199999999984
 31
0.0
  0
LINE
  5
10A
  8
0
 62
     7
 10
116.65299999999991
 20
177.92799999999991
 30
0.0
 11
116.65299999999991
 21
82.054799999999986
 31
0.0
  0
LINE
  5
10B
  8
0
 62
     7
 10
165.29300000000001
 20
207.7579999999999
 30
0.0
 11
164.69999999999999
 21
209.96899999999999
 31
0.0
  0
LINE
  5
10C
  8
0
 62
     7
 10
164.69999999999999
 20
209.96899999999999
 30
0.0
 11
164.107
 21
207.7579999999999
 31
0.0
  0
LINE
  5
10D
  8
0
 62
     7
 10
164.107
 20
207.7579999999999
 30
0.0
 11
165.29300000000001
 21
207.7579999999999
 31
0.0
  0
LINE
  5
10E
  8
0
 62
     7
 10
164.12200000000001
 20
165.02000000000001
 30
0.0
 11
164.715
 21
162.80799999999991
 31
0.0
  0
LINE
  5
10F
  8
0
 62
     7
 10
164.715
 20
162.80799999999991
 30
0.0
 11
165.30699999999999
 21
165.02000000000001
 31
0.0
  0
LINE
  5
110
  8
0
 62
     7
 10
165.30699999999999
 20
165.02000000000001
 30
0.0
 11
164.12200000000001
 21
165.02000000000001
 31
0.0
  0
LINE
  5
111
  8
0
 62
     7
 10
164.69999999999999
 20
209.96899999999999
 30
0.0
 11
164.69999999999999
 21
162.80799999999991
 31
0.0
  0
LINE
  5
112
  8
0
 62
     7
 10
156.12700000000001
 20
202.09700000000001
 30
0.0
 11
155.53499999999991
 21
204.30799999999991
 31
0.0
  0
LINE
  5
113
  8
0
 62
     7
 10
155.53499999999991
 20
204.30799999999991
 30
0.0
 11
154.94200000000001
 21
202.09700000000001
 31
0.0
  0
LINE
  5
114
  8
0
 62
     7
 10
154.94200000000001
 20
202.09700000000001
 30
0.0
 11
156.12700000000001
 21
202.09700000000001
 31
0.0
  0
LINE
  5
115
  8
0
 62
     7
 10
154.95699999999991
 20
165.02000000000001
 30
0.0
 11
155.54899999999989
 21
162.80799999999991
 31
0.0
  0
LINE
  5
116
  8
0
 62
     7
 10
155.54899999999989
 20
162.80799999999991
 30
0.0
 11
156.142
 21
165.02000000000001
 31
0.0
  0
LINE
  5
117
  8
0
 62
     7
 10
156.142
 20
165.02000000000001
 30
0.0
 11
154.95699999999991
 21
165.02000000000001
 31
0.0
  0
LINE
  5
118
  8
0
 62
     7
 10
155.53499999999991
 20
204.30799999999991
 30
0.0
 11
155.53499999999991
 21
162.80799999999991
 31
0.0
  0
LINE
  5
119
  8
0
 62
     7
 10
136.911
 20
107.176
 30
0.0
 11
139.12200000000001
 21
107.7679999999999
 31
0.0
  0
LINE
  5
11A
  8
0
 62
     7
 10
139.12200000000001
 20
107.7679999999999
 30
0.0
 11
136.911
 21
108.3609999999999
 31
0.0
  0
LINE
  5
11B
  8
0
 62
     7
 10
136.911
 20
108.3609999999999
 30
0.0
 11
136.911
 21
107.176
 31
0.0
  0
LINE
  5
11C
  8
0
 62
     7
 10
142.58299999999991
 20
108.3609999999999
 30
0.0
 11
140.37200000000001
 21
107.7679999999999
 31
0.0
  0
LINE
  5
11D
  8
0
 62
     7
 10
140.37200000000001
 20
107.7679999999999
 30
0.0
 11
142.58299999999991
 21
107.176
 31
0.0
  0
LINE
  5
11E
  8
0
 62
     7
 10
142.58299999999991
 20
107.176
 30
0.0
 11
142.58299999999991
 21
108.3609999999999
 31
0.0
  0
LINE
  5
11F
  8
0
 62
     7
 10
146.0979999999999
 20
107.7679999999999
 30
0.0
 11
135.541
 21
107.7679999999999
 31
0.0
  0
LINE
  5
120
  8
0
 62
     7
 10
99.669300000000007
 20
168.04899999999989
 30
0.0
 11
101.91200000000001
 21
167.59200000000001
 31
0.0
  0
LINE
  5
121
  8
0
 62
     7
 10
101.91200000000001
 20
167.59200000000001
 30
0.0
 11
100.19799999999989
 21
169.10900000000001
 31
0.0
  0
LINE
  5
122
  8
0
 62
     7
 10
100.19799999999989
 20
169.10900000000001
 30
0.0
 11
99.669300000000007
 21
168.04899999999989
 31
0.0
  0
LINE
  5
123
  8
0
 62
     7
 10
134.173
 20
165.82900000000001
 30
0.0
 11
136.38499999999999
 21
166.42099999999991
 31
0.0
  0
LINE
  5
124
  8
0
 62
     7
 10
136.38499999999999
 20
166.42099999999991
 30
0.0
 11
134.173
 21
167.01400000000001
 31
0.0
  0
LINE
  5
125
  8
0
 62
     7
 10
134.173
 20
167.01400000000001
 30
0.0
 11
134.173
 21
165.82900000000001
 31
0.0
  0
LINE
  5
126
  8
0
 62
     7
 10
109.471
 20
166.999
 30
0.0
 11
107.2589999999999
 21
166.40700000000001
 31
0.0
  0
LINE
  5
127
  8
0
 62
     7
 10
107.2589999999999
 20
166.40700000000001
 30
0.0
 11
109.471
 21
165.81399999999999
 31
0.0
  0
LINE
  5
128
  8
0
 62
     7
 10
109.471
 20
165.81399999999999
 30
0.0
 11
109.471
 21
166.999
 31
0.0
  0
LINE
  5
129
  8
0
 62
     7
 10
139.42400000000001
 20
168.50399999999999
 30
0.0
 11
141.63499999999991
 21
169.09700000000001
 31
0.0
  0
LINE
  5
12A
  8
0
 62
     7
 10
141.63499999999991
 20
169.09700000000001
 30
0.0
 11
139.42400000000001
 21
169.69
 31
0.0
  0
LINE
  5
12B
  8
0
 62
     7
 10
139.42400000000001
 20
169.69
 30
0.0
 11
139.42400000000001
 21
168.50399999999999
 31
0.0
  0
LINE
  5
12C
  8
0
 62
     7
 10
133.346
 20
169.67500000000001
 30
0.0
 11
131.1339999999999
 21
169.083
 31
0.0
  0
LINE
  5
12D
  8
0
 62
     7
 10
131.1339999999999
 20
169.083
 30
0.0
 11
133.346
 21
168.49000000000001
 31
0.0
  0
LINE
  5
12E
  8
0
 62
     7
 10
133.346
 20
168.49000000000001
 30
0.0
 11
133.346
 21
169.67500000000001
 31
0.0
  0
LINE
  5
12F
  8
0
 62
     7
 10
146.89099999999991
 20
169.083
 30
0.0
 11
131.1339999999999
 21
169.083
 31
0.0
  0
LINE
  5
130
  8
0
 62
     7
 10
132.245
 20
156.601
 30
0.0
 11
123.7559999999999
 21
156.601
 31
0.0
  0
LINE
  5
131
  8
0
  6
AIGENLINE002
 62
     7
 10
121.83199999999999
 20
209.9499999999999
 30
0.0
 11
133.83500000000001
 21
204.35299999999989
 31
0.0
  0
ARC
  5
132
  8
0
 62
     7
 10
71.612734000000003
 20
255.5114779999999
 30
0.0
 40
0.201734
 50
272.16931499999993
 51
357.88155599999988
  0
ARC
  5
133
  8
0
 62
     7
 10
71.628226999999995
 20
255.51169899999999
 30
0.0
 40
0.201963
 50
182.1785679999999
 51
267.7706
  0
ARC
  5
134
  8
0
 62
     7
 10
71.627831999999984
 20
255.49655999999999
 30
0.0
 40
0.20156
 50
92.121544000000014
 51
177.87842599999991
  0
ARC
  5
135
  8
0
 62
     7
 10
71.612526000000003
 20
255.4961769999999
 30
0.0
 40
0.201957
 50
2.2260270000000002
 51
87.773962999999995
  0
ARC
  5
136
  8
0
 62
     7
 10
62.819417000000001
 20
255.5114779999999
 30
0.0
 40
0.201734
 50
272.16931499999993
 51
357.88155599999988
  0
ARC
  5
137
  8
0
 62
     7
 10
62.834910000000001
 20
255.51169899999999
 30
0.0
 40
0.201963
 50
182.1785679999999
 51
267.7706
  0
ARC
  5
138
  8
0
 62
     7
 10
62.834515000000003
 20
255.49655999999999
 30
0.0
 40
0.20156
 50
92.121544000000014
 51
177.87842599999991
  0
ARC
  5
139
  8
0
 62
     7
 10
62.819208999999987
 20
255.4961769999999
 30
0.0
 40
0.201957
 50
2.2260270000000002
 51
87.773962999999995
  0
LINE
  5
13A
  8
0
 62
     7
 10
132.94499999999999
 20
156.601
 30
0.0
 11
132.94499999999999
 21
155.773
 31
0.0
  0
LINE
  5
13B
  8
0
 62
     7
 10
132.94499999999999
 20
156.601
 30
0.0
 11
133.41
 21
156.601
 31
0.0
  0
LINE
  5
13C
  8
0
 62
     7
 10
132.94499999999999
 20
155.773
 30
0.0
 11
133.41
 21
155.773
 31
0.0
  0
LINE
  5
13D
  8
0
 62
     7
 10
140.393
 20
156.601
 30
0.0
 11
141.94499999999991
 21
156.601
 31
0.0
  0
LINE
  5
13E
  8
0
 62
     7
 10
140.393
 20
155.773
 30
0.0
 11
141.94499999999991
 21
155.773
 31
0.0
  0
LINE
  5
13F
  8
0
 62
     7
 10
141.94499999999991
 20
156.601
 30
0.0
 11
141.94499999999991
 21
155.773
 31
0.0
  0
LINE
  5
140
  8
0
 62
     7
 10
133.41
 20
155.773
 30
0.0
 11
140.393
 21
155.773
 31
0.0
  0
LINE
  5
141
  8
0
 62
     7
 10
133.41
 20
156.601
 30
0.0
 11
140.393
 21
156.601
 31
0.0
  0
LINE
  5
142
  8
0
 62
     7
 10
60.439799999999998
 20
155.8249999999999
 30
0.0
 11
60.439799999999998
 21
156.601
 31
0.0
  0
LINE
  5
143
  8
0
 62
     7
 10
63.913299999999992
 20
156.601
 30
0.0
 11
63.672499999999999
 21
156.601
 31
0.0
  0
LINE
  5
144
  8
0
 62
     7
 10
63.913299999999992
 20
155.8249999999999
 30
0.0
 11
63.672499999999999
 21
155.8249999999999
 31
0.0
  0
LINE
  5
145
  8
0
 62
     7
 10
61.42369999999999
 20
156.601
 30
0.0
 11
61.42369999999999
 21
155.8249999999999
 31
0.0
  0
LINE
  5
146
  8
0
 62
     7
 10
62.379399999999997
 20
156.601
 30
0.0
 11
61.42369999999999
 21
156.601
 31
0.0
  0
LINE
  5
147
  8
0
 62
     7
 10
61.42369999999999
 20
155.8249999999999
 30
0.0
 11
62.379399999999997
 21
155.8249999999999
 31
0.0
  0
LINE
  5
148
  8
0
 62
     7
 10
61.344799999999992
 20
155.566
 30
0.0
 11
62.1113
 21
155.566
 31
0.0
  0
LINE
  5
149
  8
0
 62
     7
 10
63.672499999999999
 20
156.601
 30
0.0
 11
62.379399999999997
 21
156.601
 31
0.0
  0
LINE
  5
14A
  8
0
 62
     7
 10
62.930100000000003
 20
155.566
 30
0.0
 11
62.1113
 21
155.566
 31
0.0
  0
LINE
  5
14B
  8
0
 62
     7
 10
62.379399999999997
 20
155.8249999999999
 30
0.0
 11
63.672499999999999
 21
155.8249999999999
 31
0.0
  0
LINE
  5
14C
  8
0
 62
     7
 10
62.379399999999997
 20
155.8249999999999
 30
0.0
 11
62.379399999999997
 21
156.601
 31
0.0
  0
LINE
  5
14D
  8
0
 62
     7
 10
62.1113
 20
155.566
 30
0.0
 11
62.1113
 21
155.8249999999999
 31
0.0
  0
LINE
  5
14E
  8
0
 62
     7
 10
63.672499999999999
 20
155.8249999999999
 30
0.0
 11
63.672499999999999
 21
156.601
 31
0.0
  0
LINE
  5
14F
  8
0
 62
     7
 10
61.344799999999992
 20
155.566
 30
0.0
 11
61.344799999999992
 21
155.8249999999999
 31
0.0
  0
ARC
  5
150
  8
0
 62
     7
 10
81.708113999999995
 20
173.54646199999999
 30
0.0
 40
25.740117000000001
 50
223.51049299999991
 51
223.86576199999999
  0
ARC
  5
151
  8
0
 62
     7
 10
63.038968999999987
 20
155.792214
 30
0.0
 40
0.032527
 50
87.947116000000008
 51
101.9923439999999
  0
ARC
  5
152
  8
0
 62
     7
 10
63.038947999999998
 20
155.779437
 30
0.0
 40
0.045101
 50
98.591693999999976
 51
123.94640099999999
  0
ARC
  5
153
  8
0
 62
     7
 10
63.081853000000002
 20
155.71450999999999
 30
0.0
 40
0.122923
 50
123.637186
 51
141.39566199999999
  0
ARC
  5
154
  8
0
 62
     7
 10
63.468067000000012
 20
155.40311199999999
 30
0.0
 40
0.619036
 50
141.175782
 51
150.35426499999991
  0
ARC
  5
155
  8
0
 62
     7
 10
63.950956999999988
 20
151.0850989999999
 30
0.0
 40
4.7408089999999987
 50
91.281700999999998
 51
93.123474999999985
  0
ARC
  5
156
  8
0
 62
     7
 10
63.822818000000012
 20
154.06188499999999
 30
0.0
 40
1.761795
 50
94.237429999999989
 51
103.068512
  0
ARC
  5
157
  8
0
 62
     7
 10
64.581507999999999
 20
150.58412200000001
 30
0.0
 40
5.3212479999999998
 50
102.55879299999999
 51
105.6015639999999
  0
LINE
  5
158
  8
0
 62
     7
 10
63.396000000000001
 20
149.38499999999991
 30
0.0
 11
63.913299999999992
 21
149.38499999999991
 31
0.0
  0
LINE
  5
159
  8
0
 62
     7
 10
63.137300000000003
 20
149.83299999999991
 30
0.0
 11
63.913299999999992
 21
149.83299999999991
 31
0.0
  0
LINE
  5
15A
  8
0
 62
     7
 10
63.396000000000001
 20
149.38499999999991
 30
0.0
 11
63.137300000000003
 21
149.83299999999991
 31
0.0
  0
LINE
  5
15B
  8
0
 62
     7
 10
63.137300000000003
 20
150.65199999999999
 30
0.0
 11
63.137300000000003
 21
149.83299999999991
 31
0.0
  0
LINE
  5
15C
  8
0
 62
     7
 10
63.221299999999999
 20
149.6879999999999
 30
0.0
 11
63.221299999999999
 21
150.65199999999999
 31
0.0
  0
LINE
  5
15D
  8
0
 62
     7
 10
63.913299999999992
 20
150.65199999999999
 30
0.0
 11
63.040100000000002
 21
150.65199999999999
 31
0.0
  0
LINE
  5
15E
  8
0
 62
     7
 10
63.040100000000002
 20
150.65199999999999
 30
0.0
 11
63.048099999999991
 21
150.65299999999991
 31
0.0
  0
ARC
  5
15F
  8
0
 62
     7
 10
63.038255000000007
 20
150.705433
 30
0.0
 40
0.053429
 50
280.57199100000003
 51
308.33982400000002
  0
ARC
  5
160
  8
0
 62
     7
 10
62.969430000000003
 20
150.7930409999999
 30
0.0
 40
0.164838
 50
308.2135889999999
 51
323.89153999999991
  0
ARC
  5
161
  8
0
 62
     7
 10
62.424271999999988
 20
151.19737499999991
 30
0.0
 40
0.84357
 50
323.52531699999997
 51
329.40121399999998
  0
LINE
  5
162
  8
0
 62
     7
 10
62.930100000000003
 20
150.768
 30
0.0
 11
63.040100000000002
 21
150.65199999999999
 31
0.0
  0
ARC
  5
163
  8
0
 62
     7
 10
65.856380999999999
 20
160.93305000000001
 30
0.0
 40
10.519085
 50
255.09323900000001
 51
256.51431600000001
  0
ARC
  5
164
  8
0
 62
     7
 10
63.880481000000003
 20
152.77627699999999
 30
0.0
 40
2.1265109999999998
 50
257.03272599999991
 51
264.93228199999999
  0
ARC
  5
165
  8
0
 62
     7
 10
63.907138000000003
 20
154.2525489999999
 30
0.0
 40
3.6008650000000002
 50
266.58495699999992
 51
269.00986699999987
  0
LINE
  5
166
  8
0
 62
     7
 10
63.150399999999991
 20
155.709
 30
0.0
 11
63.150399999999991
 21
150.768
 31
0.0
  0
LINE
  5
167
  8
0
 62
     7
 10
62.930100000000003
 20
155.709
 30
0.0
 11
62.930100000000003
 21
150.768
 31
0.0
  0
LINE
  5
168
  8
0
 62
     7
 10
60.439799999999998
 20
156.601
 30
0.0
 11
61.42369999999999
 21
156.601
 31
0.0
  0
LINE
  5
169
  8
0
 62
     7
 10
60.439799999999998
 20
155.8249999999999
 30
0.0
 11
61.42369999999999
 21
155.8249999999999
 31
0.0
  0
LINE
  5
16A
  8
0
 62
     7
 10
72.947100000000006
 20
155.566
 30
0.0
 11
72.180499999999995
 21
155.566
 31
0.0
  0
LINE
  5
16B
  8
0
 62
     7
 10
72.868399999999994
 20
155.8249999999999
 30
0.0
 11
71.912700000000001
 21
155.8249999999999
 31
0.0
  0
LINE
  5
16C
  8
0
 62
     7
 10
71.912700000000001
 20
156.601
 30
0.0
 11
72.868399999999994
 21
156.601
 31
0.0
  0
LINE
  5
16D
  8
0
 62
     7
 10
72.868399999999994
 20
156.601
 30
0.0
 11
72.868399999999994
 21
155.8249999999999
 31
0.0
  0
LINE
  5
16E
  8
0
 62
     7
 10
72.947100000000006
 20
155.566
 30
0.0
 11
72.947100000000006
 21
155.8249999999999
 31
0.0
  0
LINE
  5
16F
  8
0
 62
     7
 10
70.534300000000002
 20
155.8249999999999
 30
0.0
 11
70.619399999999985
 21
155.8249999999999
 31
0.0
  0
LINE
  5
170
  8
0
 62
     7
 10
70.534300000000002
 20
156.601
 30
0.0
 11
70.619399999999985
 21
156.601
 31
0.0
  0
LINE
  5
171
  8
0
 62
     7
 10
70.619399999999985
 20
155.8249999999999
 30
0.0
 11
70.619399999999985
 21
156.601
 31
0.0
  0
ARC
  5
172
  8
0
 62
     7
 10
70.60612900000001
 20
155.8186509999999
 30
0.0
 40
0.007066
 50
120.797279
 51
178.27159800000001
  0
ARC
  5
173
  8
0
 62
     7
 10
70.468761999999984
 20
154.0602209999999
 30
0.0
 40
1.763463999999999
 50
76.937002000000007
 51
85.762488000000005
  0
ARC
  5
174
  8
0
 62
     7
 10
69.712869999999995
 20
150.59264400000001
 30
0.0
 40
5.3123670000000001
 50
74.399668999999989
 51
77.448430000000002
  0
ARC
  5
175
  8
0
 62
     7
 10
63.187857999999999
 20
209.94407299999989
 30
0.0
 40
54.624915000000001
 50
277.72906999999998
 51
277.80127999999991
  0
LINE
  5
176
  8
0
 62
     7
 10
71.2517
 20
155.8249999999999
 30
0.0
 11
71.259500000000003
 21
155.8239999999999
 31
0.0
  0
ARC
  5
177
  8
0
 62
     7
 10
71.250287999999983
 20
155.77180300000001
 30
0.0
 40
0.053034
 50
52.009015999999988
 51
80.002516999999983
  0
ARC
  5
178
  8
0
 62
     7
 10
71.183070000000001
 20
155.68549299999989
 30
0.0
 40
0.162431
 50
36.169507000000003
 51
52.062894999999997
  0
ARC
  5
179
  8
0
 62
     7
 10
70.641071999999994
 20
155.28297900000001
 30
0.0
 40
0.837541
 50
30.598981999999999
 51
36.515978999999987
  0
LINE
  5
17A
  8
0
 62
     7
 10
71.141499999999994
 20
155.709
 30
0.0
 11
71.2517
 21
155.8249999999999
 31
0.0
  0
LINE
  5
17B
  8
0
 62
     7
 10
72.180499999999995
 20
155.566
 30
0.0
 11
72.180499999999995
 21
155.8249999999999
 31
0.0
  0
LINE
  5
17C
  8
0
 62
     7
 10
71.912700000000001
 20
155.8249999999999
 30
0.0
 11
71.912700000000001
 21
156.601
 31
0.0
  0
LINE
  5
17D
  8
0
 62
     7
 10
71.912700000000001
 20
155.8249999999999
 30
0.0
 11
70.619399999999985
 21
155.8249999999999
 31
0.0
  0
LINE
  5
17E
  8
0
 62
     7
 10
71.361999999999995
 20
155.566
 30
0.0
 11
72.180499999999995
 21
155.566
 31
0.0
  0
LINE
  5
17F
  8
0
 62
     7
 10
70.619399999999985
 20
156.601
 30
0.0
 11
71.912700000000001
 21
156.601
 31
0.0
  0
LINE
  5
180
  8
0
 62
     7
 10
70.602500000000006
 20
150.65199999999999
 30
0.0
 11
71.2517
 21
150.65199999999999
 31
0.0
  0
LINE
  5
181
  8
0
 62
     7
 10
70.534300000000002
 20
150.65199999999999
 30
0.0
 11
70.602500000000006
 21
150.65199999999999
 31
0.0
  0
ARC
  5
182
  8
0
 62
     7
 10
68.451396000000003
 20
160.87327400000001
 30
0.0
 40
10.457229999999999
 50
283.47693900000002
 51
284.9068509999999
  0
ARC
  5
183
  8
0
 62
     7
 10
70.411066000000005
 20
152.77822299999991
 30
0.0
 40
2.1284640000000001
 50
275.06734399999999
 51
282.96207900000002
  0
ARC
  5
184
  8
0
 62
     7
 10
70.598191
 20
150.65630200000001
 30
0.0
 40
0.00198
 50
63.797100999999998
 51
238.0482419999999
  0
ARC
  5
185
  8
0
 62
     7
 10
70.59870500000001
 20
150.650914
 30
0.0
 40
0.004024
 50
18.967732999999988
 51
112.830304
  0
ARC
  5
186
  8
0
 62
     7
 10
70.103564000000006
 20
147.3699639999999
 30
0.0
 40
3.3199649999999998
 50
81.356451000000007
 51
82.545406999999983
  0
ARC
  5
187
  8
0
 62
     7
 10
107.87079900000001
 20
115.8873049999999
 30
0.0
 40
50.493115000000003
 50
136.3064709999999
 51
136.48786100000001
  0
ARC
  5
188
  8
0
 62
     7
 10
71.25303199999999
 20
150.7106719999999
 30
0.0
 40
0.058464
 50
261.10430700000001
 51
268.73649799999993
  0
ARC
  5
189
  8
0
 62
     7
 10
71.251019999999997
 20
150.69801499999991
 30
0.0
 40
0.045648
 50
235.83897799999991
 51
261.14252199999999
  0
ARC
  5
18A
  8
0
 62
     7
 10
71.294535999999994
 20
150.763822
 30
0.0
 40
0.12454
 50
218.65707699999999
 51
236.27337700000001
  0
ARC
  5
18B
  8
0
 62
     7
 10
71.679827000000003
 20
151.07445699999991
 30
0.0
 40
0.6194569999999999
 50
209.653605
 51
218.83278399999989
  0
LINE
  5
18C
  8
0
 62
     7
 10
71.070499999999996
 20
149.6879999999999
 30
0.0
 11
71.070499999999996
 21
150.65199999999999
 31
0.0
  0
LINE
  5
18D
  8
0
 62
     7
 10
71.154600000000002
 20
150.65199999999999
 30
0.0
 11
71.154600000000002
 21
149.83299999999991
 31
0.0
  0
LINE
  5
18E
  8
0
 62
     7
 10
70.896000000000001
 20
149.38499999999991
 30
0.0
 11
71.154600000000002
 21
149.83299999999991
 31
0.0
  0
LINE
  5
18F
  8
0
 62
     7
 10
71.154600000000002
 20
149.83299999999991
 30
0.0
 11
70.534300000000002
 21
149.83299999999991
 31
0.0
  0
LINE
  5
190
  8
0
 62
     7
 10
70.896000000000001
 20
149.38499999999991
 30
0.0
 11
70.534300000000002
 21
149.38499999999991
 31
0.0
  0
LINE
  5
191
  8
0
 62
     7
 10
71.361999999999995
 20
155.709
 30
0.0
 11
71.361999999999995
 21
150.768
 31
0.0
  0
LINE
  5
192
  8
0
 62
     7
 10
71.141499999999994
 20
155.709
 30
0.0
 11
71.141499999999994
 21
150.768
 31
0.0
  0
LINE
  5
193
  8
0
 62
     7
 10
73.852299999999985
 20
155.8249999999999
 30
0.0
 11
73.852299999999985
 21
156.601
 31
0.0
  0
LINE
  5
194
  8
0
 62
     7
 10
73.852299999999985
 20
155.8249999999999
 30
0.0
 11
72.868399999999994
 21
155.8249999999999
 31
0.0
  0
LINE
  5
195
  8
0
 62
     7
 10
73.852299999999985
 20
156.601
 30
0.0
 11
72.868399999999994
 21
156.601
 31
0.0
  0
LINE
  5
196
  8
0
 62
     7
 10
66.758099999999999
 20
156.601
 30
0.0
 11
67.689300000000003
 21
156.601
 31
0.0
  0
LINE
  5
197
  8
0
 62
     7
 10
66.758099999999999
 20
155.8249999999999
 30
0.0
 11
67.689300000000003
 21
155.8249999999999
 31
0.0
  0
LINE
  5
198
  8
0
 62
     7
 10
63.913299999999992
 20
148.09200000000001
 30
0.0
 11
63.51659999999999
 21
148.09200000000001
 31
0.0
  0
LINE
  5
199
  8
0
 62
     7
 10
63.913299999999992
 20
148.351
 30
0.0
 11
63.396000000000001
 21
148.351
 31
0.0
  0
LINE
  5
19A
  8
0
 62
     7
 10
63.396000000000001
 20
148.351
 30
0.0
 11
63.51659999999999
 21
148.09200000000001
 31
0.0
  0
LINE
  5
19B
  8
0
 62
     7
 10
70.896000000000001
 20
148.351
 30
0.0
 11
70.775499999999994
 21
148.09200000000001
 31
0.0
  0
LINE
  5
19C
  8
0
 62
     7
 10
70.534300000000002
 20
148.351
 30
0.0
 11
70.896000000000001
 21
148.351
 31
0.0
  0
LINE
  5
19D
  8
0
 62
     7
 10
70.534300000000002
 20
148.09200000000001
 30
0.0
 11
70.775499999999994
 21
148.09200000000001
 31
0.0
  0
LINE
  5
19E
  8
0
 62
     7
 10
70.896000000000001
 20
148.351
 30
0.0
 11
70.896000000000001
 21
149.38499999999991
 31
0.0
  0
LINE
  5
19F
  8
0
 62
     7
 10
63.396000000000001
 20
148.351
 30
0.0
 11
63.396000000000001
 21
149.38499999999991
 31
0.0
  0
ARC
  5
1A0
  8
0
 62
     7
 10
66.359281999999993
 20
181.60925299999991
 30
0.0
 40
2.7741349999999989
 50
176.68021899999991
 51
180.90869900000001
  0
ARC
  5
1A1
  8
0
 62
     7
 10
64.670810000000003
 20
181.61570699999999
 30
0.0
 40
1.0864860000000001
 50
182.66135099999991
 51
193.751778
  0
ARC
  5
1A2
  8
0
 62
     7
 10
65.191003000000009
 20
181.72878899999989
 30
0.0
 40
1.6187079999999989
 50
193.26268300000001
 51
198.7676669999999
  0
ARC
  5
1A3
  8
0
 62
     7
 10
65.690593000000007
 20
181.89611599999989
 30
0.0
 40
2.145570999999999
 50
198.70616799999999
 51
208.601485
  0
ARC
  5
1A4
  8
0
 62
     7
 10
65.417542999999995
 20
181.72931299999991
 30
0.0
 40
1.826057
 50
208.10774499999999
 51
216.374967
  0
ARC
  5
1A5
  8
0
 62
     7
 10
64.894393999999991
 20
181.366467
 30
0.0
 40
1.189787999999999
 50
217.247366
 51
223.242266
  0
ARC
  5
1A6
  8
0
 62
     7
 10
65.257502000000002
 20
181.71003999999991
 30
0.0
 40
1.6896770000000001
 50
223.29383799999991
 51
226.5613229999999
  0
LINE
  5
1A7
  8
0
 62
     7
 10
64.095699999999994
 20
181.16399999999999
 30
0.0
 11
64.095699999999994
 21
179.17199999999991
 31
0.0
  0
LINE
  5
1A8
  8
0
 62
     7
 10
64.156899999999993
 20
181.423
 30
0.0
 11
64.096599999999995
 21
181.196
 31
0.0
  0
LINE
  5
1A9
  8
0
 62
     7
 10
64.096599999999995
 20
181.196
 30
0.0
 11
64.095699999999994
 21
181.16399999999999
 31
0.0
  0
ARC
  5
1AA
  8
0
 62
     7
 10
67.293136000000004
 20
179.9470409999999
 30
0.0
 40
3.5451529999999991
 50
152.54032699999991
 51
155.0534199999999
  0
ARC
  5
1AB
  8
0
 62
     7
 10
64.673961000000006
 20
181.17376100000001
 30
0.0
 40
0.65299
 50
155.71793199999999
 51
171.68981999999991
  0
ARC
  5
1AC
  8
0
 62
     7
 10
64.361660999999998
 20
181.2307659999999
 30
0.0
 40
0.335919
 50
173.612269
 51
194.86125499999989
  0
ARC
  5
1AD
  8
0
 62
     7
 10
64.401235999999983
 20
181.2458389999999
 30
0.0
 40
0.378062
 50
195.53088600000001
 51
203.649665
  0
ARC
  5
1AE
  8
0
 62
     7
 10
65.268485999999996
 20
181.62704999999991
 30
0.0
 40
1.325397999999999
 50
203.70603099999991
 51
207.7678149999999
  0
ARC
  5
1AF
  8
0
 62
     7
 10
65.225752999999983
 20
181.70917600000001
 30
0.0
 40
1.6473269999999991
 50
178.13927599999991
 51
179.82913199999999
  0
ARC
  5
1B0
  8
0
 62
     7
 10
64.121367000000006
 20
185.77183400000001
 30
0.0
 40
8.1369089999999993
 50
319.43568900000002
 51
321.090934
  0
ARC
  5
1B1
  8
0
 62
     7
 10
69.040587000000002
 20
181.76823200000001
 30
0.0
 40
1.7946259999999989
 50
321.91092099999992
 51
325.90414399999992
  0
ARC
  5
1B2
  8
0
 62
     7
 10
69.166452000000007
 20
181.68257
 30
0.0
 40
1.6423759999999989
 50
325.91737599999988
 51
339.98701399999987
  0
ARC
  5
1B3
  8
0
 62
     7
 10
68.985831999999988
 20
181.77829
 30
0.0
 40
1.8450629999999999
 50
339.11358599999988
 51
347.286158
  0
ARC
  5
1B4
  8
0
 62
     7
 10
69.631422999999998
 20
181.618256
 30
0.0
 40
1.180162999999999
 50
347.967151
 51
353.90313300000003
  0
ARC
  5
1B5
  8
0
 62
     7
 10
69.659705000000002
 20
181.613979
 30
0.0
 40
1.1515879999999989
 50
353.96527300000002
 51
358.57106599999997
  0
ARC
  5
1B6
  8
0
 62
     7
 10
67.636589999999998
 20
181.66142400000001
 30
0.0
 40
3.1752590000000001
 50
358.62557299999992
 51
1.609459
  0
ARC
  5
1B7
  8
0
 62
     7
 10
69.296444999999991
 20
181.71337799999989
 30
0.0
 40
1.5234529999999999
 50
0.026697
 51
1.218813999999999
  0
LINE
  5
1B8
  8
0
 62
     7
 10
70.302800000000005
 20
179.17199999999991
 30
0.0
 11
70.302800000000005
 21
181.16399999999999
 31
0.0
  0
ARC
  5
1B9
  8
0
 62
     7
 10
67.203839000000002
 20
179.99814599999991
 30
0.0
 40
3.4342099999999989
 50
24.867228000000001
 51
27.460649
  0
ARC
  5
1BA
  8
0
 62
     7
 10
69.723573999999985
 20
181.17371299999999
 30
0.0
 40
0.653784
 50
8.3042679999999987
 51
24.255306000000001
  0
ARC
  5
1BB
  8
0
 62
     7
 10
70.036670000000001
 20
181.2307659999999
 30
0.0
 40
0.335919
 50
345.13878399999987
 51
6.3876910000000002
  0
ARC
  5
1BC
  8
0
 62
     7
 10
70.003531000000009
 20
181.24279799999999
 30
0.0
 40
0.371048
 50
336.56643199999991
 51
344.655483
  0
ARC
  5
1BD
  8
0
 62
     7
 10
69.178648999999993
 20
181.60275699999991
 30
0.0
 40
1.2710479999999991
 50
332.17985399999992
 51
336.46606999999989
  0
LINE
  5
1BE
  8
0
 62
     7
 10
70.251099999999994
 20
181.58199999999999
 30
0.0
 11
70.073499999999996
 21
181.78499999999991
 31
0.0
  0
LINE
  5
1BF
  8
0
 62
     7
 10
70.073499999999996
 20
181.78499999999991
 30
0.0
 11
69.820499999999996
 21
181.97499999999991
 31
0.0
  0
LINE
  5
1C0
  8
0
 62
     7
 10
69.820499999999996
 20
181.97499999999991
 30
0.0
 11
69.498000000000005
 21
182.14400000000001
 31
0.0
  0
LINE
  5
1C1
  8
0
 62
     7
 10
69.498000000000005
 20
182.14400000000001
 30
0.0
 11
69.115399999999994
 21
182.28899999999999
 31
0.0
  0
LINE
  5
1C2
  8
0
 62
     7
 10
69.115399999999994
 20
182.28899999999999
 30
0.0
 11
68.682199999999995
 21
182.40599999999989
 31
0.0
  0
LINE
  5
1C3
  8
0
 62
     7
 10
68.682199999999995
 20
182.40599999999989
 30
0.0
 11
68.2102
 21
182.49199999999999
 31
0.0
  0
LINE
  5
1C4
  8
0
 62
     7
 10
68.2102
 20
182.49199999999999
 30
0.0
 11
67.711399999999983
 21
182.54400000000001
 31
0.0
  0
LINE
  5
1C5
  8
0
 62
     7
 10
67.711399999999983
 20
182.54400000000001
 30
0.0
 11
67.199299999999994
 21
182.56200000000001
 31
0.0
  0
ARC
  5
1C6
  8
0
 62
     7
 10
68.965682000000001
 20
181.1828229999999
 30
0.0
 40
1.34592
 50
17.243351000000001
 51
39.024475000000002
  0
ARC
  5
1C7
  8
0
 62
     7
 10
68.511848999999984
 20
180.85361499999991
 30
0.0
 40
1.906015999999999
 50
38.122547999999988
 51
52.008071000000008
  0
ARC
  5
1C8
  8
0
 62
     7
 10
68.022914
 20
180.267336
 30
0.0
 40
2.6691370000000001
 50
51.483350000000002
 51
63.595923999999997
  0
ARC
  5
1C9
  8
0
 62
     7
 10
67.508647999999994
 20
179.2932439999999
 30
0.0
 40
3.7704049999999998
 50
63.178930000000008
 51
77.873926999999995
  0
ARC
  5
1CA
  8
0
 62
     7
 10
67.220344999999995
 20
178.2003179999999
 30
0.0
 40
4.8997859999999989
 50
77.262496999999996
 51
90.246642999999992
  0
ARC
  5
1CB
  8
0
 62
     7
 10
69.211118999999997
 20
181.7090959999999
 30
0.0
 40
1.6088519999999991
 50
1.3066379999999991
 51
32.281362000000001
  0
ARC
  5
1CC
  8
0
 62
     7
 10
68.687969999999993
 20
181.421424
 30
0.0
 40
2.205077999999999
 50
31.340884999999989
 51
49.868668999999997
  0
ARC
  5
1CD
  8
0
 62
     7
 10
68.015928000000002
 20
180.69450399999999
 30
0.0
 40
3.1943380000000001
 50
49.056239999999988
 51
64.642698999999993
  0
ARC
  5
1CE
  8
0
 62
     7
 10
67.440196999999984
 20
179.595293
 30
0.0
 40
4.4344859999999988
 50
64.002964000000006
 51
79.816239999999993
  0
ARC
  5
1CF
  8
0
 62
     7
 10
67.212494999999976
 20
178.6281679999999
 30
0.0
 40
5.4268929999999989
 50
79.255390000000006
 51
90.139809999999997
  0
ARC
  5
1D0
  8
0
 62
     7
 10
67.198413999999985
 20
178.1091449999999
 30
0.0
 40
4.9909140000000001
 50
89.990369999999984
 51
107.0572599999999
  0
ARC
  5
1D1
  8
0
 62
     7
 10
66.831378000000001
 20
179.43739899999991
 30
0.0
 40
3.6136330000000001
 50
107.671235
 51
121.82337200000001
  0
ARC
  5
1D2
  8
0
 62
     7
 10
66.177141000000006
 20
180.54810299999991
 30
0.0
 40
2.325102999999999
 50
122.557402
 51
139.224119
  0
ARC
  5
1D3
  8
0
 62
     7
 10
65.568414000000004
 20
181.11038099999999
 30
0.0
 40
1.497174
 50
140.3047709999999
 51
161.64703899999989
  0
LINE
  5
1D4
  8
0
 62
     7
 10
64.147400000000005
 20
181.58199999999999
 30
0.0
 11
64.325000000000003
 21
181.78499999999991
 31
0.0
  0
LINE
  5
1D5
  8
0
 62
     7
 10
64.325000000000003
 20
181.78499999999991
 30
0.0
 11
64.578199999999995
 21
181.97499999999991
 31
0.0
  0
LINE
  5
1D6
  8
0
 62
     7
 10
64.578199999999995
 20
181.97499999999991
 30
0.0
 11
64.900300000000001
 21
182.14400000000001
 31
0.0
  0
LINE
  5
1D7
  8
0
 62
     7
 10
64.900300000000001
 20
182.14400000000001
 30
0.0
 11
65.283100000000005
 21
182.28899999999999
 31
0.0
  0
LINE
  5
1D8
  8
0
 62
     7
 10
65.283100000000005
 20
182.28899999999999
 30
0.0
 11
65.716099999999983
 21
182.40599999999989
 31
0.0
  0
LINE
  5
1D9
  8
0
 62
     7
 10
65.716099999999983
 20
182.40599999999989
 30
0.0
 11
66.188299999999984
 21
182.49199999999999
 31
0.0
  0
LINE
  5
1DA
  8
0
 62
     7
 10
66.188299999999984
 20
182.49199999999999
 30
0.0
 11
66.686999999999998
 21
182.54400000000001
 31
0.0
  0
LINE
  5
1DB
  8
0
 62
     7
 10
66.686999999999998
 20
182.54400000000001
 30
0.0
 11
67.199299999999994
 21
182.56200000000001
 31
0.0
  0
ARC
  5
1DC
  8
0
 62
     7
 10
67.20089200000001
 20
178.63832400000001
 30
0.0
 40
5.416720999999999
 50
90.017347000000001
 51
108.78285200000001
  0
ARC
  5
1DD
  8
0
 62
     7
 10
66.819513000000001
 20
179.92085499999999
 30
0.0
 40
4.080023999999999
 50
109.511461
 51
122.367558
  0
ARC
  5
1DE
  8
0
 62
     7
 10
66.223512999999997
 20
180.90767600000001
 30
0.0
 40
2.9275619999999991
 50
122.8547669999999
 51
138.84579999999991
  0
ARC
  5
1DF
  8
0
 62
     7
 10
65.525004999999993
 20
181.55671100000001
 30
0.0
 40
1.9747169999999989
 50
139.68742
 51
162.75789
  0
ARC
  5
1E0
  8
0
 62
     7
 10
65.149826000000004
 20
181.70976099999999
 30
0.0
 40
1.571421999999999
 50
164.0328669999999
 51
178.07069000000001
  0
LINE
  5
1E1
  8
0
 62
     7
 10
70.302800000000005
 20
181.16399999999999
 30
0.0
 11
70.267799999999994
 21
181.3609999999999
 31
0.0
  0
LINE
  5
1E2
  8
0
 62
     7
 10
70.267799999999994
 20
181.3609999999999
 30
0.0
 11
70.140199999999993
 21
181.58199999999999
 31
0.0
  0
LINE
  5
1E3
  8
0
 62
     7
 10
70.140199999999993
 20
181.58199999999999
 30
0.0
 11
69.9238
 21
181.79199999999989
 31
0.0
  0
LINE
  5
1E4
  8
0
 62
     7
 10
69.9238
 20
181.79199999999989
 30
0.0
 11
69.624099999999999
 21
181.98199999999991
 31
0.0
  0
LINE
  5
1E5
  8
0
 62
     7
 10
69.624099999999999
 20
181.98199999999991
 30
0.0
 11
69.251000000000005
 21
182.148
 31
0.0
  0
LINE
  5
1E6
  8
0
 62
     7
 10
69.251000000000005
 20
182.148
 30
0.0
 11
68.815399999999997
 21
182.28399999999999
 31
0.0
  0
LINE
  5
1E7
  8
0
 62
     7
 10
68.815399999999997
 20
182.28399999999999
 30
0.0
 11
68.330799999999996
 21
182.38599999999991
 31
0.0
  0
LINE
  5
1E8
  8
0
 62
     7
 10
68.330799999999996
 20
182.38599999999991
 30
0.0
 11
67.811800000000005
 21
182.44999999999999
 31
0.0
  0
LINE
  5
1E9
  8
0
 62
     7
 10
67.811800000000005
 20
182.44999999999999
 30
0.0
 11
67.2744
 21
182.47499999999991
 31
0.0
  0
LINE
  5
1EA
  8
0
 62
     7
 10
67.2744
 20
182.47499999999991
 30
0.0
 11
66.734300000000005
 21
182.4609999999999
 31
0.0
  0
LINE
  5
1EB
  8
0
 62
     7
 10
66.734300000000005
 20
182.4609999999999
 30
0.0
 11
66.208600000000004
 21
182.40700000000001
 31
0.0
  0
LINE
  5
1EC
  8
0
 62
     7
 10
66.208600000000004
 20
182.40700000000001
 30
0.0
 11
65.712999999999994
 21
182.31599999999989
 31
0.0
  0
LINE
  5
1ED
  8
0
 62
     7
 10
65.712999999999994
 20
182.31599999999989
 30
0.0
 11
65.2624
 21
182.18899999999999
 31
0.0
  0
LINE
  5
1EE
  8
0
 62
     7
 10
65.2624
 20
182.18899999999999
 30
0.0
 11
64.870900000000006
 21
182.03099999999989
 31
0.0
  0
LINE
  5
1EF
  8
0
 62
     7
 10
64.870900000000006
 20
182.03099999999989
 30
0.0
 11
64.549999999999997
 21
181.84699999999989
 31
0.0
  0
LINE
  5
1F0
  8
0
 62
     7
 10
64.549999999999997
 20
181.84699999999989
 30
0.0
 11
64.3095
 21
181.64199999999991
 31
0.0
  0
LINE
  5
1F1
  8
0
 62
     7
 10
64.3095
 20
181.64199999999991
 30
0.0
 11
64.156899999999993
 21
181.423
 31
0.0
  0
LINE
  5
1F2
  8
0
 62
     7
 10
64.156899999999993
 20
179.4309999999999
 30
0.0
 11
64.096599999999995
 21
179.203
 31
0.0
  0
LINE
  5
1F3
  8
0
 62
     7
 10
64.096599999999995
 20
179.203
 30
0.0
 11
64.130700000000004
 21
178.97499999999991
 31
0.0
  0
LINE
  5
1F4
  8
0
 62
     7
 10
64.130700000000004
 20
178.97499999999991
 30
0.0
 11
64.258200000000002
 21
178.7529999999999
 31
0.0
  0
LINE
  5
1F5
  8
0
 62
     7
 10
64.258200000000002
 20
178.7529999999999
 30
0.0
 11
64.474699999999999
 21
178.54400000000001
 31
0.0
  0
LINE
  5
1F6
  8
0
 62
     7
 10
64.474699999999999
 20
178.54400000000001
 30
0.0
 11
64.774199999999993
 21
178.35299999999989
 31
0.0
  0
LINE
  5
1F7
  8
0
 62
     7
 10
64.774199999999993
 20
178.35299999999989
 30
0.0
 11
65.147499999999994
 21
178.1879999999999
 31
0.0
  0
LINE
  5
1F8
  8
0
 62
     7
 10
65.147499999999994
 20
178.1879999999999
 30
0.0
 11
65.582999999999998
 21
178.05199999999999
 31
0.0
  0
LINE
  5
1F9
  8
0
 62
     7
 10
65.582999999999998
 20
178.05199999999999
 30
0.0
 11
66.067499999999995
 21
177.9499999999999
 31
0.0
  0
LINE
  5
1FA
  8
0
 62
     7
 10
66.067499999999995
 20
177.9499999999999
 30
0.0
 11
66.586500000000001
 21
177.88599999999991
 31
0.0
  0
LINE
  5
1FB
  8
0
 62
     7
 10
66.586500000000001
 20
177.88599999999991
 30
0.0
 11
67.124099999999999
 21
177.86099999999999
 31
0.0
  0
LINE
  5
1FC
  8
0
 62
     7
 10
67.124099999999999
 20
177.86099999999999
 30
0.0
 11
67.664000000000001
 21
177.875
 31
0.0
  0
LINE
  5
1FD
  8
0
 62
     7
 10
67.664000000000001
 20
177.875
 30
0.0
 11
68.189899999999994
 21
177.929
 31
0.0
  0
LINE
  5
1FE
  8
0
 62
     7
 10
68.189899999999994
 20
177.929
 30
0.0
 11
68.685500000000005
 21
178.02000000000001
 31
0.0
  0
LINE
  5
1FF
  8
0
 62
     7
 10
68.685500000000005
 20
178.02000000000001
 30
0.0
 11
69.136099999999999
 21
178.14699999999999
 31
0.0
  0
LINE
  5
200
  8
0
 62
     7
 10
69.136099999999999
 20
178.14699999999999
 30
0.0
 11
69.527600000000007
 21
178.30399999999989
 31
0.0
  0
LINE
  5
201
  8
0
 62
     7
 10
69.527600000000007
 20
178.30399999999989
 30
0.0
 11
69.848699999999994
 21
178.488
 31
0.0
  0
LINE
  5
202
  8
0
 62
     7
 10
69.848699999999994
 20
178.488
 30
0.0
 11
70.088999999999999
 21
178.6929999999999
 31
0.0
  0
LINE
  5
203
  8
0
 62
     7
 10
70.088999999999999
 20
178.6929999999999
 30
0.0
 11
70.241600000000005
 21
178.9129999999999
 31
0.0
  0
LINE
  5
204
  8
0
 62
     7
 10
70.241600000000005
 20
178.9129999999999
 30
0.0
 11
70.301900000000003
 21
179.1399999999999
 31
0.0
  0
LINE
  5
205
  8
0
 62
     7
 10
70.301900000000003
 20
179.1399999999999
 30
0.0
 11
70.267799999999994
 21
179.36799999999991
 31
0.0
  0
LINE
  5
206
  8
0
 62
     7
 10
70.267799999999994
 20
179.36799999999991
 30
0.0
 11
70.140199999999993
 21
179.59099999999989
 31
0.0
  0
LINE
  5
207
  8
0
 62
     7
 10
70.140199999999993
 20
179.59099999999989
 30
0.0
 11
69.9238
 21
179.80000000000001
 31
0.0
  0
LINE
  5
208
  8
0
 62
     7
 10
69.9238
 20
179.80000000000001
 30
0.0
 11
69.624099999999999
 21
179.99000000000001
 31
0.0
  0
LINE
  5
209
  8
0
 62
     7
 10
69.624099999999999
 20
179.99000000000001
 30
0.0
 11
69.251000000000005
 21
180.15599999999989
 31
0.0
  0
LINE
  5
20A
  8
0
 62
     7
 10
69.251000000000005
 20
180.15599999999989
 30
0.0
 11
68.815399999999997
 21
180.292
 31
0.0
  0
LINE
  5
20B
  8
0
 62
     7
 10
68.815399999999997
 20
180.292
 30
0.0
 11
68.330799999999996
 21
180.393
 31
0.0
  0
LINE
  5
20C
  8
0
 62
     7
 10
68.330799999999996
 20
180.393
 30
0.0
 11
67.811800000000005
 21
180.45699999999999
 31
0.0
  0
LINE
  5
20D
  8
0
 62
     7
 10
67.811800000000005
 20
180.45699999999999
 30
0.0
 11
67.2744
 21
180.483
 31
0.0
  0
LINE
  5
20E
  8
0
 62
     7
 10
67.2744
 20
180.483
 30
0.0
 11
66.734300000000005
 21
180.46899999999999
 31
0.0
  0
LINE
  5
20F
  8
0
 62
     7
 10
66.734300000000005
 20
180.46899999999999
 30
0.0
 11
66.208600000000004
 21
180.41499999999991
 31
0.0
  0
LINE
  5
210
  8
0
 62
     7
 10
66.208600000000004
 20
180.41499999999991
 30
0.0
 11
65.712999999999994
 21
180.32299999999989
 31
0.0
  0
LINE
  5
211
  8
0
 62
     7
 10
65.712999999999994
 20
180.32299999999989
 30
0.0
 11
65.2624
 21
180.197
 31
0.0
  0
LINE
  5
212
  8
0
 62
     7
 10
65.2624
 20
180.197
 30
0.0
 11
64.870900000000006
 21
180.03899999999999
 31
0.0
  0
LINE
  5
213
  8
0
 62
     7
 10
64.870900000000006
 20
180.03899999999999
 30
0.0
 11
64.549999999999997
 21
179.8549999999999
 31
0.0
  0
LINE
  5
214
  8
0
 62
     7
 10
64.549999999999997
 20
179.8549999999999
 30
0.0
 11
64.3095
 21
179.64999999999989
 31
0.0
  0
LINE
  5
215
  8
0
 62
     7
 10
64.3095
 20
179.64999999999989
 30
0.0
 11
64.156899999999993
 21
179.4309999999999
 31
0.0
  0
ARC
  5
216
  8
0
 62
     7
 10
61.670817999999997
 20
203.860389
 30
0.0
 40
0.268849
 50
92.118206000000015
 51
177.88176399999989
  0
ARC
  5
217
  8
0
 62
     7
 10
72.774005999999986
 20
203.860367
 30
0.0
 40
0.268866
 50
2.1228579999999999
 51
87.915266000000003
  0
LINE
  5
218
  8
0
 62
     7
 10
61.6631
 20
204.12899999999999
 30
0.0
 11
72.783799999999999
 21
204.12899999999999
 31
0.0
  0
LINE
  5
219
  8
0
 62
     7
 10
61.999200000000002
 20
197.14400000000001
 30
0.0
 11
67.223399999999984
 21
197.14400000000001
 31
0.0
  0
LINE
  5
21A
  8
0
 62
     7
 10
61.973199999999999
 20
197.14400000000001
 30
0.0
 11
67.223399999999984
 21
197.14400000000001
 31
0.0
  0
ARC
  5
21B
  8
0
 62
     7
 10
61.485093999999997
 20
197.74413299999989
 30
0.0
 40
0.080586
 50
182.14409499999991
 51
267.85593499999999
  0
LINE
  5
21C
  8
0
 62
     7
 10
61.973199999999999
 20
197.14400000000001
 30
0.0
 11
62.568199999999997
 21
197.14400000000001
 31
0.0
  0
ARC
  5
21D
  8
0
 62
     7
 10
69.343306000000013
 20
195.11674600000001
 30
0.0
 40
7.6188909999999996
 50
160.48760100000001
 51
164.56538699999999
  0
ARC
  5
21E
  8
0
 62
     7
 10
67.450693999999999
 20
181.13336699999991
 30
0.0
 40
11.237735000000001
 50
91.159098
 51
93.225487000000001
  0
ARC
  5
21F
  8
0
 62
     7
 10
67.131200000000007
 20
187.80616099999989
 30
0.0
 40
4.5578849999999989
 50
93.935268999999991
 51
101.3600749999999
  0
ARC
  5
220
  8
0
 62
     7
 10
67.124988000000002
 20
187.70427799999999
 30
0.0
 40
4.6566219999999996
 50
101.0382139999999
 51
108.265756
  0
ARC
  5
221
  8
0
 62
     7
 10
66.669004999999999
 20
189.07073600000001
 30
0.0
 40
3.2161019999999998
 50
108.18157600000001
 51
109.065656
  0
ARC
  5
222
  8
0
 62
     7
 10
66.896321
 20
188.4157459999999
 30
0.0
 40
3.9094159999999998
 50
109.078748
 51
117.0166879999999
  0
ARC
  5
223
  8
0
 62
     7
 10
66.624320999999995
 20
188.97843999999989
 30
0.0
 40
3.2845979999999999
 50
117.248452
 51
126.48947
  0
ARC
  5
224
  8
0
 62
     7
 10
66.317666000000003
 20
189.420706
 30
0.0
 40
2.7467199999999998
 50
126.8329189999999
 51
137.13850400000001
  0
ARC
  5
225
  8
0
 62
     7
 10
66.125512999999984
 20
189.61283599999999
 30
0.0
 40
2.4752000000000001
 50
137.37282799999991
 51
149.43388200000001
  0
ARC
  5
226
  8
0
 62
     7
 10
66.224626000000001
 20
189.56233
 30
0.0
 40
2.5862340000000001
 50
149.587074
 51
163.626182
  0
ARC
  5
227
  8
0
 62
     7
 10
66.387268999999989
 20
189.49468100000001
 30
0.0
 40
2.7614169999999989
 50
163.23079899999991
 51
166.30566099999999
  0
ARC
  5
228
  8
0
 62
     7
 10
67.019442999999995
 20
189.3349739999999
 30
0.0
 40
3.4134329999999999
 50
166.21324699999991
 51
177.56372500000001
  0
ARC
  5
229
  8
0
 62
     7
 10
67.929929000000001
 20
189.29706100000001
 30
0.0
 40
4.3247080000000002
 50
177.57464999999991
 51
180.80693299999999
  0
ARC
  5
22A
  8
0
 62
     7
 10
81.983838000000006
 20
191.92625100000001
 30
0.0
 40
19.459472999999999
 50
197.33342300000001
 51
199.16527500000001
  0
ARC
  5
22B
  8
0
 62
     7
 10
70.364491000000001
 20
188.178831
 30
0.0
 40
7.2522380000000002
 50
192.12593299999989
 51
196.4211169999999
  0
ARC
  5
22C
  8
0
 62
     7
 10
74.534762999999998
 20
189.10057399999991
 30
0.0
 40
11.523114
 50
188.386706
 51
192.25107
  0
ARC
  5
22D
  8
0
 62
     7
 10
78.304152000000002
 20
189.72695799999991
 30
0.0
 40
15.343712999999999
 50
185.59035299999991
 51
188.64775499999999
  0
ARC
  5
22E
  8
0
 62
     7
 10
74.251852999999997
 20
189.25528399999999
 30
0.0
 40
11.264986999999991
 50
181.01378199999999
 51
185.21053599999999
  0
ARC
  5
22F
  8
0
 62
     7
 10
73.004567000000009
 20
189.2321649999999
 30
0.0
 40
10.017488
 50
176.21278000000001
 51
181.007789
  0
ARC
  5
230
  8
0
 62
     7
 10
71.330581999999993
 20
189.33400599999999
 30
0.0
 40
8.3404360000000004
 50
170.434539
 51
176.15129400000001
  0
ARC
  5
231
  8
0
 62
     7
 10
69.780313000000007
 20
189.58287200000001
 30
0.0
 40
6.7703769999999999
 50
159.34957600000001
 51
170.33122299999991
  0
ARC
  5
232
  8
0
 62
     7
 10
68.445768999999984
 20
190.03455
 30
0.0
 40
5.3625009999999991
 50
150.28527199999991
 51
158.83682400000001
  0
ARC
  5
233
  8
0
 62
     7
 10
67.896563
 20
190.33788000000001
 30
0.0
 40
4.7351669999999988
 50
140.61090999999999
 51
150.1789409999999
  0
ARC
  5
234
  8
0
 62
     7
 10
67.598526000000007
 20
190.55454900000001
 30
0.0
 40
4.367386999999999
 50
130.788173
 51
140.32654099999991
  0
ARC
  5
235
  8
0
 62
     7
 10
67.370093000000011
 20
190.81200100000001
 30
0.0
 40
4.0232380000000001
 50
120.21181799999999
 51
130.7202629999999
  0
ARC
  5
236
  8
0
 62
     7
 10
67.190252999999998
 20
191.13444799999991
 30
0.0
 40
3.6541000000000001
 50
111.7733909999999
 51
120.31910000000001
  0
ARC
  5
237
  8
0
 62
     7
 10
67.294684000000004
 20
190.88364699999991
 30
0.0
 40
3.9257469999999999
 50
103.74248900000001
 51
111.8310279999999
  0
ARC
  5
238
  8
0
 62
     7
 10
67.157424000000006
 20
191.46338499999999
 30
0.0
 40
3.3300010000000002
 50
97.033542000000011
 51
103.81805299999991
  0
ARC
  5
239
  8
0
 62
     7
 10
67.095243999999994
 20
191.9776389999999
 30
0.0
 40
2.8120029999999989
 50
94.042715999999984
 51
97.059173000000015
  0
ARC
  5
23A
  8
0
 62
     7
 10
67.433150999999995
 20
187.3425
 30
0.0
 40
7.4594389999999988
 50
91.611542
 51
94.121731999999994
  0
LINE
  5
23B
  8
0
 62
     7
 10
63.602899999999991
 20
250.9489999999999
 30
0.0
 11
63.602899999999991
 21
226.80299999999991
 31
0.0
  0
LINE
  5
23C
  8
0
 62
     7
 10
70.844399999999993
 20
226.80299999999991
 30
0.0
 11
70.844399999999993
 21
250.9489999999999
 31
0.0
  0
LINE
  5
23D
  8
0
 62
     7
 10
63.602899999999991
 20
189.23599999999999
 30
0.0
 11
63.602899999999991
 21
181.41900000000001
 31
0.0
  0
ARC
  5
23E
  8
0
 62
     7
 10
72.962114
 20
197.74418299999999
 30
0.0
 40
0.080631
 50
272.05090200000001
 51
357.82192500000002
  0
ARC
  5
23F
  8
0
 62
     7
 10
64.924852999999999
 20
195.057918
 30
0.0
 40
7.8071859999999988
 50
15.500961
 51
19.480737999999992
  0
LINE
  5
240
  8
0
 62
     7
 10
70.844399999999993
 20
181.41900000000001
 30
0.0
 11
70.844399999999993
 21
189.23599999999999
 31
0.0
  0
LINE
  5
241
  8
0
 62
     7
 10
61.479799999999997
 20
197.66399999999999
 30
0.0
 11
72.965000000000003
 21
197.66399999999999
 31
0.0
  0
LINE
  5
242
  8
0
 62
     7
 10
67.223399999999984
 20
197.14400000000001
 30
0.0
 11
72.473699999999994
 21
197.14400000000001
 31
0.0
  0
LINE
  5
243
  8
0
 62
     7
 10
72.473699999999994
 20
197.14400000000001
 30
0.0
 11
67.223399999999984
 21
197.14400000000001
 31
0.0
  0
ARC
  5
244
  8
0
 62
     7
 10
66.997398000000004
 20
181.16182399999991
 30
0.0
 40
11.209256
 50
86.772358999999994
 51
88.844877999999994
  0
ARC
  5
245
  8
0
 62
     7
 10
67.316181
 20
187.80772300000001
 30
0.0
 40
4.5562940000000003
 50
78.639756000000006
 51
86.069310000000016
  0
ARC
  5
246
  8
0
 62
     7
 10
67.320777000000007
 20
187.69755499999999
 30
0.0
 40
4.6634719999999996
 50
71.742766000000003
 51
78.961726999999996
  0
ARC
  5
247
  8
0
 62
     7
 10
67.952664999999996
 20
189.6073439999999
 30
0.0
 40
2.6518630000000001
 50
70.715924999999999
 51
71.781066000000024
  0
ARC
  5
248
  8
0
 62
     7
 10
67.556910999999985
 20
188.4291739999999
 30
0.0
 40
3.8946580000000002
 50
62.97419699999999
 51
70.944602000000003
  0
ARC
  5
249
  8
0
 62
     7
 10
67.809989999999999
 20
188.95790199999999
 30
0.0
 40
3.3087029999999991
 50
53.544244999999997
 51
62.717793000000007
  0
ARC
  5
24A
  8
0
 62
     7
 10
68.112067999999994
 20
189.401433
 30
0.0
 40
2.772545
 50
42.909601000000002
 51
53.118937000000003
  0
ARC
  5
24B
  8
0
 62
     7
 10
68.321566000000004
 20
189.61283599999999
 30
0.0
 40
2.4752000000000001
 50
30.56609799999999
 51
42.627152000000002
  0
ARC
  5
24C
  8
0
 62
     7
 10
68.222453000000002
 20
189.56233
 30
0.0
 40
2.5862340000000001
 50
16.373798000000001
 51
30.412905999999989
  0
ARC
  5
24D
  8
0
 62
     7
 10
67.715428000000003
 20
189.40091000000001
 30
0.0
 40
3.1182229999999991
 50
13.870276999999991
 51
16.593222999999998
  0
ARC
  5
24E
  8
0
 62
     7
 10
67.427637000000004
 20
189.3349739999999
 30
0.0
 40
3.4134329999999999
 50
2.4362550000000001
 51
13.786732999999989
  0
ARC
  5
24F
  8
0
 62
     7
 10
65.433149
 20
189.28175100000001
 30
0.0
 40
5.4084719999999988
 50
359.51699200000002
 51
2.101424999999999
  0
ARC
  5
250
  8
0
 62
     7
 10
50.673470999999999
 20
192.504448
 30
0.0
 40
21.33995599999999
 50
340.94698
 51
342.59092399999997
  0
ARC
  5
251
  8
0
 62
     7
 10
63.953741999999998
 20
188.212568
 30
0.0
 40
7.3849259999999992
 50
343.53696799999989
 51
347.78362199999998
  0
ARC
  5
252
  8
0
 62
     7
 10
59.933253000000001
 20
189.10476399999999
 30
0.0
 40
11.503185
 50
347.67782599999992
 51
351.57758299999989
  0
ARC
  5
253
  8
0
 62
     7
 10
56.556075
 20
189.6669389999999
 30
0.0
 40
14.926409
 50
351.34167599999989
 51
354.468414
  0
ARC
  5
254
  8
0
 62
     7
 10
60.290897000000001
 20
189.25424599999991
 30
0.0
 40
11.169313000000001
 50
354.72877599999993
 51
358.98287799999991
  0
ARC
  5
255
  8
0
 62
     7
 10
61.207320999999993
 20
189.228892
 30
0.0
 40
10.252587999999999
 50
359.03363400000001
 51
3.6761180000000002
  0
ARC
  5
256
  8
0
 62
     7
 10
62.939197999999998
 20
189.31311199999999
 30
0.0
 40
8.5189170000000001
 50
3.8576830000000002
 51
9.5056649999999987
  0
ARC
  5
257
  8
0
 62
     7
 10
64.649004000000005
 20
189.57626200000001
 30
0.0
 40
6.7891669999999991
 50
9.6983219999999992
 51
20.650245999999999
  0
ARC
  5
258
  8
0
 62
     7
 10
66.035803000000001
 20
190.05412599999991
 30
0.0
 40
5.3231099999999989
 50
21.101364
 51
29.615928999999991
  0
ARC
  5
259
  8
0
 62
     7
 10
66.505432999999996
 20
190.30499499999991
 30
0.0
 40
4.7908790000000003
 50
29.783214000000001
 51
39.350869000000003
  0
ARC
  5
25A
  8
0
 62
     7
 10
66.909553000000002
 20
190.61900299999991
 30
0.0
 40
4.2793000000000001
 50
39.530609999999989
 51
49.123601000000001
  0
ARC
  5
25B
  8
0
 62
     7
 10
67.091969999999989
 20
190.827823
 30
0.0
 40
4.0020290000000003
 50
49.141810999999997
 51
59.859561999999997
  0
ARC
  5
25C
  8
0
 62
     7
 10
67.16051800000001
 20
190.941059
 30
0.0
 40
3.8696830000000002
 50
59.895417000000002
 51
67.861227999999997
  0
ARC
  5
25D
  8
0
 62
     7
 10
67.219493999999983
 20
191.08780499999989
 30
0.0
 40
3.711530999999999
 50
67.850836999999999
 51
76.514960000000002
  0
ARC
  5
25E
  8
0
 62
     7
 10
67.288931000000005
 20
191.46043499999999
 30
0.0
 40
3.333038999999999
 50
76.181946999999994
 51
82.957350000000005
  0
ARC
  5
25F
  8
0
 62
     7
 10
67.350921
 20
191.96472800000001
 30
0.0
 40
2.824949999999999
 50
82.951103000000003
 51
85.956232
  0
ARC
  5
260
  8
0
 62
     7
 10
67.013962000000006
 20
187.337164
 30
0.0
 40
7.4647619999999986
 50
85.881079
 51
88.392491000000007
  0
LINE
  5
261
  8
0
  6
AIGENLINE001
 62
     7
 10
67.223699999999994
 20
206.4909999999999
 30
0.0
 11
67.223699999999994
 21
76.138099999999994
 31
0.0
  0
LINE
  5
262
  8
0
 62
     7
 10
73.042699999999996
 20
197.7409999999999
 30
0.0
 11
73.042699999999996
 21
203.86999999999989
 31
0.0
  0
ARC
  5
263
  8
0
 62
     7
 10
67.219577999999998
 20
201.177278
 30
0.0
 40
1.293296999999999
 50
90.0
 51
179.99996999999991
  0
ARC
  5
264
  8
0
 62
     7
 10
67.268929
 20
201.22698699999989
 30
0.0
 40
1.3435680000000001
 50
182.12032899999991
 51
267.89496600000001
  0
ARC
  5
265
  8
0
 62
     7
 10
67.169898000000003
 20
201.22695799999991
 30
0.0
 40
1.3435520000000001
 50
272.11910799999998
 51
357.88090199999999
  0
ARC
  5
266
  8
0
 62
     7
 10
67.219405000000009
 20
201.17744999999999
 30
0.0
 40
1.2931250000000001
 50
359.99237799999992
 51
89.992347999999993
  0
LINE
  5
267
  8
0
 62
     7
 10
61.404600000000002
 20
203.86999999999989
 30
0.0
 11
61.404600000000002
 21
197.73899999999989
 31
0.0
  0
LINE
  5
268
  8
0
 62
     7
 10
77.906800000000004
 20
82.054799999999986
 30
0.0
 11
79.135499999999993
 21
82.054799999999986
 31
0.0
  0
LINE
  5
269
  8
0
 62
     7
 10
80.363900000000001
 20
82.054799999999986
 30
0.0
 11
79.135499999999993
 21
82.054799999999986
 31
0.0
  0
ARC
  5
26A
  8
0
 62
     7
 10
78.556032999999999
 20
88.819144999999978
 30
0.0
 40
0.521632
 50
119.22963799999999
 51
204.990779
  0
ARC
  5
26B
  8
0
 62
     7
 10
78.532274999999998
 20
88.829016000000024
 30
0.0
 40
0.5046260000000001
 50
207.14675500000001
 51
222.32786299999989
  0
LINE
  5
26C
  8
0
 62
     7
 10
78.301299999999998
 20
89.2744
 30
0.0
 11
79.72399999999999
 21
89.2744
 31
0.0
  0
LINE
  5
26D
  8
0
 62
     7
 10
78.159199999999998
 20
87.713700000000003
 30
0.0
 11
79.72399999999999
 21
87.713700000000003
 31
0.0
  0
LINE
  5
26E
  8
0
 62
     7
 10
78.159199999999998
 20
88.476100000000017
 30
0.0
 11
79.72399999999999
 21
88.476100000000017
 31
0.0
  0
LINE
  5
26F
  8
0
 62
     7
 10
78.159199999999998
 20
87.700299999999999
 30
0.0
 11
78.159199999999998
 21
88.489199999999997
 31
0.0
  0
LINE
  5
270
  8
0
 62
     7
 10
78.7864
 20
87.914900000000003
 30
0.0
 11
78.7864
 21
88.274900000000002
 31
0.0
  0
ARC
  5
271
  8
0
 62
     7
 10
78.933759999999992
 20
88.274015999999989
 30
0.0
 40
0.302233
 50
138.03217799999999
 51
179.82703599999999
  0
ARC
  5
272
  8
0
 62
     7
 10
78.934867000000011
 20
87.916252
 30
0.0
 40
0.303341
 50
180.252838
 51
221.887947
  0
LINE
  5
273
  8
0
 62
     7
 10
78.631500000000003
 20
87.914900000000003
 30
0.0
 11
78.631500000000003
 21
88.274900000000002
 31
0.0
  0
ARC
  5
274
  8
0
 62
     7
 10
78.482551999999998
 20
88.273593000000005
 30
0.0
 40
0.303838
 50
0.251967
 51
41.803325999999991
  0
ARC
  5
275
  8
0
 62
     7
 10
78.483017000000004
 20
87.916071000000002
 30
0.0
 40
0.303372
 50
318.16330199999999
 51
359.78140500000001
  0
LINE
  5
276
  8
0
 62
     7
 10
79.646299999999997
 20
87.914900000000003
 30
0.0
 11
79.646299999999997
 21
88.274900000000002
 31
0.0
  0
ARC
  5
277
  8
0
 62
     7
 10
79.948289000000003
 20
88.273912999999993
 30
0.0
 40
0.302003
 50
137.9665029999999
 51
179.80730700000001
  0
ARC
  5
278
  8
0
 62
     7
 10
79.949131000000008
 20
87.916255000000007
 30
0.0
 40
0.302846
 50
180.25369599999999
 51
221.97249400000001
  0
ARC
  5
279
  8
0
 62
     7
 10
79.499258999999995
 20
87.915825999999996
 30
0.0
 40
0.302233
 50
318.032217
 51
359.82703600000002
  0
ARC
  5
27A
  8
0
 62
     7
 10
79.498153000000002
 20
88.273589999999984
 30
0.0
 40
0.303341
 50
0.252819
 51
41.887928000000002
  0
LINE
  5
27B
  8
0
 62
     7
 10
79.801500000000004
 20
87.914900000000003
 30
0.0
 11
79.801500000000004
 21
88.274900000000002
 31
0.0
  0
ARC
  5
27C
  8
0
 62
     7
 10
80.964556999999985
 20
87.916252
 30
0.0
 40
0.303341
 50
180.252838
 51
221.887947
  0
ARC
  5
27D
  8
0
 62
     7
 10
80.963451000000006
 20
88.274015999999989
 30
0.0
 40
0.302233
 50
138.03217799999999
 51
179.82703599999999
  0
LINE
  5
27E
  8
0
 62
     7
 10
80.816400000000002
 20
87.914900000000003
 30
0.0
 11
80.816400000000002
 21
88.274900000000002
 31
0.0
  0
ARC
  5
27F
  8
0
 62
     7
 10
80.513522999999992
 20
87.916275999999996
 30
0.0
 40
0.302902
 50
318.03154199999989
 51
359.74230799999992
  0
ARC
  5
280
  8
0
 62
     7
 10
80.513579000000007
 20
88.273588000000004
 30
0.0
 40
0.302846
 50
0.253676
 51
41.972473999999998
  0
LINE
  5
281
  8
0
 62
     7
 10
80.661199999999994
 20
87.914900000000003
 30
0.0
 11
80.661199999999994
 21
88.274900000000002
 31
0.0
  0
LINE
  5
282
  8
0
 62
     7
 10
81.288399999999996
 20
87.700299999999999
 30
0.0
 11
81.288399999999996
 21
88.489199999999997
 31
0.0
  0
LINE
  5
283
  8
0
 62
     7
 10
81.288399999999996
 20
88.476100000000017
 30
0.0
 11
79.72399999999999
 21
88.476100000000017
 31
0.0
  0
LINE
  5
284
  8
0
 62
     7
 10
81.288399999999996
 20
87.713700000000003
 30
0.0
 11
79.72399999999999
 21
87.713700000000003
 31
0.0
  0
LINE
  5
285
  8
0
 62
     7
 10
81.146299999999997
 20
89.2744
 30
0.0
 11
79.72399999999999
 21
89.2744
 31
0.0
  0
ARC
  5
286
  8
0
 62
     7
 10
80.89025500000001
 20
88.826363999999998
 30
0.0
 40
0.521719
 50
319.742322
 51
45.513290999999988
  0
ARC
  5
287
  8
0
 62
     7
 10
80.906552000000005
 20
88.810748999999987
 30
0.0
 40
0.521927
 50
47.991483999999993
 51
62.655681999999999
  0
ARC
  5
288
  8
0
 62
     7
 10
78.554548999999994
 20
85.898535999999993
 30
0.0
 40
0.519859
 50
139.507138
 51
222.63905600000001
  0
LINE
  5
289
  8
0
 62
     7
 10
81.850800000000007
 20
85.416899999999998
 30
0.0
 11
77.583699999999993
 21
85.416899999999998
 31
0.0
  0
LINE
  5
28A
  8
0
 62
     7
 10
77.906800000000004
 20
82.054799999999986
 30
0.0
 11
77.596599999999995
 21
82.054799999999986
 31
0.0
  0
LINE
  5
28B
  8
0
 62
     7
 10
78.159199999999998
 20
86.236099999999993
 30
0.0
 11
78.159199999999998
 21
87.024000000000001
 31
0.0
  0
ARC
  5
28C
  8
0
 62
     7
 10
78.934910000000002
 20
86.452438999999998
 30
0.0
 40
0.303384
 50
180.25596799999991
 51
221.884818
  0
ARC
  5
28D
  8
0
 62
     7
 10
78.483017000000004
 20
86.452241000000001
 30
0.0
 40
0.303372
 50
318.16330199999999
 51
359.78140500000001
  0
ARC
  5
28E
  8
0
 62
     7
 10
79.949174999999997
 20
86.452441000000007
 30
0.0
 40
0.30289
 50
180.25682800000001
 51
221.96936199999999
  0
LINE
  5
28F
  8
0
 62
     7
 10
79.72399999999999
 20
85.546400000000006
 30
0.0
 11
78.1721
 21
85.546400000000006
 31
0.0
  0
LINE
  5
290
  8
0
 62
     7
 10
79.109499999999997
 20
85.546400000000006
 30
0.0
 11
79.72399999999999
 21
85.546400000000006
 31
0.0
  0
LINE
  5
291
  8
0
 62
     7
 10
78.159199999999998
 20
86.249899999999997
 30
0.0
 11
79.72399999999999
 21
86.249899999999997
 31
0.0
  0
LINE
  5
292
  8
0
 62
     7
 10
78.695800000000006
 20
85.546400000000006
 30
0.0
 11
79.109499999999997
 21
85.546400000000006
 31
0.0
  0
LINE
  5
293
  8
0
 62
     7
 10
78.159199999999998
 20
87.010599999999997
 30
0.0
 11
79.72399999999999
 21
87.010599999999997
 31
0.0
  0
LINE
  5
294
  8
0
 62
     7
 10
78.7864
 20
86.451099999999997
 30
0.0
 11
78.7864
 21
86.809399999999997
 31
0.0
  0
ARC
  5
295
  8
0
 62
     7
 10
78.933759999999992
 20
86.808464000000001
 30
0.0
 40
0.302233
 50
138.03217799999999
 51
179.82703599999999
  0
LINE
  5
296
  8
0
 62
     7
 10
78.631500000000003
 20
86.451099999999997
 30
0.0
 11
78.631500000000003
 21
86.809399999999997
 31
0.0
  0
ARC
  5
297
  8
0
 62
     7
 10
78.482551999999998
 20
86.808040000000005
 30
0.0
 40
0.303838
 50
0.251967
 51
41.803325999999991
  0
LINE
  5
298
  8
0
 62
     7
 10
79.646299999999997
 20
86.451099999999997
 30
0.0
 11
79.646299999999997
 21
86.809399999999997
 31
0.0
  0
ARC
  5
299
  8
0
 62
     7
 10
79.948289000000003
 20
86.808359999999993
 30
0.0
 40
0.302003
 50
137.9665029999999
 51
179.80730700000001
  0
ARC
  5
29A
  8
0
 62
     7
 10
79.498153000000002
 20
86.808036999999999
 30
0.0
 40
0.303341
 50
0.252819
 51
41.887928000000002
  0
LINE
  5
29B
  8
0
 62
     7
 10
79.801500000000004
 20
86.451099999999997
 30
0.0
 11
79.801500000000004
 21
86.809399999999997
 31
0.0
  0
ARC
  5
29C
  8
0
 62
     7
 10
80.963451000000006
 20
86.808464000000001
 30
0.0
 40
0.302233
 50
138.03217799999999
 51
179.82703599999999
  0
LINE
  5
29D
  8
0
 62
     7
 10
80.816400000000002
 20
86.451099999999997
 30
0.0
 11
80.816400000000002
 21
86.809399999999997
 31
0.0
  0
ARC
  5
29E
  8
0
 62
     7
 10
80.513579000000007
 20
86.808035000000004
 30
0.0
 40
0.302846
 50
0.253676
 51
41.972473999999998
  0
LINE
  5
29F
  8
0
 62
     7
 10
80.661199999999994
 20
86.451099999999997
 30
0.0
 11
80.661199999999994
 21
86.809399999999997
 31
0.0
  0
LINE
  5
2A0
  8
0
 62
     7
 10
81.288399999999996
 20
87.010599999999997
 30
0.0
 11
79.72399999999999
 21
87.010599999999997
 31
0.0
  0
LINE
  5
2A1
  8
0
 62
     7
 10
80.751999999999995
 20
85.546400000000006
 30
0.0
 11
80.338399999999993
 21
85.546400000000006
 31
0.0
  0
LINE
  5
2A2
  8
0
 62
     7
 10
81.288399999999996
 20
86.249899999999997
 30
0.0
 11
79.72399999999999
 21
86.249899999999997
 31
0.0
  0
LINE
  5
2A3
  8
0
 62
     7
 10
80.338399999999993
 20
85.546400000000006
 30
0.0
 11
79.72399999999999
 21
85.546400000000006
 31
0.0
  0
LINE
  5
2A4
  8
0
 62
     7
 10
79.72399999999999
 20
85.546400000000006
 30
0.0
 11
81.275499999999994
 21
85.546400000000006
 31
0.0
  0
ARC
  5
2A5
  8
0
 62
     7
 10
79.499258999999995
 20
86.451995999999994
 30
0.0
 40
0.302233
 50
318.032217
 51
359.82703600000002
  0
ARC
  5
2A6
  8
0
 62
     7
 10
80.964600999999988
 20
86.452438999999998
 30
0.0
 40
0.303384
 50
180.25596799999991
 51
221.884818
  0
ARC
  5
2A7
  8
0
 62
     7
 10
80.513522999999992
 20
86.452445999999995
 30
0.0
 40
0.302902
 50
318.03154199999989
 51
359.74230799999992
  0
LINE
  5
2A8
  8
0
 62
     7
 10
81.288399999999996
 20
86.236099999999993
 30
0.0
 11
81.288399999999996
 21
87.024000000000001
 31
0.0
  0
LINE
  5
2A9
  8
0
 62
     7
 10
79.083699999999993
 20
85.416899999999998
 30
0.0
 11
78.825100000000006
 21
85.158500000000004
 31
0.0
  0
LINE
  5
2AA
  8
0
 62
     7
 10
78.825100000000006
 20
82.313500000000005
 30
0.0
 11
79.083699999999993
 21
82.054799999999986
 31
0.0
  0
LINE
  5
2AB
  8
0
 62
     7
 10
80.622600000000006
 20
82.313500000000005
 30
0.0
 11
80.622600000000006
 21
85.158500000000004
 31
0.0
  0
LINE
  5
2AC
  8
0
 62
     7
 10
80.622600000000006
 20
82.313500000000005
 30
0.0
 11
80.363900000000001
 21
82.054799999999986
 31
0.0
  0
LINE
  5
2AD
  8
0
 62
     7
 10
80.363900000000001
 20
85.416899999999998
 30
0.0
 11
80.622600000000006
 21
85.158500000000004
 31
0.0
  0
LINE
  5
2AE
  8
0
 62
     7
 10
78.1721
 20
85.546400000000006
 30
0.0
 11
78.1721
 21
85.416899999999998
 31
0.0
  0
LINE
  5
2AF
  8
0
 62
     7
 10
81.275499999999994
 20
85.546400000000006
 30
0.0
 11
81.275499999999994
 21
85.416899999999998
 31
0.0
  0
LINE
  5
2B0
  8
0
 62
     7
 10
82.109499999999997
 20
85.158500000000004
 30
0.0
 11
82.109499999999997
 21
82.313500000000005
 31
0.0
  0
LINE
  5
2B1
  8
0
 62
     7
 10
82.109499999999997
 20
82.313500000000005
 30
0.0
 11
81.850800000000007
 21
82.054799999999986
 31
0.0
  0
LINE
  5
2B2
  8
0
 62
     7
 10
80.881200000000007
 20
82.054799999999986
 30
0.0
 11
81.850800000000007
 21
82.054799999999986
 31
0.0
  0
LINE
  5
2B3
  8
0
 62
     7
 10
81.850800000000007
 20
85.416899999999998
 30
0.0
 11
82.109499999999997
 21
85.158500000000004
 31
0.0
  0
LINE
  5
2B4
  8
0
 62
     7
 10
80.622600000000006
 20
82.313500000000005
 30
0.0
 11
80.881200000000007
 21
82.054799999999986
 31
0.0
  0
LINE
  5
2B5
  8
0
 62
     7
 10
80.363900000000001
 20
82.054799999999986
 30
0.0
 11
80.881200000000007
 21
82.054799999999986
 31
0.0
  0
LINE
  5
2B6
  8
0
 62
     7
 10
80.881200000000007
 20
85.416899999999998
 30
0.0
 11
80.622600000000006
 21
85.158500000000004
 31
0.0
  0
ARC
  5
2B7
  8
0
 62
     7
 10
80.892516000000001
 20
85.898546999999994
 30
0.0
 40
0.5202640000000001
 50
317.40050400000001
 51
40.453302000000001
  0
ARC
  5
2B8
  8
0
 62
     7
 10
78.553601
 20
87.362144999999998
 30
0.0
 40
0.5195070000000001
 50
139.39173799999989
 51
220.608262
  0
ARC
  5
2B9
  8
0
 62
     7
 10
80.894005000000007
 20
87.362144999999998
 30
0.0
 40
0.5195070000000001
 50
319.391775
 51
40.60822499999999
  0
LINE
  5
2BA
  8
0
 62
     7
 10
77.596599999999995
 20
85.416899999999998
 30
0.0
 11
77.338099999999997
 21
85.158500000000004
 31
0.0
  0
LINE
  5
2BB
  8
0
 62
     7
 10
77.338099999999997
 20
82.313500000000005
 30
0.0
 11
77.596599999999995
 21
82.054799999999986
 31
0.0
  0
LINE
  5
2BC
  8
0
 62
     7
 10
78.566400000000002
 20
85.416899999999998
 30
0.0
 11
78.825100000000006
 21
85.158500000000004
 31
0.0
  0
LINE
  5
2BD
  8
0
 62
     7
 10
77.596599999999995
 20
82.054799999999986
 30
0.0
 11
78.566400000000002
 21
82.054799999999986
 31
0.0
  0
LINE
  5
2BE
  8
0
 62
     7
 10
78.825100000000006
 20
82.313500000000005
 30
0.0
 11
78.566400000000002
 21
82.054799999999986
 31
0.0
  0
LINE
  5
2BF
  8
0
 62
     7
 10
78.825100000000006
 20
85.158500000000004
 30
0.0
 11
78.825100000000006
 21
82.313500000000005
 31
0.0
  0
LINE
  5
2C0
  8
0
 62
     7
 10
77.338099999999997
 20
82.313500000000005
 30
0.0
 11
77.338099999999997
 21
85.158500000000004
 31
0.0
  0
LINE
  5
2C1
  8
0
 62
     7
 10
72.473699999999994
 20
164.35900000000001
 30
0.0
 11
72.473699999999994
 21
197.14400000000001
 31
0.0
  0
LINE
  5
2C2
  8
0
 62
     7
 10
61.973199999999999
 20
197.14400000000001
 30
0.0
 11
61.973199999999999
 21
164.35900000000001
 31
0.0
  0
ARC
  5
2C3
  8
0
 62
     7
 10
61.818863
 20
164.093324
 30
0.0
 40
0.266047
 50
91.229269000000016
 51
164.75443000000001
  0
LINE
  5
2C4
  8
0
 62
     7
 10
61.352699999999999
 20
162.80799999999991
 30
0.0
 11
61.352699999999999
 21
161.77299999999991
 31
0.0
  0
LINE
  5
2C5
  8
0
 62
     7
 10
61.562199999999997
 20
164.1629999999999
 30
0.0
 11
61.223500000000001
 21
162.80799999999991
 31
0.0
  0
LINE
  5
2C6
  8
0
 62
     7
 10
72.884699999999995
 20
164.1629999999999
 30
0.0
 11
73.223600000000005
 21
162.80799999999991
 31
0.0
  0
LINE
  5
2C7
  8
0
 62
     7
 10
73.094399999999993
 20
162.80799999999991
 30
0.0
 11
73.094399999999993
 21
161.77299999999991
 31
0.0
  0
LINE
  5
2C8
  8
0
 62
     7
 10
72.633899999999997
 20
164.35900000000001
 30
0.0
 11
61.813200000000002
 21
164.35900000000001
 31
0.0
  0
ARC
  5
2C9
  8
0
 62
     7
 10
72.627300000000005
 20
164.092377
 30
0.0
 40
0.267015
 50
15.39959599999999
 51
88.578494999999975
  0
LINE
  5
2CA
  8
0
 62
     7
 10
73.223600000000005
 20
162.80799999999991
 30
0.0
 11
61.223500000000001
 21
162.80799999999991
 31
0.0
  0
LINE
  5
2CB
  8
0
 62
     7
 10
61.352699999999999
 20
161.77299999999991
 30
0.0
 11
73.094399999999993
 21
161.77299999999991
 31
0.0
  0
LINE
  5
2CC
  8
0
 62
     7
 10
139.2299999999999
 20
161.77299999999991
 30
0.0
 11
139.2299999999999
 21
156.601
 31
0.0
  0
LINE
  5
2CD
  8
0
 62
     7
 10
139.14599999999999
 20
161.77299999999991
 30
0.0
 11
139.14599999999999
 21
156.601
 31
0.0
  0
LINE
  5
2CE
  8
0
 62
     7
 10
139.14599999999999
 20
149.52199999999999
 30
0.0
 11
139.14599999999999
 21
150.48500000000001
 31
0.0
  0
LINE
  5
2CF
  8
0
 62
     7
 10
139.2299999999999
 20
150.48500000000001
 30
0.0
 11
139.2299999999999
 21
149.66699999999989
 31
0.0
  0
LINE
  5
2D0
  8
0
 62
     7
 10
139.74700000000001
 20
150.48500000000001
 30
0.0
 11
139.94699999999989
 21
150.601
 31
0.0
  0
LINE
  5
2D1
  8
0
 62
     7
 10
139.09999999999999
 20
150.48500000000001
 30
0.0
 11
139.74700000000001
 21
150.48500000000001
 31
0.0
  0
LINE
  5
2D2
  8
0
 62
     7
 10
139.40000000000001
 20
150.48500000000001
 30
0.0
 11
139.1999999999999
 21
150.601
 31
0.0
  0
LINE
  5
2D3
  8
0
 62
     7
 10
139.0
 20
150.48500000000001
 30
0.0
 11
139.1999999999999
 21
150.601
 31
0.0
  0
LINE
  5
2D4
  8
0
 62
     7
 10
139.94699999999989
 20
150.601
 30
0.0
 11
139.94699999999989
 21
155.773
 31
0.0
  0
LINE
  5
2D5
  8
0
 62
     7
 10
139.1999999999999
 20
150.601
 30
0.0
 11
139.1999999999999
 21
155.773
 31
0.0
  0
ARC
  5
2D6
  8
0
 62
     7
 10
66.145681999999994
 20
236.45142300000001
 30
0.0
 40
0.215066
 50
182.09390200000001
 51
267.81071400000002
  0
LINE
  5
2D7
  8
0
 62
     7
 10
68.309600000000003
 20
236.23699999999991
 30
0.0
 11
66.137500000000003
 21
236.23699999999991
 31
0.0
  0
ARC
  5
2D8
  8
0
 62
     7
 10
68.301362999999995
 20
236.45217400000001
 30
0.0
 40
0.215818
 50
272.19085899999988
 51
357.71389599999992
  0
ARC
  5
2D9
  8
0
 62
     7
 10
117.3327679999999
 20
200.12684499999989
 30
0.0
 40
0.215475
 50
182.194692
 51
267.70992399999989
  0
ARC
  5
2DA
  8
0
 62
     7
 10
117.332455
 20
202.28315799999999
 30
0.0
 40
0.215138
 50
92.210250999999985
 51
177.98038700000001
  0
LINE
  5
2DB
  8
0
 62
     7
 10
117.117
 20
200.119
 30
0.0
 11
117.117
 21
202.29099999999991
 31
0.0
  0
ARC
  5
2DC
  8
0
 62
     7
 10
104.381264
 20
183.327697
 30
0.0
 40
0.537431
 50
112.11168000000001
 51
197.8724729999999
  0
ARC
  5
2DD
  8
0
 62
     7
 10
104.3608209999999
 20
183.34441599999991
 30
0.0
 40
0.5235760000000002
 50
200.30101999999991
 51
244.72602999999989
  0
LINE
  5
2DE
  8
0
 62
     7
 10
104.7329999999999
 20
180.31
 30
0.0
 11
107.28699999999991
 21
179.119
 31
0.0
  0
LINE
  5
2DF
  8
0
 62
     7
 10
104.562
 20
180.61799999999991
 30
0.0
 11
106.18000000000001
 21
179.86399999999989
 31
0.0
  0
LINE
  5
2E0
  8
0
 62
     7
 10
106.55799999999989
 20
180.67500000000001
 30
0.0
 11
106.18000000000001
 21
179.86399999999989
 31
0.0
  0
LINE
  5
2E1
  8
0
 62
     7
 10
105.1779999999999
 20
180.10299999999989
 30
0.0
 11
105.163
 21
180.071
 31
0.0
  0
ARC
  5
2E2
  8
0
 62
     7
 10
105.194468
 20
180.0580939999999
 30
0.0
 40
0.033834
 50
157.37241900000001
 51
242.63058899999999
  0
ARC
  5
2E3
  8
0
 62
     7
 10
109.652455
 20
184.19053099999991
 30
0.0
 40
5.5477059999999989
 50
231.24838199999999
 51
244.999222
  0
LINE
  5
2E4
  8
0
 62
     7
 10
104.7329999999999
 20
180.31
 30
0.0
 11
104.562
 21
180.61799999999991
 31
0.0
  0
LINE
  5
2E5
  8
0
 62
     7
 10
105.3489999999999
 20
182.3059999999999
 30
0.0
 11
104.562
 21
180.61799999999991
 31
0.0
  0
ARC
  5
2E6
  8
0
 62
     7
 10
112.31173099999999
 20
179.63581499999989
 30
0.0
 40
0.5225030000000001
 50
245.263417
 51
289.74449099999998
  0
ARC
  5
2E7
  8
0
 62
     7
 10
105.4558399999999
 20
175.20159200000001
 30
0.0
 40
5.58528
 50
51.294837000000008
 51
64.952728000000008
  0
LINE
  5
2E8
  8
0
 62
     7
 10
108.94799999999999
 20
179.56
 30
0.0
 11
108.56999999999989
 21
178.749
 31
0.0
  0
LINE
  5
2E9
  8
0
 62
     7
 10
112.0929999999999
 20
179.16099999999989
 30
0.0
 11
108.16200000000001
 21
180.994
 31
0.0
  0
LINE
  5
2EA
  8
0
 62
     7
 10
109.842
 20
177.92799999999991
 30
0.0
 11
110.1879999999999
 21
177.995
 31
0.0
  0
LINE
  5
2EB
  8
0
 62
     7
 10
109.39700000000001
 20
178.13499999999991
 30
0.0
 11
109.842
 21
177.92799999999991
 31
0.0
  0
ARC
  5
2EC
  8
0
 62
     7
 10
109.352458
 20
178.11941899999991
 30
0.0
 40
0.033926
 50
247.380472
 51
332.21729599999992
  0
LINE
  5
2ED
  8
0
 62
     7
 10
109.842
 20
177.92799999999991
 30
0.0
 11
110.1879999999999
 21
177.995
 31
0.0
  0
ARC
  5
2EE
  8
0
 62
     7
 10
109.352458
 20
178.11941899999991
 30
0.0
 40
0.033926
 50
247.380472
 51
332.21729599999992
  0
LINE
  5
2EF
  8
0
 62
     7
 10
109.39700000000001
 20
178.13499999999991
 30
0.0
 11
109.38200000000001
 21
178.10400000000001
 31
0.0
  0
LINE
  5
2F0
  8
0
 62
     7
 10
110.1879999999999
 20
177.995
 30
0.0
 11
108.56999999999989
 21
178.749
 31
0.0
  0
LINE
  5
2F1
  8
0
 62
     7
 10
110.97499999999999
 20
179.68299999999991
 30
0.0
 11
110.1879999999999
 21
177.995
 31
0.0
  0
LINE
  5
2F2
  8
0
 62
     7
 10
110.97499999999999
 20
179.68299999999991
 30
0.0
 11
110.1879999999999
 21
177.995
 31
0.0
  0
LINE
  5
2F3
  8
0
 62
     7
 10
105.2559999999999
 20
179.99199999999999
 30
0.0
 11
109.339
 21
178.08799999999991
 31
0.0
  0
LINE
  5
2F4
  8
0
 62
     7
 10
105.179
 20
180.02799999999991
 30
0.0
 11
109.339
 21
178.08799999999991
 31
0.0
  0
ARC
  5
2F5
  8
0
 62
     7
 10
105.46583200000001
 20
175.2050659999999
 30
0.0
 40
5.577907999999999
 50
65.030601000000004
 51
78.710258999999994
  0
ARC
  5
2F6
  8
0
 62
     7
 10
109.6698469999999
 20
184.241792
 30
0.0
 40
5.6015169999999994
 50
245.059586
 51
258.68131299999988
  0
LINE
  5
2F7
  8
0
 62
     7
 10
109.842
 20
177.92799999999991
 30
0.0
 11
107.28699999999991
 21
179.119
 31
0.0
  0
LINE
  5
2F8
  8
0
 62
     7
 10
108.16200000000001
 20
180.994
 30
0.0
 11
104.137
 21
182.8709999999999
 31
0.0
  0
LINE
  5
2F9
  8
0
 62
     7
 10
130.566
 20
204.04900000000001
 30
0.0
 11
130.566
 21
204.10099999999991
 31
0.0
  0
ARC
  5
2FA
  8
0
 62
     7
 10
130.78079
 20
204.09323399999991
 30
0.0
 40
0.215126
 50
92.20389200000001
 51
177.891492
  0
ARC
  5
2FB
  8
0
 62
     7
 10
124.912312
 20
201.20147499999999
 30
0.0
 40
5.8016389999999989
 50
347.02437200000003
 51
0.03322
  0
ARC
  5
2FC
  8
0
 62
     7
 10
124.8680039999999
 20
201.20317700000001
 30
0.0
 40
5.8459459999999988
 50
0.016288
 51
12.926119
  0
LINE
  5
2FD
  8
0
 62
     7
 10
130.566
 20
204.04900000000001
 30
0.0
 11
130.566
 21
202.511
 31
0.0
  0
ARC
  5
2FE
  8
0
 62
     7
 10
141.98809900000001
 20
204.09289799999991
 30
0.0
 40
0.215475
 50
2.1946720000000002
 51
87.709903999999995
  0
LINE
  5
2FF
  8
0
 62
     7
 10
142.203
 20
203.8429999999999
 30
0.0
 11
142.203
 21
204.10099999999991
 31
0.0
  0
LINE
  5
300
  8
0
 62
     7
 10
130.773
 20
204.30799999999991
 30
0.0
 11
141.99700000000001
 21
204.30799999999991
 31
0.0
  0
LINE
  5
301
  8
0
 62
     7
 10
131.1339999999999
 20
197.14400000000001
 30
0.0
 11
131.7289999999999
 21
197.14400000000001
 31
0.0
  0
ARC
  5
302
  8
0
 62
     7
 10
130.64653100000001
 20
197.7422289999999
 30
0.0
 40
0.080771
 50
182.009997
 51
267.48073999999991
  0
LINE
  5
303
  8
0
 62
     7
 10
130.69499999999999
 20
197.66200000000001
 30
0.0
 11
130.64299999999989
 21
197.66200000000001
 31
0.0
  0
LINE
  5
304
  8
0
 62
     7
 10
131.16
 20
197.14400000000001
 30
0.0
 11
136.38499999999999
 21
197.14400000000001
 31
0.0
  0
LINE
  5
305
  8
0
 62
     7
 10
130.69499999999999
 20
197.66200000000001
 30
0.0
 11
136.38499999999999
 21
197.66200000000001
 31
0.0
  0
ARC
  5
306
  8
0
 62
     7
 10
138.20973499999999
 20
195.20245199999991
 30
0.0
 40
7.3125629999999999
 50
160.3494629999999
 51
164.59936499999989
  0
LINE
  5
307
  8
0
 62
     7
 10
131.1339999999999
 20
197.14400000000001
 30
0.0
 11
131.1339999999999
 21
194.43700000000001
 31
0.0
  0
ARC
  5
308
  8
0
 62
     7
 10
142.12285299999999
 20
197.74209899999991
 30
0.0
 40
0.080609
 50
271.92223200000001
 51
358.07777799999991
  0
LINE
  5
309
  8
0
 62
     7
 10
142.0749999999999
 20
197.66200000000001
 30
0.0
 11
142.126
 21
197.66200000000001
 31
0.0
  0
ARC
  5
30A
  8
0
 62
     7
 10
134.21648500000001
 20
195.10398499999999
 30
0.0
 40
7.6687380000000003
 50
15.430678
 51
19.481560000000002
  0
LINE
  5
30B
  8
0
 62
     7
 10
136.38499999999999
 20
197.14400000000001
 30
0.0
 11
141.63499999999991
 21
197.14400000000001
 31
0.0
  0
LINE
  5
30C
  8
0
 62
     7
 10
136.38499999999999
 20
197.66200000000001
 30
0.0
 11
142.0749999999999
 21
197.66200000000001
 31
0.0
  0
ARC
  5
30D
  8
0
 62
     7
 10
127.1700739999999
 20
188.984374
 30
0.0
 40
5.2600800000000003
 50
315.46040499999992
 51
33.126151
  0
ARC
  5
30E
  8
0
 62
     7
 10
129.00985900000001
 20
194.47590099999999
 30
0.0
 40
2.1247539999999998
 50
291.04166400000003
 51
358.94841300000002
  0
ARC
  5
30F
  8
0
 62
     7
 10
128.98595900000001
 20
182.247803
 30
0.0
 40
2.1497669999999989
 50
2.1197469999999998
 51
87.889783999999992
  0
ARC
  5
310
  8
0
 62
     7
 10
129.06321299999991
 20
182.33701199999999
 30
0.0
 40
2.0591009999999992
 50
89.946995999999999
 51
110.0434799999999
  0
LINE
  5
311
  8
0
 62
     7
 10
142.203
 20
204.04900000000001
 30
0.0
 11
142.203
 21
197.73899999999989
 31
0.0
  0
LINE
  5
312
  8
0
 62
     7
 10
130.566
 20
199.899
 30
0.0
 11
130.566
 21
197.73899999999989
 31
0.0
  0
ARC
  5
313
  8
0
  6
AIGENLINE002
 62
     7
 10
144.85894999999991
 20
200.97185099999999
 30
0.0
 40
0.215169
 50
337.23122199999989
 51
62.758073000000003
  0
LINE
  5
314
  8
0
  6
AIGENLINE002
 62
     7
 10
144.94799999999989
 20
200.654
 30
0.0
 11
145.05699999999999
 21
200.88900000000001
 31
0.0
  0
LINE
  5
315
  8
0
  6
AIGENLINE002
 62
     7
 10
134.488
 20
205.75999999999991
 30
0.0
 11
133.83699999999999
 21
204.3649999999999
 31
0.0
  0
LINE
  5
316
  8
0
  6
AIGENLINE002
 62
     7
 10
134.488
 20
205.75999999999991
 30
0.0
 11
134.50999999999991
 21
205.80699999999999
 31
0.0
  0
ARC
  5
317
  8
0
  6
AIGENLINE002
 62
     7
 10
134.7014879999999
 20
205.707853
 30
0.0
 40
0.215907
 50
67.330643000000009
 51
152.61248499999999
  0
LINE
  5
318
  8
0
  6
AIGENLINE002
 62
     7
 10
134.78499999999991
 20
205.90700000000001
 30
0.0
 11
144.95699999999999
 21
201.1629999999999
 31
0.0
  0
ARC
  5
319
  8
0
  6
AIGENLINE002
 62
     7
 10
142.29663999999991
 20
195.16003499999999
 30
0.0
 40
0.081329
 50
247.43276399999999
 51
332.502792
  0
LINE
  5
31A
  8
0
  6
AIGENLINE002
 62
     7
 10
142.21899999999999
 20
195.10699999999991
 30
0.0
 11
142.2649999999999
 21
195.08500000000001
 31
0.0
  0
LINE
  5
31B
  8
0
  6
AIGENLINE002
 62
     7
 10
131.905
 20
199.916
 30
0.0
 11
131.858
 21
199.93799999999999
 31
0.0
  0
ARC
  5
31C
  8
0
  6
AIGENLINE002
 62
     7
 10
131.89626699999991
 20
200.009725
 30
0.0
 40
0.081342
 50
157.32797099999991
 51
242.269777
  0
LINE
  5
31D
  8
0
  6
AIGENLINE002
 62
     7
 10
131.905
 20
199.916
 30
0.0
 11
142.21899999999999
 21
195.10699999999991
 31
0.0
  0
LINE
  5
31E
  8
0
  6
AIGENLINE002
 62
     7
 10
145.035
 20
200.84200000000001
 30
0.0
 11
142.369
 21
195.12200000000001
 31
0.0
  0
LINE
  5
31F
  8
0
  6
AIGENLINE002
 62
     7
 10
132.73400000000001
 20
201.99799999999991
 30
0.0
 11
131.821
 21
200.041
 31
0.0
  0
LINE
  5
320
  8
0
  6
AIGENLINE002
 62
     7
 10
120.63800000000001
 20
207.88099999999989
 30
0.0
 11
121.557
 21
209.84999999999999
 31
0.0
  0
ARC
  5
321
  8
0
  6
AIGENLINE002
 62
     7
 10
120.83705500000001
 20
207.797381
 30
0.0
 40
0.215491
 50
157.22860700000001
 51
242.71454
  0
LINE
  5
322
  8
0
  6
AIGENLINE002
 62
     7
 10
132.74199999999999
 20
202.00899999999999
 30
0.0
 11
120.738
 21
207.60599999999999
 31
0.0
  0
LINE
  5
323
  8
0
 62
     7
 10
141.63499999999991
 20
177.2299999999999
 30
0.0
 11
141.62999999999991
 21
177.19399999999999
 31
0.0
  0
LINE
  5
324
  8
0
 62
     7
 10
141.62999999999991
 20
177.19399999999999
 30
0.0
 11
141.62100000000001
 21
177.09
 31
0.0
  0
LINE
  5
325
  8
0
 62
     7
 10
141.62100000000001
 20
177.09
 30
0.0
 11
141.608
 21
176.928
 31
0.0
  0
LINE
  5
326
  8
0
 62
     7
 10
141.608
 20
176.928
 30
0.0
 11
141.5989999999999
 21
176.73199999999991
 31
0.0
  0
LINE
  5
327
  8
0
 62
     7
 10
141.59700000000001
 20
170.119
 30
0.0
 11
141.60099999999991
 21
169.90499999999989
 31
0.0
  0
LINE
  5
328
  8
0
 62
     7
 10
141.60099999999991
 20
169.90499999999989
 30
0.0
 11
141.61199999999999
 21
169.71599999999989
 31
0.0
  0
LINE
  5
329
  8
0
 62
     7
 10
141.61199999999999
 20
169.71599999999989
 30
0.0
 11
141.62499999999989
 21
169.571
 31
0.0
  0
LINE
  5
32A
  8
0
 62
     7
 10
141.62499999999989
 20
169.571
 30
0.0
 11
141.6329999999999
 21
169.48799999999989
 31
0.0
  0
LINE
  5
32B
  8
0
 62
     7
 10
141.6329999999999
 20
169.48799999999989
 30
0.0
 11
141.63499999999991
 21
169.47200000000001
 31
0.0
  0
LINE
  5
32C
  8
0
 62
     7
 10
141.59700000000001
 20
176.73199999999991
 30
0.0
 11
141.59700000000001
 21
170.119
 31
0.0
  0
LINE
  5
32D
  8
0
 62
     7
 10
137.67799999999991
 20
150.48500000000001
 30
0.0
 11
137.67799999999991
 21
149.66699999999989
 31
0.0
  0
LINE
  5
32E
  8
0
 62
     7
 10
137.90700000000001
 20
150.48500000000001
 30
0.0
 11
137.70699999999999
 21
150.601
 31
0.0
  0
LINE
  5
32F
  8
0
 62
     7
 10
137.50700000000001
 20
150.48500000000001
 30
0.0
 11
137.70699999999999
 21
150.601
 31
0.0
  0
LINE
  5
330
  8
0
 62
     7
 10
137.70699999999999
 20
150.48500000000001
 30
0.0
 11
137.15999999999991
 21
150.48500000000001
 31
0.0
  0
LINE
  5
331
  8
0
 62
     7
 10
137.70699999999999
 20
150.48500000000001
 30
0.0
 11
139.09999999999999
 21
150.48500000000001
 31
0.0
  0
LINE
  5
332
  8
0
 62
     7
 10
137.15999999999991
 20
150.48500000000001
 30
0.0
 11
136.96100000000001
 21
150.601
 31
0.0
  0
LINE
  5
333
  8
0
 62
     7
 10
139.09999999999999
 20
149.66699999999989
 30
0.0
 11
137.67799999999991
 21
149.66699999999989
 31
0.0
  0
LINE
  5
334
  8
0
 62
     7
 10
137.761
 20
149.52199999999999
 30
0.0
 11
137.761
 21
150.48500000000001
 31
0.0
  0
LINE
  5
335
  8
0
 62
     7
 10
137.70699999999999
 20
150.601
 30
0.0
 11
137.70699999999999
 21
155.773
 31
0.0
  0
LINE
  5
336
  8
0
 62
     7
 10
136.96100000000001
 20
150.601
 30
0.0
 11
136.96100000000001
 21
155.773
 31
0.0
  0
LINE
  5
337
  8
0
 62
     7
 10
137.761
 20
161.77299999999991
 30
0.0
 11
137.761
 21
156.601
 31
0.0
  0
LINE
  5
338
  8
0
 62
     7
 10
137.67799999999991
 20
161.77299999999991
 30
0.0
 11
137.67799999999991
 21
156.601
 31
0.0
  0
LINE
  5
339
  8
0
 62
     7
 10
140.37200000000001
 20
156.601
 30
0.0
 11
140.37200000000001
 21
161.77299999999991
 31
0.0
  0
LINE
  5
33A
  8
0
 62
     7
 10
141.63499999999991
 20
164.35900000000001
 30
0.0
 11
141.63499999999991
 21
169.47200000000001
 31
0.0
  0
ARC
  5
33B
  8
0
 62
     7
 10
146.30433899999991
 20
176.65168799999989
 30
0.0
 40
0.080813
 50
2.0574439999999998
 51
87.942545999999993
  0
ARC
  5
33C
  8
0
 62
     7
 10
146.304417
 20
175.5198629999999
 30
0.0
 40
0.080761
 50
272.00342999999998
 51
357.48728699999998
  0
LINE
  5
33D
  8
0
 62
     7
 10
146.38499999999991
 20
181.624
 30
0.0
 11
146.38499999999991
 21
177.35499999999999
 31
0.0
  0
LINE
  5
33E
  8
0
 62
     7
 10
146.38499999999991
 20
176.655
 30
0.0
 11
146.38499999999991
 21
175.51599999999999
 31
0.0
  0
LINE
  5
33F
  8
0
 62
     7
 10
141.59700000000001
 20
175.43899999999999
 30
0.0
 11
146.30699999999999
 21
175.43899999999999
 31
0.0
  0
LINE
  5
340
  8
0
 62
     7
 10
141.5989999999999
 20
176.73199999999991
 30
0.0
 11
146.30699999999999
 21
176.73199999999991
 31
0.0
  0
LINE
  5
341
  8
0
 62
     7
 10
131.1339999999999
 20
182.32699999999991
 30
0.0
 11
131.1339999999999
 21
164.35900000000001
 31
0.0
  0
LINE
  5
342
  8
0
 62
     7
 10
141.63499999999991
 20
177.2299999999999
 30
0.0
 11
141.63499999999991
 21
197.14400000000001
 31
0.0
  0
LINE
  5
343
  8
0
 62
     7
 10
104.1789999999999
 20
183.82599999999999
 30
0.0
 11
129.773
 21
192.49299999999991
 31
0.0
  0
LINE
  5
344
  8
0
 62
     7
 10
128.357
 20
184.2709999999999
 30
0.0
 11
112.488
 21
179.14400000000001
 31
0.0
  0
LINE
  5
345
  8
0
 62
     7
 10
65.930800000000005
 20
236.44399999999999
 30
0.0
 11
65.930800000000005
 21
249.83099999999999
 31
0.0
  0
LINE
  5
346
  8
0
 62
     7
 10
68.516999999999996
 20
249.83099999999999
 30
0.0
 11
68.516999999999996
 21
236.44399999999999
 31
0.0
  0
LINE
  5
347
  8
0
 62
     7
 10
130.56899999999999
 20
199.91199999999989
 30
0.0
 11
117.324
 21
199.91199999999989
 31
0.0
  0
LINE
  5
348
  8
0
 62
     7
 10
117.324
 20
202.49799999999991
 30
0.0
 11
130.56899999999999
 21
202.49799999999991
 31
0.0
  0
LINE
  5
349
  8
0
 62
     7
 10
138.453
 20
149.21899999999991
 30
0.0
 11
138.453
 21
148.185
 31
0.0
  0
LINE
  5
34A
  8
0
 62
     7
 10
137.93600000000001
 20
148.185
 30
0.0
 11
137.93600000000001
 21
149.21899999999991
 31
0.0
  0
LINE
  5
34B
  8
0
 62
     7
 10
138.971
 20
148.185
 30
0.0
 11
138.971
 21
149.21899999999991
 31
0.0
  0
LINE
  5
34C
  8
0
 62
     7
 10
137.93600000000001
 20
148.185
 30
0.0
 11
138.971
 21
148.185
 31
0.0
  0
LINE
  5
34D
  8
0
 62
     7
 10
138.971
 20
148.185
 30
0.0
 11
138.84999999999999
 21
147.92599999999999
 31
0.0
  0
LINE
  5
34E
  8
0
 62
     7
 10
137.93600000000001
 20
148.185
 30
0.0
 11
138.05699999999999
 21
147.92599999999999
 31
0.0
  0
LINE
  5
34F
  8
0
 62
     7
 10
138.05699999999999
 20
147.92599999999999
 30
0.0
 11
138.84999999999999
 21
147.92599999999999
 31
0.0
  0
LINE
  5
350
  8
0
 62
     7
 10
138.971
 20
149.21899999999991
 30
0.0
 11
137.93600000000001
 21
149.21899999999991
 31
0.0
  0
LINE
  5
351
  8
0
 62
     7
 10
126.50399999999991
 20
89.2744
 30
0.0
 11
126.50399999999991
 21
120.4039999999999
 31
0.0
  0
LINE
  5
352
  8
0
 62
     7
 10
126.69799999999989
 20
82.054799999999986
 30
0.0
 11
127.92700000000001
 21
82.054799999999986
 31
0.0
  0
LINE
  5
353
  8
0
 62
     7
 10
129.15499999999989
 20
82.054799999999986
 30
0.0
 11
127.92700000000001
 21
82.054799999999986
 31
0.0
  0
LINE
  5
354
  8
0
 62
     7
 10
126.36199999999999
 20
86.236099999999993
 30
0.0
 11
126.36199999999999
 21
87.024000000000001
 31
0.0
  0
ARC
  5
355
  8
0
 62
     7
 10
127.1364539999999
 20
86.452444000000014
 30
0.0
 40
0.302398
 50
180.2576929999999
 51
222.05385200000001
  0
ARC
  5
356
  8
0
 62
     7
 10
126.6845639999999
 20
86.452490999999995
 30
0.0
 40
0.304529
 50
318.29494299999988
 51
359.73526600000002
  0
ARC
  5
357
  8
0
 62
     7
 10
128.151386
 20
86.452444000000014
 30
0.0
 40
0.302398
 50
180.2576929999999
 51
222.05385200000001
  0
LINE
  5
358
  8
0
 62
     7
 10
127.92700000000001
 20
85.546400000000006
 30
0.0
 11
126.3749999999999
 21
85.546400000000006
 31
0.0
  0
LINE
  5
359
  8
0
 62
     7
 10
127.312
 20
85.546400000000006
 30
0.0
 11
127.92700000000001
 21
85.546400000000006
 31
0.0
  0
LINE
  5
35A
  8
0
 62
     7
 10
126.36199999999999
 20
86.249899999999997
 30
0.0
 11
127.92700000000001
 21
86.249899999999997
 31
0.0
  0
ARC
  5
35B
  8
0
 62
     7
 10
126.7573379999999
 20
85.898630000000011
 30
0.0
 40
0.519732
 50
139.508858
 51
222.66594499999999
  0
LINE
  5
35C
  8
0
 62
     7
 10
126.899
 20
85.546400000000006
 30
0.0
 11
127.312
 21
85.546400000000006
 31
0.0
  0
LINE
  5
35D
  8
0
 62
     7
 10
126.50399999999991
 20
89.2744
 30
0.0
 11
127.92700000000001
 21
89.2744
 31
0.0
  0
LINE
  5
35E
  8
0
 62
     7
 10
126.36199999999999
 20
87.010599999999997
 30
0.0
 11
127.92700000000001
 21
87.010599999999997
 31
0.0
  0
LINE
  5
35F
  8
0
 62
     7
 10
126.36199999999999
 20
87.713700000000003
 30
0.0
 11
127.92700000000001
 21
87.713700000000003
 31
0.0
  0
LINE
  5
360
  8
0
 62
     7
 10
126.36199999999999
 20
88.476100000000017
 30
0.0
 11
127.92700000000001
 21
88.476100000000017
 31
0.0
  0
ARC
  5
361
  8
0
 62
     7
 10
126.75886
 20
88.819345999999996
 30
0.0
 40
0.5215180000000002
 50
119.25236200000001
 51
205.02098399999991
  0
ARC
  5
362
  8
0
 62
     7
 10
126.7151579999999
 20
88.814479000000006
 30
0.0
 40
0.4800640000000001
 50
206.70096099999989
 51
222.651893
  0
ARC
  5
363
  8
0
 62
     7
 10
126.75600799999999
 20
87.362144999999998
 30
0.0
 40
0.5191520000000001
 50
139.35815899999989
 51
220.641841
  0
LINE
  5
364
  8
0
 62
     7
 10
126.36199999999999
 20
87.700299999999999
 30
0.0
 11
126.36199999999999
 21
88.489199999999997
 31
0.0
  0
LINE
  5
365
  8
0
 62
     7
 10
126.9889999999999
 20
87.914900000000003
 30
0.0
 11
126.9889999999999
 21
88.274900000000002
 31
0.0
  0
LINE
  5
366
  8
0
 62
     7
 10
126.9889999999999
 20
86.451099999999997
 30
0.0
 11
126.9889999999999
 21
86.809399999999997
 31
0.0
  0
ARC
  5
367
  8
0
 62
     7
 10
127.13583199999999
 20
86.808256999999983
 30
0.0
 40
0.301775
 50
137.90096199999999
 51
179.7874929999999
  0
ARC
  5
368
  8
0
 62
     7
 10
127.13583199999999
 20
88.273809999999997
 30
0.0
 40
0.301775
 50
137.90096199999999
 51
179.7874929999999
  0
ARC
  5
369
  8
0
 62
     7
 10
127.136411
 20
87.916257000000002
 30
0.0
 40
0.302355
 50
180.25456
 51
222.05698499999991
  0
LINE
  5
36A
  8
0
 62
     7
 10
126.834
 20
87.914900000000003
 30
0.0
 11
126.834
 21
88.274900000000002
 31
0.0
  0
LINE
  5
36B
  8
0
 62
     7
 10
126.834
 20
86.451099999999997
 30
0.0
 11
126.834
 21
86.809399999999997
 31
0.0
  0
ARC
  5
36C
  8
0
 62
     7
 10
126.684755
 20
86.808042
 30
0.0
 40
0.304338
 50
0.251121
 51
41.718670000000003
  0
ARC
  5
36D
  8
0
 62
     7
 10
126.684755
 20
88.273595
 30
0.0
 40
0.304338
 50
0.251121
 51
41.718670000000003
  0
ARC
  5
36E
  8
0
 62
     7
 10
126.6845639999999
 20
87.916320999999996
 30
0.0
 40
0.304529
 50
318.29494299999988
 51
359.73526600000002
  0
LINE
  5
36F
  8
0
 62
     7
 10
127.8489999999999
 20
87.914900000000003
 30
0.0
 11
127.8489999999999
 21
88.274900000000002
 31
0.0
  0
LINE
  5
370
  8
0
 62
     7
 10
127.8489999999999
 20
86.451099999999997
 30
0.0
 11
127.8489999999999
 21
86.809399999999997
 31
0.0
  0
ARC
  5
371
  8
0
 62
     7
 10
128.1507629999999
 20
86.808256999999983
 30
0.0
 40
0.301775
 50
137.90096199999999
 51
179.7874929999999
  0
ARC
  5
372
  8
0
 62
     7
 10
128.1507629999999
 20
88.273809999999997
 30
0.0
 40
0.301775
 50
137.90096199999999
 51
179.7874929999999
  0
ARC
  5
373
  8
0
 62
     7
 10
128.151342
 20
87.916257000000002
 30
0.0
 40
0.302355
 50
180.25456
 51
222.05698499999991
  0
ARC
  5
374
  8
0
 62
     7
 10
127.6994949999999
 20
87.916320999999996
 30
0.0
 40
0.304529
 50
318.29494299999988
 51
359.73526600000002
  0
ARC
  5
375
  8
0
 62
     7
 10
127.699686
 20
88.273595
 30
0.0
 40
0.304338
 50
0.251121
 51
41.718670000000003
  0
ARC
  5
376
  8
0
 62
     7
 10
127.699686
 20
86.808042
 30
0.0
 40
0.304338
 50
0.251121
 51
41.718670000000003
  0
LINE
  5
377
  8
0
 62
     7
 10
128.00399999999991
 20
86.451099999999997
 30
0.0
 11
128.00399999999991
 21
86.809399999999997
 31
0.0
  0
LINE
  5
378
  8
0
 62
     7
 10
128.00399999999991
 20
87.914900000000003
 30
0.0
 11
128.00399999999991
 21
88.274900000000002
 31
0.0
  0
ARC
  5
379
  8
0
 62
     7
 10
129.1662739999999
 20
87.916257000000002
 30
0.0
 40
0.302355
 50
180.25456
 51
222.05698499999991
  0
ARC
  5
37A
  8
0
 62
     7
 10
129.16569499999989
 20
88.273809999999997
 30
0.0
 40
0.301775
 50
137.90096199999999
 51
179.7874929999999
  0
ARC
  5
37B
  8
0
 62
     7
 10
129.16569499999989
 20
86.808256999999983
 30
0.0
 40
0.301775
 50
137.90096199999999
 51
179.7874929999999
  0
LINE
  5
37C
  8
0
 62
     7
 10
129.01900000000001
 20
86.451099999999997
 30
0.0
 11
129.01900000000001
 21
86.809399999999997
 31
0.0
  0
LINE
  5
37D
  8
0
 62
     7
 10
129.01900000000001
 20
87.914900000000003
 30
0.0
 11
129.01900000000001
 21
88.274900000000002
 31
0.0
  0
ARC
  5
37E
  8
0
 62
     7
 10
128.71442699999989
 20
87.916320999999996
 30
0.0
 40
0.304529
 50
318.29494299999988
 51
359.73526600000002
  0
ARC
  5
37F
  8
0
 62
     7
 10
128.714618
 20
88.273595
 30
0.0
 40
0.304338
 50
0.251121
 51
41.718670000000003
  0
ARC
  5
380
  8
0
 62
     7
 10
128.714618
 20
86.808042
 30
0.0
 40
0.304338
 50
0.251121
 51
41.718670000000003
  0
LINE
  5
381
  8
0
 62
     7
 10
128.864
 20
86.451099999999997
 30
0.0
 11
128.864
 21
86.809399999999997
 31
0.0
  0
LINE
  5
382
  8
0
 62
     7
 10
128.864
 20
87.914900000000003
 30
0.0
 11
128.864
 21
88.274900000000002
 31
0.0
  0
LINE
  5
383
  8
0
 62
     7
 10
129.49199999999999
 20
87.700299999999999
 30
0.0
 11
129.49199999999999
 21
88.489199999999997
 31
0.0
  0
LINE
  5
384
  8
0
 62
     7
 10
129.49199999999999
 20
88.476100000000017
 30
0.0
 11
127.92700000000001
 21
88.476100000000017
 31
0.0
  0
LINE
  5
385
  8
0
 62
     7
 10
129.49199999999999
 20
87.713700000000003
 30
0.0
 11
127.92700000000001
 21
87.713700000000003
 31
0.0
  0
LINE
  5
386
  8
0
 62
     7
 10
129.49199999999999
 20
87.010599999999997
 30
0.0
 11
127.92700000000001
 21
87.010599999999997
 31
0.0
  0
LINE
  5
387
  8
0
 62
     7
 10
129.34899999999999
 20
89.2744
 30
0.0
 11
127.92700000000001
 21
89.2744
 31
0.0
  0
LINE
  5
388
  8
0
 62
     7
 10
128.95500000000001
 20
85.546400000000006
 30
0.0
 11
128.54099999999991
 21
85.546400000000006
 31
0.0
  0
LINE
  5
389
  8
0
 62
     7
 10
129.49199999999999
 20
86.249899999999997
 30
0.0
 11
127.92700000000001
 21
86.249899999999997
 31
0.0
  0
LINE
  5
38A
  8
0
 62
     7
 10
128.54099999999991
 20
85.546400000000006
 30
0.0
 11
127.92700000000001
 21
85.546400000000006
 31
0.0
  0
LINE
  5
38B
  8
0
 62
     7
 10
127.92700000000001
 20
85.546400000000006
 30
0.0
 11
129.4789999999999
 21
85.546400000000006
 31
0.0
  0
ARC
  5
38C
  8
0
 62
     7
 10
127.6994949999999
 20
86.452490999999995
 30
0.0
 40
0.304529
 50
318.29494299999988
 51
359.73526600000002
  0
ARC
  5
38D
  8
0
 62
     7
 10
129.16631699999991
 20
86.452444000000014
 30
0.0
 40
0.302398
 50
180.2576929999999
 51
222.05385200000001
  0
ARC
  5
38E
  8
0
 62
     7
 10
128.71442699999989
 20
86.452490999999995
 30
0.0
 40
0.304529
 50
318.29494299999988
 51
359.73526600000002
  0
LINE
  5
38F
  8
0
 62
     7
 10
129.49199999999999
 20
86.236099999999993
 30
0.0
 11
129.49199999999999
 21
87.024000000000001
 31
0.0
  0
LINE
  5
390
  8
0
 62
     7
 10
127.92700000000001
 20
85.416899999999998
 30
0.0
 11
126.69799999999989
 21
85.416899999999998
 31
0.0
  0
LINE
  5
391
  8
0
 62
     7
 10
126.181
 20
85.416899999999998
 30
0.0
 11
125.211
 21
85.416899999999998
 31
0.0
  0
LINE
  5
392
  8
0
 62
     7
 10
125.211
 20
85.416899999999998
 30
0.0
 11
124.952
 21
85.158500000000004
 31
0.0
  0
LINE
  5
393
  8
0
 62
     7
 10
126.69799999999989
 20
85.416899999999998
 30
0.0
 11
126.181
 21
85.416899999999998
 31
0.0
  0
LINE
  5
394
  8
0
 62
     7
 10
126.69799999999989
 20
85.416899999999998
 30
0.0
 11
126.4399999999999
 21
85.158500000000004
 31
0.0
  0
LINE
  5
395
  8
0
 62
     7
 10
126.181
 20
85.416899999999998
 30
0.0
 11
126.4399999999999
 21
85.158500000000004
 31
0.0
  0
LINE
  5
396
  8
0
 62
     7
 10
126.181
 20
82.054799999999986
 30
0.0
 11
125.211
 21
82.054799999999986
 31
0.0
  0
LINE
  5
397
  8
0
 62
     7
 10
124.952
 20
82.313500000000005
 30
0.0
 11
125.211
 21
82.054799999999986
 31
0.0
  0
LINE
  5
398
  8
0
 62
     7
 10
126.69799999999989
 20
82.054799999999986
 30
0.0
 11
126.181
 21
82.054799999999986
 31
0.0
  0
LINE
  5
399
  8
0
 62
     7
 10
126.4399999999999
 20
82.313500000000005
 30
0.0
 11
126.69799999999989
 21
82.054799999999986
 31
0.0
  0
LINE
  5
39A
  8
0
 62
     7
 10
126.4399999999999
 20
82.313500000000005
 30
0.0
 11
126.181
 21
82.054799999999986
 31
0.0
  0
LINE
  5
39B
  8
0
 62
     7
 10
124.952
 20
85.158500000000004
 30
0.0
 11
124.952
 21
82.313500000000005
 31
0.0
  0
LINE
  5
39C
  8
0
 62
     7
 10
126.4399999999999
 20
82.313500000000005
 30
0.0
 11
126.4399999999999
 21
85.158500000000004
 31
0.0
  0
LINE
  5
39D
  8
0
 62
     7
 10
129.4139999999999
 20
82.313500000000005
 30
0.0
 11
129.4139999999999
 21
85.158500000000004
 31
0.0
  0
LINE
  5
39E
  8
0
 62
     7
 10
129.4139999999999
 20
82.313500000000005
 30
0.0
 11
129.15499999999989
 21
82.054799999999986
 31
0.0
  0
LINE
  5
39F
  8
0
 62
     7
 10
129.15499999999989
 20
85.416899999999998
 30
0.0
 11
129.4139999999999
 21
85.158500000000004
 31
0.0
  0
LINE
  5
3A0
  8
0
 62
     7
 10
127.92700000000001
 20
85.416899999999998
 30
0.0
 11
129.15499999999989
 21
85.416899999999998
 31
0.0
  0
LINE
  5
3A1
  8
0
 62
     7
 10
126.3749999999999
 20
85.546400000000006
 30
0.0
 11
126.3749999999999
 21
85.416899999999998
 31
0.0
  0
LINE
  5
3A2
  8
0
 62
     7
 10
129.4789999999999
 20
85.546400000000006
 30
0.0
 11
129.4789999999999
 21
85.416899999999998
 31
0.0
  0
LINE
  5
3A3
  8
0
 62
     7
 10
130.90100000000001
 20
85.158500000000004
 30
0.0
 11
130.90100000000001
 21
82.313500000000005
 31
0.0
  0
LINE
  5
3A4
  8
0
 62
     7
 10
130.90100000000001
 20
82.313500000000005
 30
0.0
 11
130.64199999999991
 21
82.054799999999986
 31
0.0
  0
LINE
  5
3A5
  8
0
 62
     7
 10
129.67299999999989
 20
82.054799999999986
 30
0.0
 11
130.64199999999991
 21
82.054799999999986
 31
0.0
  0
LINE
  5
3A6
  8
0
 62
     7
 10
130.64199999999991
 20
85.416899999999998
 30
0.0
 11
130.90100000000001
 21
85.158500000000004
 31
0.0
  0
LINE
  5
3A7
  8
0
 62
     7
 10
129.67299999999989
 20
85.416899999999998
 30
0.0
 11
130.64199999999991
 21
85.416899999999998
 31
0.0
  0
LINE
  5
3A8
  8
0
 62
     7
 10
129.4139999999999
 20
82.313500000000005
 30
0.0
 11
129.67299999999989
 21
82.054799999999986
 31
0.0
  0
LINE
  5
3A9
  8
0
 62
     7
 10
129.15499999999989
 20
82.054799999999986
 30
0.0
 11
129.67299999999989
 21
82.054799999999986
 31
0.0
  0
LINE
  5
3AA
  8
0
 62
     7
 10
129.67299999999989
 20
85.416899999999998
 30
0.0
 11
129.4139999999999
 21
85.158500000000004
 31
0.0
  0
LINE
  5
3AB
  8
0
 62
     7
 10
129.15499999999989
 20
85.416899999999998
 30
0.0
 11
129.67299999999989
 21
85.416899999999998
 31
0.0
  0
ARC
  5
3AC
  8
0
 62
     7
 10
129.096756
 20
87.362144999999998
 30
0.0
 40
0.519863
 50
319.42540099999991
 51
40.574598999999999
  0
ARC
  5
3AD
  8
0
 62
     7
 10
129.09328799999989
 20
88.826088999999996
 30
0.0
 40
0.5216840000000002
 50
319.77864799999998
 51
45.560268000000001
  0
ARC
  5
3AE
  8
0
 62
     7
 10
129.10087799999999
 20
88.798641000000003
 30
0.0
 40
0.5365340000000001
 50
48.192146000000008
 51
62.455018999999993
  0
ARC
  5
3AF
  8
0
 62
     7
 10
129.094615
 20
85.898662999999999
 30
0.0
 40
0.521041
 50
317.46164399999992
 51
40.363553000000003
  0
LINE
  5
3B0
  8
0
 62
     7
 10
129.34899999999999
 20
89.2744
 30
0.0
 11
129.34899999999999
 21
120.4039999999999
 31
0.0
  0
LINE
  5
3B1
  8
0
 62
     7
 10
127.51299999999991
 20
74.731499999999997
 30
0.0
 11
125.30200000000001
 21
74.138900000000007
 31
0.0
  0
LINE
  5
3B2
  8
0
 62
     7
 10
125.30200000000001
 20
74.138900000000007
 30
0.0
 11
127.51299999999991
 21
73.546400000000006
 31
0.0
  0
LINE
  5
3B3
  8
0
 62
     7
 10
127.51299999999991
 20
73.546400000000006
 30
0.0
 11
127.51299999999991
 21
74.731499999999997
 31
0.0
  0
LINE
  5
3B4
  8
0
 62
     7
 10
128.34100000000001
 20
73.5608
 30
0.0
 11
130.55199999999999
 21
74.153400000000005
 31
0.0
  0
LINE
  5
3B5
  8
0
 62
     7
 10
130.55199999999999
 20
74.153400000000005
 30
0.0
 11
128.34100000000001
 21
74.746000000000009
 31
0.0
  0
LINE
  5
3B6
  8
0
 62
     7
 10
128.34100000000001
 20
74.746000000000009
 30
0.0
 11
128.34100000000001
 21
73.5608
 31
0.0
  0
LINE
  5
3B7
  8
0
 62
     7
 10
117.58799999999999
 20
74.138900000000007
 30
0.0
 11
130.55199999999999
 21
74.138900000000007
 31
0.0
  0
LINE
  5
3B8
  8
0
 62
     7
 10
130.55199999999999
 20
81.354699999999994
 30
0.0
 11
130.55199999999999
 21
73.438900000000004
 31
0.0
  0
LINE
  5
3B9
  8
0
 62
     7
 10
125.30200000000001
 20
81.354699999999994
 30
0.0
 11
125.30200000000001
 21
73.438900000000004
 31
0.0
  0
LINE
  5
3BA
  8
0
  6
AIGENLINE001
 62
     7
 10
127.92700000000001
 20
80.420100000000005
 30
0.0
 11
127.92700000000001
 21
133.01300000000001
 31
0.0
  0
LINE
  5
3BB
  8
0
 62
     7
 10
133.41
 20
133.292
 30
0.0
 11
133.41
 21
155.773
 31
0.0
  0
LINE
  5
3BC
  8
0
 62
     7
 10
137.93600000000001
 20
149.21899999999991
 30
0.0
 11
137.67799999999991
 21
149.66699999999989
 31
0.0
  0
LINE
  5
3BD
  8
0
 62
     7
 10
138.971
 20
149.21899999999991
 30
0.0
 11
139.2299999999999
 21
149.66699999999989
 31
0.0
  0
ARC
  5
3BE
  8
0
 62
     7
 10
64.657454000000001
 20
179.05904599999991
 30
0.0
 40
0.4959350000000001
 50
180.09230099999991
 51
205.37013099999999
  0
ARC
  5
3BF
  8
0
 62
     7
 10
64.844911999999994
 20
179.14151200000001
 30
0.0
 40
0.7006720000000001
 50
204.89533199999991
 51
221.77965499999999
  0
ARC
  5
3C0
  8
0
 62
     7
 10
65.162870999999996
 20
179.4094659999999
 30
0.0
 40
1.1163730000000001
 50
221.162297
 51
233.35218099999989
  0
ARC
  5
3C1
  8
0
 62
     7
 10
65.581611999999993
 20
179.94590299999999
 30
0.0
 40
1.7967799999999989
 50
232.84936599999989
 51
242.35696699999991
  0
ARC
  5
3C2
  8
0
 62
     7
 10
66.103770999999995
 20
180.9048929999999
 30
0.0
 40
2.8886219999999998
 50
242.00743299999999
 51
250.46093099999999
  0
ARC
  5
3C3
  8
0
 62
     7
 10
66.692661999999999
 20
182.49189799999991
 30
0.0
 40
4.5812549999999996
 50
250.15819500000001
 51
259.56166999999988
  0
ARC
  5
3C4
  8
0
 62
     7
 10
67.168130000000005
 20
184.764396
 30
0.0
 40
6.902514
 50
259.09787099999988
 51
270.45852400000001
  0
ARC
  5
3C5
  8
0
 62
     7
 10
67.224356
 20
185.32208
 30
0.0
 40
7.4599779999999987
 50
269.99242099999992
 51
281.02083399999992
  0
ARC
  5
3C6
  8
0
 62
     7
 10
67.671854999999994
 20
182.78988000000001
 30
0.0
 40
4.8891349999999987
 50
281.546132
 51
290.232776
  0
ARC
  5
3C7
  8
0
 62
     7
 10
68.397441000000001
 20
180.763138
 30
0.0
 40
2.736594999999999
 50
290.65369399999992
 51
302.80361399999998
  0
ARC
  5
3C8
  8
0
 62
     7
 10
69.150784999999985
 20
179.54821200000001
 30
0.0
 40
1.307515999999999
 50
303.89871699999992
 51
319.70516299999991
  0
ARC
  5
3C9
  8
0
 62
     7
 10
69.636640999999983
 20
179.11561
 30
0.0
 40
0.657355
 50
321.07755400000002
 51
346.86616700000002
  0
ARC
  5
3CA
  8
0
 62
     7
 10
69.804779000000011
 20
179.058494
 30
0.0
 40
0.480953
 50
348.94147400000003
 51
359.97066499999988
  0
ARC
  5
3CB
  8
0
 62
     7
 10
69.789849000000004
 20
179.05744899999999
 30
0.0
 40
0.4958840000000001
 50
0.092196
 51
25.371448999999991
  0
ARC
  5
3CC
  8
0
 62
     7
 10
69.602919999999983
 20
178.97526599999989
 30
0.0
 40
0.7000220000000001
 50
24.893469
 51
41.791365999999989
  0
ARC
  5
3CD
  8
0
 62
     7
 10
69.285116000000002
 20
178.70755700000001
 30
0.0
 40
1.115442
 50
41.165033999999999
 51
53.364401999999998
  0
ARC
  5
3CE
  8
0
 62
     7
 10
68.866068999999996
 20
178.17056199999999
 30
0.0
 40
1.7964770000000001
 50
52.859679000000007
 51
62.368542000000012
  0
ARC
  5
3CF
  8
0
 62
     7
 10
68.345931999999991
 20
177.216048
 30
0.0
 40
2.883416
 50
62.008313000000001
 51
70.477355000000003
  0
ARC
  5
3D0
  8
0
 62
     7
 10
67.755610000000004
 20
175.62572
 30
0.0
 40
4.5796559999999991
 50
70.165464
 51
79.573348999999993
  0
ARC
  5
3D1
  8
0
 62
     7
 10
67.27878299999999
 20
173.346733
 30
0.0
 40
6.9075369999999987
 50
79.104607000000001
 51
90.459648000000001
  0
ARC
  5
3D2
  8
0
 62
     7
 10
67.222391999999999
 20
172.792925
 30
0.0
 40
7.4611229999999988
 50
89.992498999999995
 51
101.01650600000001
  0
ARC
  5
3D3
  8
0
 62
     7
 10
66.775297999999992
 20
175.3250459999999
 30
0.0
 40
4.8904339999999991
 50
101.543885
 51
110.2267239999999
  0
ARC
  5
3D4
  8
0
 62
     7
 10
66.127093999999985
 20
177.15903399999999
 30
0.0
 40
2.945549999999999
 50
110.7294669999999
 51
118.861631
  0
ARC
  5
3D5
  8
0
 62
     7
 10
65.527018999999996
 20
178.26557199999991
 30
0.0
 40
1.686825999999999
 50
119.15316199999999
 51
133.1250409999999
  0
ARC
  5
3D6
  8
0
 62
     7
 10
64.989260000000002
 20
178.86970700000001
 30
0.0
 40
0.8785209999999999
 50
134.461613
 51
148.53297000000001
  0
ARC
  5
3D7
  8
0
 62
     7
 10
64.715058999999997
 20
179.04393099999999
 30
0.0
 40
0.5537250000000001
 50
149.09872200000001
 51
178.51841200000001
  0
ARC
  5
3D8
  8
0
 62
     7
 10
64.761488999999997
 20
179.01111099999989
 30
0.0
 40
0.372594
 50
180.168429
 51
212.301289
  0
ARC
  5
3D9
  8
0
 62
     7
 10
64.980311
 20
179.132474
 30
0.0
 40
0.622571
 50
210.98053899999999
 51
227.6727479999999
  0
ARC
  5
3DA
  8
0
 62
     7
 10
65.315386000000004
 20
179.47811399999989
 30
0.0
 40
1.103836
 50
226.895014
 51
239.0663459999999
  0
ARC
  5
3DB
  8
0
 62
     7
 10
65.800220999999993
 20
180.248423
 30
0.0
 40
2.0139040000000001
 50
238.50018900000001
 51
248.39673099999999
  0
ARC
  5
3DC
  8
0
 62
     7
 10
66.345713000000003
 20
181.54117600000001
 30
0.0
 40
3.416828999999999
 50
247.87335699999991
 51
254.76729399999999
  0
ARC
  5
3DD
  8
0
 62
     7
 10
66.875870999999989
 20
183.404909
 30
0.0
 40
5.3544210000000003
 50
254.533435
 51
263.29681099999988
  0
ARC
  5
3DE
  8
0
 62
     7
 10
67.201494999999994
 20
185.63052300000001
 30
0.0
 40
7.6030959999999999
 50
262.81744500000002
 51
270.18820099999988
  0
ARC
  5
3DF
  8
0
 62
     7
 10
67.228398999999996
 20
185.8593909999999
 30
0.0
 40
7.8319229999999989
 50
269.98588000000001
 51
279.02197100000001
  0
ARC
  5
3E0
  8
0
 62
     7
 10
67.610594999999989
 20
183.247241
 30
0.0
 40
5.1922559999999987
 50
279.37676699999992
 51
287.92353500000002
  0
ARC
  5
3E1
  8
0
 62
     7
 10
68.282612
 20
181.06775200000001
 30
0.0
 40
2.911899
 50
288.53998899999999
 51
296.01671199999993
  0
ARC
  5
3E2
  8
0
 62
     7
 10
68.828343000000004
 20
179.93238600000001
 30
0.0
 40
1.6522259999999991
 50
296.27955700000001
 51
306.5841200000001
  0
ARC
  5
3E3
  8
0
 62
     7
 10
69.285899999999984
 20
179.304284
 30
0.0
 40
0.8751929999999999
 50
307.03843599999988
 51
320.93449199999992
  0
ARC
  5
3E4
  8
0
 62
     7
 10
69.609738000000007
 20
179.03599700000001
 30
0.0
 40
0.454699
 50
321.46621499999992
 51
356.72441099999992
  0
ARC
  5
3E5
  8
0
 62
     7
 10
69.690969999999993
 20
179.00891799999999
 30
0.0
 40
0.372726
 50
0.168654
 51
32.290735999999988
  0
ARC
  5
3E6
  8
0
 62
     7
 10
69.472279999999984
 20
178.88774100000001
 30
0.0
 40
0.6224970000000001
 50
30.966052000000001
 51
47.661017999999999
  0
ARC
  5
3E7
  8
0
 62
     7
 10
69.136476000000002
 20
178.54132799999999
 30
0.0
 40
1.1048249999999991
 50
46.888193999999999
 51
59.047803000000009
  0
ARC
  5
3E8
  8
0
 62
     7
 10
68.65288000000001
 20
177.77359199999989
 30
0.0
 40
2.0120550000000001
 50
58.482061999999992
 51
68.387028000000001
  0
ARC
  5
3E9
  8
0
 62
     7
 10
68.108142999999998
 20
176.48436099999989
 30
0.0
 40
3.4114369999999998
 50
67.856803999999997
 51
74.760968000000005
  0
ARC
  5
3EA
  8
0
 62
     7
 10
67.569876000000008
 20
174.58298300000001
 30
0.0
 40
5.3874750000000002
 50
74.552837999999994
 51
83.261583999999999
  0
ARC
  5
3EB
  8
0
 62
     7
 10
67.250049000000004
 20
172.373221
 30
0.0
 40
7.6197229999999987
 50
82.822956000000005
 51
90.177301999999983
  0
ARC
  5
3EC
  8
0
 62
     7
 10
67.224528000000007
 20
172.16542999999999
 30
0.0
 40
7.827477
 50
89.985787999999999
 51
99.027531999999994
  0
ARC
  5
3ED
  8
0
 62
     7
 10
66.842171999999991
 20
174.77547100000001
 30
0.0
 40
5.1898710000000001
 50
99.379924000000003
 51
107.93206600000001
  0
ARC
  5
3EE
  8
0
 62
     7
 10
66.170518999999985
 20
176.95195899999999
 30
0.0
 40
2.9124829999999999
 50
108.54374899999991
 51
116.020552
  0
ARC
  5
3EF
  8
0
 62
     7
 10
65.625567000000004
 20
178.08602899999991
 30
0.0
 40
1.6543169999999989
 50
116.2905269999999
 51
126.58463499999991
  0
ARC
  5
3F0
  8
0
 62
     7
 10
65.16713399999999
 20
178.715351
 30
0.0
 40
0.875783
 50
127.0406889999999
 51
140.93061299999999
  0
ARC
  5
3F1
  8
0
 62
     7
 10
64.880768000000003
 20
178.95571799999991
 30
0.0
 40
0.5019970000000001
 50
141.630414
 51
160.555091
  0
ARC
  5
3F2
  8
0
 62
     7
 10
64.749981000000005
 20
179.00870900000001
 30
0.0
 40
0.361086
 50
161.575401
 51
179.79263599999999
  0
ARC
  5
3F3
  8
0
 62
     7
 10
67.228409999999997
 20
172.16626999999991
 30
0.0
 40
7.826636999999999
 50
80.971963000000002
 51
90.014206000000016
  0
ARC
  5
3F4
  8
0
 62
     7
 10
67.60448199999999
 20
174.74106499999991
 30
0.0
 40
5.2248289999999988
 50
72.403537999999998
 51
80.61427900000001
  0
ARC
  5
3F5
  8
0
 62
     7
 10
68.249945999999994
 20
176.87007800000001
 30
0.0
 40
3.0004379999999991
 50
64.529842000000002
 51
71.861949999999993
  0
ARC
  5
3F6
  8
0
 62
     7
 10
68.792876000000007
 20
178.02767299999991
 30
0.0
 40
1.721884999999999
 50
54.25852900000001
 51
64.275249000000002
  0
ARC
  5
3F7
  8
0
 62
     7
 10
69.256819999999991
 20
178.68430299999989
 30
0.0
 40
0.9179479999999999
 50
40.381267000000001
 51
53.822143000000011
  0
ARC
  5
3F8
  8
0
 62
     7
 10
69.553989999999985
 20
178.94495499999999
 30
0.0
 40
0.522744
 50
21.337350000000001
 51
39.721075999999996
  0
ARC
  5
3F9
  8
0
 62
     7
 10
69.697249999999997
 20
179.00792499999989
 30
0.0
 40
0.366451
 50
0.326891
 51
20.316631000000001
  0
ARC
  5
3FA
  8
0
 62
     7
 10
69.691009999999991
 20
179.01111199999991
 30
0.0
 40
0.372686
 50
327.70750499999991
 51
359.83143200000001
  0
ARC
  5
3FB
  8
0
 62
     7
 10
69.472274999999996
 20
179.13241099999999
 30
0.0
 40
0.6225579999999999
 50
312.33448199999992
 51
329.02547299999998
  0
ARC
  5
3FC
  8
0
 62
     7
 10
69.137519999999995
 20
179.47757999999999
 30
0.0
 40
1.103261
 50
300.93773700000003
 51
313.11363999999998
  0
ARC
  5
3FD
  8
0
 62
     7
 10
68.652376000000004
 20
180.2483
 30
0.0
 40
2.0138409999999989
 50
291.60825799999998
 51
301.50359300000002
  0
ARC
  5
3FE
  8
0
 62
     7
 10
68.107294999999993
 20
181.53993299999999
 30
0.0
 40
3.415575
 50
285.23485799999997
 51
292.13030099999992
  0
ARC
  5
3FF
  8
0
 62
     7
 10
67.577027999999999
 20
183.40404599999991
 30
0.0
 40
5.3535629999999994
 50
276.70422000000002
 51
285.46803799999992
  0
ARC
  5
400
  8
0
 62
     7
 10
67.251473000000004
 20
185.629311
 30
0.0
 40
7.6018840000000001
 50
269.81154700000002
 51
277.18315499999989
  0
ARC
  5
401
  8
0
 62
     7
 10
67.224537999999995
 20
185.860231
 30
0.0
 40
7.8327640000000001
 50
260.97853399999991
 51
270.01412599999992
  0
ARC
  5
402
  8
0
 62
     7
 10
66.842421999999985
 20
183.24878299999989
 30
0.0
 40
5.1938019999999989
 50
252.07906199999999
 51
260.624438
  0
ARC
  5
403
  8
0
 62
     7
 10
66.170805999999999
 20
181.06992199999999
 30
0.0
 40
2.9141639999999991
 50
243.9893239999999
 51
251.46140399999999
  0
ARC
  5
404
  8
0
 62
     7
 10
65.624690999999999
 20
179.93324199999989
 30
0.0
 40
1.653141999999999
 50
233.42292
 51
243.723197
  0
ARC
  5
405
  8
0
 62
     7
 10
65.166925000000006
 20
179.3046379999999
 30
0.0
 40
0.8755799999999998
 50
219.07480200000001
 51
232.9664709999999
  0
ARC
  5
406
  8
0
 62
     7
 10
64.880424000000005
 20
179.0641699999999
 30
0.0
 40
0.501625
 50
199.44254100000001
 51
218.37918099999999
  0
ARC
  5
407
  8
0
 62
     7
 10
64.750181000000012
 20
179.01135500000001
 30
0.0
 40
0.361286
 50
180.21244999999999
 51
198.41951399999999
  0
ARC
  5
408
  8
0
 62
     7
 10
64.76152900000001
 20
179.0089199999999
 30
0.0
 40
0.372633
 50
147.70046999999991
 51
179.83148499999999
  0
ARC
  5
409
  8
0
 62
     7
 10
64.980305999999985
 20
178.88767799999999
 30
0.0
 40
0.6225100000000001
 50
132.33175299999991
 51
149.02793600000001
  0
ARC
  5
40A
  8
0
 62
     7
 10
65.316430000000011
 20
178.54079299999989
 30
0.0
 40
1.1054019999999991
 50
120.94811300000001
 51
133.10315199999999
  0
ARC
  5
40B
  8
0
 62
     7
 10
65.799717000000001
 20
177.77347
 30
0.0
 40
2.0121180000000001
 50
111.607983
 51
121.514154
  0
ARC
  5
40C
  8
0
 62
     7
 10
66.344864999999999
 20
176.4831189999999
 30
0.0
 40
3.412688999999999
 50
105.236879
 51
112.13953599999989
  0
ARC
  5
40D
  8
0
 62
     7
 10
66.883248999999992
 20
174.5809669999999
 30
0.0
 40
5.3895049999999998
 50
96.738326999999998
 51
105.444744
  0
ARC
  5
40E
  8
0
 62
     7
 10
67.202905000000001
 20
172.3722479999999
 30
0.0
 40
7.6206959999999997
 50
89.822831999999991
 51
97.176560999999992
  0
LINE
  5
40F
  8
0
 62
     7
 10
66.728300000000004
 20
77.807299999999998
 30
0.0
 11
67.719300000000004
 21
77.807299999999998
 31
0.0
  0
LINE
  5
410
  8
0
 62
     7
 10
66.599100000000007
 20
77.936499999999995
 30
0.0
 11
67.848500000000001
 21
77.936499999999995
 31
0.0
  0
LINE
  5
411
  8
0
 62
     7
 10
67.719300000000004
 20
77.807299999999998
 30
0.0
 11
67.848500000000001
 21
77.936499999999995
 31
0.0
  0
LINE
  5
412
  8
0
 62
     7
 10
66.728300000000004
 20
77.807299999999998
 30
0.0
 11
66.599100000000007
 21
77.936499999999995
 31
0.0
  0
LINE
  5
413
  8
0
 62
     7
 10
66.598399999999984
 20
131.64599999999999
 30
0.0
 11
66.599100000000007
 21
77.936499999999995
 31
0.0
  0
LINE
  5
414
  8
0
 62
     7
 10
67.848799999999997
 20
131.64599999999999
 30
0.0
 11
67.848500000000001
 21
77.936499999999995
 31
0.0
  0
LINE
  5
415
  8
0
 62
     7
 10
139.251
 20
77.807299999999998
 30
0.0
 11
139.12200000000001
 21
77.936499999999995
 31
0.0
  0
LINE
  5
416
  8
0
 62
     7
 10
140.24199999999999
 20
77.807299999999998
 30
0.0
 11
140.37200000000001
 21
77.936499999999995
 31
0.0
  0
LINE
  5
417
  8
0
 62
     7
 10
139.12200000000001
 20
77.936499999999995
 30
0.0
 11
140.37200000000001
 21
77.936499999999995
 31
0.0
  0
LINE
  5
418
  8
0
 62
     7
 10
139.251
 20
77.807299999999998
 30
0.0
 11
140.24199999999999
 21
77.807299999999998
 31
0.0
  0
LINE
  5
419
  8
0
 62
     7
 10
140.37200000000001
 20
155.773
 30
0.0
 11
140.37200000000001
 21
77.936499999999995
 31
0.0
  0
LINE
  5
41A
  8
0
 62
     7
 10
139.12200000000001
 20
149.48099999999999
 30
0.0
 11
139.12200000000001
 21
77.936499999999995
 31
0.0
  0
LINE
  5
41B
  8
0
 62
     7
 10
78.301100000000005
 20
89.2744
 30
0.0
 11
78.301100000000005
 21
120.4039999999999
 31
0.0
  0
LINE
  5
41C
  8
0
 62
     7
 10
81.146100000000004
 20
89.2744
 30
0.0
 11
81.146100000000004
 21
120.4039999999999
 31
0.0
  0
LINE
  5
41D
  8
0
 62
     7
 10
66.758099999999999
 20
133.292
 30
0.0
 11
66.758099999999999
 21
161.77299999999991
 31
0.0
  0
LINE
  5
41E
  8
0
 62
     7
 10
63.913299999999992
 20
133.292
 30
0.0
 11
63.913299999999992
 21
161.77299999999991
 31
0.0
  0
LINE
  5
41F
  8
0
 62
     7
 10
133.41
 20
161.77299999999991
 30
0.0
 11
133.41
 21
156.601
 31
0.0
  0
LINE
  5
420
  8
0
 62
     7
 10
136.25499999999991
 20
161.77299999999991
 30
0.0
 11
136.25499999999991
 21
156.601
 31
0.0
  0
LINE
  5
421
  8
0
 62
     7
 10
136.25499999999991
 20
133.292
 30
0.0
 11
136.25499999999991
 21
155.773
 31
0.0
  0
LINE
  5
422
  8
0
 62
     7
 10
71.012299999999996
 20
170.56200000000001
 30
0.0
 11
73.224100000000007
 21
171.154
 31
0.0
  0
LINE
  5
423
  8
0
 62
     7
 10
73.224100000000007
 20
171.154
 30
0.0
 11
71.012299999999996
 21
171.74700000000001
 31
0.0
  0
LINE
  5
424
  8
0
 62
     7
 10
71.012299999999996
 20
171.74700000000001
 30
0.0
 11
71.012299999999996
 21
170.56200000000001
 31
0.0
  0
LINE
  5
425
  8
0
 62
     7
 10
63.435099999999998
 20
171.73199999999991
 30
0.0
 11
61.223399999999998
 21
171.1399999999999
 31
0.0
  0
LINE
  5
426
  8
0
 62
     7
 10
61.223399999999998
 20
171.1399999999999
 30
0.0
 11
63.435099999999998
 21
170.547
 31
0.0
  0
LINE
  5
427
  8
0
 62
     7
 10
63.435099999999998
 20
170.547
 30
0.0
 11
63.435099999999998
 21
171.73199999999991
 31
0.0
  0
LINE
  5
428
  8
0
 62
     7
 10
78.082700000000003
 20
171.1399999999999
 30
0.0
 11
61.223700000000001
 21
171.1399999999999
 31
0.0
  0
LINE
  5
429
  8
0
 62
     7
 10
73.223699999999994
 20
171.84
 30
0.0
 11
73.223699999999994
 21
163.858
 31
0.0
  0
LINE
  5
42A
  8
0
 62
     7
 10
61.223700000000001
 20
171.84
 30
0.0
 11
61.223700000000001
 21
163.858
 31
0.0
  0
LINE
  5
42B
  8
0
  6
AIGENLINE001
 62
     7
 10
135.7579999999999
 20
194.715
 30
0.0
 11
140.79699999999991
 21
205.52199999999999
 31
0.0
  0
LINE
  5
42C
  8
0
  6
AIGENLINE001
 62
     7
 10
120.357
 20
209.2109999999999
 30
0.0
 11
135.42799999999991
 21
202.18299999999999
 31
0.0
  0
LINE
  5
42D
  8
0
 62
     7
 10
106.34099999999999
 20
177.09
 30
0.0
 11
101.6179999999999
 21
166.9609999999999
 31
0.0
  0
LINE
  5
42E
  8
0
 62
     7
 10
107.2589999999999
 20
178.09999999999991
 30
0.0
 11
107.2589999999999
 21
165.68299999999999
 31
0.0
  0
LINE
  5
42F
  8
0
  6
AIGENLINE002
 62
     7
 10
54.367600000000003
 20
241.11199999999991
 30
0.0
 11
52.831699999999998
 21
242.648
 31
0.0
  0
ARC
  5
430
  8
0
  6
AIGENLINE002
 62
     7
 10
52.989589000000002
 20
242.79429500000001
 30
0.0
 40
0.21507
 50
137.219854
 51
222.780146
  0
ARC
  5
431
  8
0
  6
AIGENLINE002
 62
     7
 10
54.513984999999991
 20
241.27073100000001
 30
0.0
 40
0.216169
 50
227.36487999999991
 51
312.63513999999992
  0
LINE
  5
432
  8
0
  6
AIGENLINE002
 62
     7
 10
64.126599999999996
 20
250.578
 30
0.0
 11
54.660400000000003
 21
241.11199999999991
 31
0.0
  0
LINE
  5
433
  8
0
  6
AIGENLINE002
 62
     7
 10
52.831699999999998
 20
242.94
 30
0.0
 11
62.297899999999998
 21
252.40599999999989
 31
0.0
  0
LINE
  5
434
  8
0
  6
AIGENLINE002
 62
     7
 10
81.615700000000004
 20
242.648
 30
0.0
 11
80.079499999999996
 21
241.11199999999991
 31
0.0
  0
ARC
  5
435
  8
0
  6
AIGENLINE002
 62
     7
 10
79.933266000000003
 20
241.269766
 30
0.0
 40
0.215343
 50
227.22454099999999
 51
312.77547900000002
  0
ARC
  5
436
  8
0
  6
AIGENLINE002
 62
     7
 10
81.459766999999999
 20
242.79429500000001
 30
0.0
 40
0.213656
 50
316.86792700000001
 51
43.132072999999998
  0
LINE
  5
437
  8
0
  6
AIGENLINE002
 62
     7
 10
72.149900000000002
 20
252.40599999999989
 30
0.0
 11
81.615700000000004
 21
242.94
 31
0.0
  0
LINE
  5
438
  8
0
  6
AIGENLINE002
 62
     7
 10
79.786999999999992
 20
241.11199999999991
 30
0.0
 11
70.321200000000005
 21
250.578
 31
0.0
  0
LINE
  5
439
  8
0
  6
AIGENLINE001
 62
     7
 10
133.34
 20
201.20500000000001
 30
0.0
 11
116.0959999999999
 21
201.20500000000001
 31
0.0
  0
LINE
  5
43A
  8
0
  6
AIGENLINE001
 62
     7
 10
79.723799999999997
 20
80.420100000000005
 30
0.0
 11
79.723799999999997
 21
120.4039999999999
 31
0.0
  0
LINE
  5
43B
  8
0
  6
AIGENLINE001
 62
     7
 10
65.335599999999999
 20
133.292
 30
0.0
 11
65.335599999999999
 21
165.80199999999999
 31
0.0
  0
LINE
  5
43C
  8
0
  6
AIGENLINE001
 62
     7
 10
109.54600000000001
 20
183.96199999999999
 30
0.0
 11
106.68299999999989
 21
177.82299999999989
 31
0.0
  0
LINE
  5
43D
  8
0
  6
AIGENLINE001
 62
     7
 10
52.871000000000002
 20
241.1509999999999
 30
0.0
 11
63.80510000000001
 21
252.08500000000001
 31
0.0
  0
LINE
  5
43E
  8
0
  6
AIGENLINE001
 62
     7
 10
144.131
 20
255.50399999999999
 30
0.0
 11
128.637
 21
255.50399999999999
 31
0.0
  0
LINE
  5
43F
  8
0
  6
AIGENLINE001
 62
     7
 10
147.90199999999999
 20
176.08500000000001
 30
0.0
 11
139.79300000000001
 21
176.08500000000001
 31
0.0
  0
LINE
  5
440
  8
0
  6
AIGENLINE001
 62
     7
 10
136.38499999999999
 20
248.09099999999989
 30
0.0
 11
136.38499999999999
 21
262.983
 31
0.0
  0
LINE
  5
441
  8
0
  6
AIGENLINE001
 62
     7
 10
136.38499999999999
 20
152.81700000000001
 30
0.0
 11
136.38499999999999
 21
208.10599999999991
 31
0.0
  0
LINE
  5
442
  8
0
  6
AIGENLINE001
 62
     7
 10
70.436999999999998
 20
252.29099999999991
 30
0.0
 11
81.569900000000004
 21
241.1579999999999
 31
0.0
  0
LINE
  5
443
  8
0
  6
AIGENLINE001
 62
     7
 10
136.38499999999999
 20
191.15899999999999
 30
0.0
 11
105.9279999999999
 21
180.60900000000001
 31
0.0
  0
LINE
  5
444
  8
0
  6
AIGENLINE001
 62
     7
 10
134.833
 20
122.465
 30
0.0
 11
134.833
 21
164.87899999999999
 31
0.0
  0
LINE
  5
445
  8
0
  6
AIGENLINE001
 62
     7
 10
138.453
 20
146.65600000000001
 30
0.0
 11
138.453
 21
165.73299999999989
 31
0.0
  0
LINE
  5
446
  8
0
  6
AIGENLINE001
 62
     7
 10
139.74700000000001
 20
165.917
 30
0.0
 11
139.74700000000001
 21
76.131900000000002
 31
0.0
  0
LINE
  5
447
  8
_________2
 62
     7
 10
210.24000000000001
 20
148.93100000000001
 30
0.0
 11
188.49000000000001
 21
148.93100000000001
 31
0.0
  0
LINE
  5
448
  8
_________2
 62
     7
 10
105.2389999999999
 20
17.428499999999989
 30
0.0
 11
105.2389999999999
 21
0.4482100000000001
 31
0.0
  0
LINE
  5
449
  8
_________2
 62
     7
 10
105.2389999999999
 20
297.44999999999987
 30
0.0
 11
105.2389999999999
 21
280.42999999999989
 31
0.0
  0
LINE
  5
44A
  8
_________2
 62
     7
 10
21.988499999999991
 20
148.93100000000001
 30
0.0
 11
0.238058
 21
148.93100000000001
 31
0.0
  0
LINE
  5
44B
  8
_________2
 62
     7
 10
81.679900000000004
 20
51.324300000000001
 30
0.0
 11
79.493700000000004
 21
51.324300000000001
 31
0.0
  0
LINE
  5
44C
  8
_________2
 62
     7
 10
82.172600000000017
 20
51.324300000000001
 30
0.0
 11
81.920400000000001
 21
51.324300000000001
 31
0.0
  0
LINE
  5
44D
  8
_________2
 62
     7
 10
82.665199999999984
 20
51.324300000000001
 30
0.0
 11
85.590100000000007
 21
51.324300000000001
 31
0.0
  0
LINE
  5
44E
  8
_________2
 62
     7
 10
82.172600000000017
 20
51.324300000000001
 30
0.0
 11
82.424800000000005
 21
51.324300000000001
 31
0.0
  0
LINE
  5
44F
  8
_________2
 62
     7
 10
75.776399999999995
 20
51.324300000000001
 30
0.0
 11
73.589399999999998
 21
51.324300000000001
 31
0.0
  0
LINE
  5
450
  8
_________2
 62
     7
 10
76.2684
 20
51.324300000000001
 30
0.0
 11
76.016900000000007
 21
51.324300000000001
 31
0.0
  0
LINE
  5
451
  8
_________2
 62
     7
 10
76.2684
 20
51.817
 30
0.0
 11
76.2684
 21
54.003900000000002
 31
0.0
  0
LINE
  5
452
  8
_________2
 62
     7
 10
76.2684
 20
51.324300000000001
 30
0.0
 11
76.2684
 21
51.576500000000003
 31
0.0
  0
LINE
  5
453
  8
_________2
 62
     7
 10
76.76100000000001
 20
51.324300000000001
 30
0.0
 11
78.947999999999993
 21
51.324300000000001
 31
0.0
  0
LINE
  5
454
  8
_________2
 62
     7
 10
76.2684
 20
51.324300000000001
 30
0.0
 11
76.520499999999998
 21
51.324300000000001
 31
0.0
  0
LINE
  5
455
  8
_________2
 62
     7
 10
76.2684
 20
50.832399999999993
 30
0.0
 11
76.2684
 21
48.645400000000002
 31
0.0
  0
LINE
  5
456
  8
_________2
 62
     7
 10
76.2684
 20
51.324300000000001
 30
0.0
 11
76.2684
 21
51.072800000000001
 31
0.0
  0
LINE
  5
457
  8
_________2
 62
     7
 10
79.979399999999984
 20
50.104799999999997
 30
0.0
 11
85.157399999999996
 21
49.240000000000002
 31
0.0
  0
LINE
  5
458
  8
_________2
 62
     7
 10
79.979399999999984
 20
52.543900000000001
 30
0.0
 11
85.157399999999996
 21
53.409300000000002
 31
0.0
  0
LINE
  5
459
  8
_________2
 62
     7
 10
85.157399999999996
 20
49.240000000000002
 30
0.0
 11
85.157399999999996
 21
53.409300000000002
 31
0.0
  0
LINE
  5
45A
  8
_________2
 62
     7
 10
79.979399999999984
 20
50.104799999999997
 30
0.0
 11
79.979399999999984
 21
52.543900000000001
 31
0.0
  0
ARC
  5
45B
  8
_________2
 62
     7
 10
76.222110000000001
 20
51.277366999999991
 30
0.0
 40
1.2673709999999989
 50
2.1232950000000002
 51
87.909056000000007
  0
ARC
  5
45C
  8
_________2
 62
     7
 10
76.315273000000005
 20
51.277400999999998
 30
0.0
 40
1.267363
 50
92.121785999999986
 51
177.878185
  0
ARC
  5
45D
  8
_________2
 62
     7
 10
76.315273000000005
 20
51.371245999999992
 30
0.0
 40
1.267363
 50
182.12181499999991
 51
267.87821400000001
  0
ARC
  5
45E
  8
_________2
 62
     7
 10
76.221461000000005
 20
51.371928999999987
 30
0.0
 40
1.2680439999999991
 50
272.11916400000001
 51
357.84848499999993
  0
ARC
  5
45F
  8
_________2
 62
     7
 10
76.268349999999984
 20
51.324323
 30
0.0
 40
2.0849849999999992
 50
0.00001
 51
89.999980000000008
  0
ARC
  5
460
  8
_________2
 62
     7
 10
76.348388
 20
51.245001999999992
 30
0.0
 40
2.1657860000000002
 50
92.117855000000034
 51
177.90105299999991
  0
ARC
  5
461
  8
_________2
 62
     7
 10
76.348354
 20
51.404327000000002
 30
0.0
 40
2.1657779999999991
 50
182.11700400000001
 51
267.88302499999992
  0
ARC
  5
462
  8
_________2
 62
     7
 10
76.188378999999983
 20
51.405009999999997
 30
0.0
 40
2.1664590000000001
 50
272.11546800000002
 51
357.86560400000002
  0
TEXT
  5
463
  8
_________2
 62
     7
 10
109.5439999999999
 20
23.199100000000001
 30
0.0
 40
3.0923400000000001
  1
図番
 41
0.5
  0
LINE
  5
464
  8
_________2
 62
     7
 10
108.4889999999999
 20
27.4283
 30
0.0
 11
188.49000000000001
 21
27.4283
 31
0.0
  0
TEXT
  5
465
  8
_________2
 62
     7
 10
109.5439999999999
 20
33.198900000000002
 30
0.0
 40
3.0923400000000001
  1
品番
 41
0.5
  0
TEXT
  5
466
  8
_________2
 62
     7
 10
109.5439999999999
 20
53.337699999999998
 30
0.0
 40
3.0923400000000001
  1
名称
 41
0.5
  0
TEXT
  5
467
  8
_________2
 62
     7
 10
96.784058333333334
 20
48.341500000000011
 30
0.0
 40
3.6545800000000002
  1
mm
 41
0.5
 72
     1
 11
98.306799999999996
 21
48.341500000000011
 31
0.0
  0
TEXT
  5
468
  8
_________2
 62
     7
 10
90.582099999999997
 20
53.337699999999998
 30
0.0
 40
3.0923400000000001
  1
単位
 41
0.5
  0
TEXT
  5
469
  8
_________2
 62
     7
 10
90.582099999999997
 20
40.930399999999999
 30
0.0
 40
3.0923400000000001
  1
尺度
 41
0.5
  0
TEXT
  5
46A
  8
_________2
 62
     7
 10
95.487658666666675
 20
34.73749999999999
 30
0.0
 40
3.6545800000000002
  1
1 ： 4
 41
0.5
 72
     1
 11
98.898600000000002
 21
34.73749999999999
 31
0.0
  0
TEXT
  5
46B
  8
_________2
 62
     7
 10
141.60152500000001
 20
30.627400000000002
 30
0.0
 40
3.9357000000000002
  1
CET2100R
 41
0.5
 72
     1
 11
148.489
 21
30.627400000000002
 31
0.0
  0
TEXT
  5
46C
  8
_________2
 62
     7
 10
141.60152500000001
 20
20.626999999999988
 30
0.0
 40
3.9357000000000002
  1
CET2100R
 41
0.5
 72
     1
 11
148.489
 21
20.626999999999988
 31
0.0
  0
TEXT
  5
46D
  8
_________2
 62
     7
 10
29.525700000000001
 20
22.226900000000001
 30
0.0
 40
3.9357000000000002
  1
（JIS）
 41
0.5
  0
TEXT
  5
46E
  8
_________2
 62
     7
 10
114.11799999999999
 20
46.242100000000001
 30
0.0
 40
3.9357000000000002
  1
湯水混合水栓
 41
0.5
  0
TEXT
  5
46F
  8
_________2
 62
     7
 10
44.364200333333329
 20
35.122599999999991
 30
0.0
 40
3.6545800000000002
  1
早川
 41
0.5
 72
     1
 11
46.252400000000002
 21
35.122599999999991
 31
0.0
  0
TEXT
  5
470
  8
_________2
 62
     7
 10
25.72929066666666
 20
35.122599999999991
 30
0.0
 40
3.6545800000000002
  1
石原
 41
0.5
 72
     1
 11
27.6784
 21
35.122599999999991
 31
0.0
  0
TEXT
  5
471
  8
_________2
 62
     7
 10
72.724699999999999
 20
34.73749999999999
 30
0.0
 40
3.6545800000000002
  1
14.01.10
 41
0.5
  0
TEXT
  5
472
  8
_________2
 62
     7
 10
71.531999999999996
 20
40.930399999999999
 30
0.0
 40
3.0923400000000001
  1
日付
 41
0.5
  0
TEXT
  5
473
  8
_________2
 62
     7
 10
34.578299999999992
 20
40.930399999999999
 30
0.0
 40
3.0923400000000001
  1
検図
 41
0.5
  0
TEXT
  5
474
  8
_________2
 62
     7
 10
22.960000000000001
 20
26.730999999999991
 30
0.0
 40
3.0923400000000001
  1
備考
 41
0.5
  0
TEXT
  5
475
  8
_________2
 62
     7
 10
22.960000000000001
 20
40.930399999999999
 30
0.0
 40
3.0923400000000001
  1
製図
 41
0.5
  0
TEXT
  5
476
  8
_________2
 62
     7
 10
28.727365333333339
 20
49.456400000000002
 30
0.0
 40
4.4979399999999989
  1
セラトレーディング株式会社
 41
0.5
 72
     1
 11
46.119399999999992
 21
49.456400000000002
 31
0.0
  0
LINE
  5
477
  8
_________2
 62
     7
 10
188.49000000000001
 20
17.428499999999989
 30
0.0
 11
21.988499999999991
 21
17.428499999999989
 31
0.0
  0
LINE
  5
478
  8
_________2
 62
     7
 10
21.988499999999991
 20
17.428499999999989
 30
0.0
 11
21.988499999999991
 21
280.42999999999989
 31
0.0
  0
LINE
  5
479
  8
_________2
 62
     7
 10
21.988499999999991
 20
280.42999999999989
 30
0.0
 11
188.49000000000001
 21
280.42999999999989
 31
0.0
  0
LINE
  5
47A
  8
_________2
 62
     7
 10
188.49000000000001
 20
280.42999999999989
 30
0.0
 11
188.49000000000001
 21
17.428499999999989
 31
0.0
  0
LINE
  5
47B
  8
_________2
 62
     7
 10
70.488799999999998
 20
30.9285
 30
0.0
 11
70.488799999999998
 21
57.428400000000011
 31
0.0
  0
LINE
  5
47C
  8
_________2
 62
     7
 10
89.488600000000005
 20
30.9285
 30
0.0
 11
89.488600000000005
 21
57.428400000000011
 31
0.0
  0
LINE
  5
47D
  8
_________2
 62
     7
 10
108.4889999999999
 20
17.428499999999989
 30
0.0
 11
108.4889999999999
 21
57.428400000000011
 31
0.0
  0
LINE
  5
47E
  8
_________2
 62
     7
 10
33.488300000000002
 20
30.9285
 30
0.0
 11
33.488300000000002
 21
44.928800000000003
 31
0.0
  0
LINE
  5
47F
  8
_________2
 62
     7
 10
21.988499999999991
 20
30.9285
 30
0.0
 11
108.4889999999999
 21
30.9285
 31
0.0
  0
LINE
  5
480
  8
_________2
 62
     7
 10
21.988499999999991
 20
44.928800000000003
 30
0.0
 11
108.4889999999999
 21
44.928800000000003
 31
0.0
  0
LINE
  5
481
  8
_________2
 62
     7
 10
108.4889999999999
 20
37.428100000000001
 30
0.0
 11
188.49000000000001
 21
37.428100000000001
 31
0.0
  0
LINE
  5
482
  8
_________2
 62
     7
 10
21.988499999999991
 20
57.428400000000011
 30
0.0
 11
188.49000000000001
 21
57.428400000000011
 31
0.0
  0
ENDSEC
  0
EOF
