  0
SECTION
  2
HEADER
  9
$ACADVER
  1
AC1009
  9
$INSBASE
 10
0.0
 20
0.0
 30
0.0
  9
$EXTMIN
 10
0.238058
 20
0.4482100000000001
 30
0.0
  9
$EXTMAX
 10
210.24000000000001
 20
297.44999999999987
 30
0.0
  9
$LIMMIN
 10
0.0
 20
0.0
  9
$LIMMAX
 10
12.0
 20
9.0
  9
$ORTHOMODE
 70
     0
  9
$REGENMODE
 70
     1
  9
$FILLMODE
 70
     1
  9
$QTEXTMODE
 70
     0
  9
$MIRRTEXT
 70
     1
  9
$DRAGMODE
 70
     2
  9
$LTSCALE
 40
1.0
  9
$OSMODE
 70
    37
  9
$ATTMODE
 70
     1
  9
$TEXTSIZE
 40
0.0
  9
$TRACEWID
 40
0.05
  9
$TEXTSTYLE
  7
STANDARD
  9
$CLAYER
  8
0
  9
$CELTYPE
  6
CONTINUOUS
  9
$CECOLOR
 62
   256
  9
$DIMSCALE
 40
1.0
  9
$DIMASZ
 40
0.18
  9
$DIMEXO
 40
0.0625
  9
$DIMDLI
 40
0.38
  9
$DIMRND
 40
0.0
  9
$DIMDLE
 40
0.0
  9
$DIMEXE
 40
0.18
  9
$DIMTP
 40
0.0
  9
$DIMTM
 40
0.0
  9
$DIMTXT
 40
0.18
  9
$DIMCEN
 40
0.09
  9
$DIMTSZ
 40
0.0
  9
$DIMTOL
 70
     0
  9
$DIMLIM
 70
     0
  9
$DIMTIH
 70
     1
  9
$DIMTOH
 70
     1
  9
$DIMSE1
 70
     0
  9
$DIMSE2
 70
     0
  9
$DIMTAD
 70
     0
  9
$DIMZIN
 70
     0
  9
$DIMBLK
  1

  9
$DIMASO
 70
     1
  9
$DIMSHO
 70
     1
  9
$DIMPOST
  1

  9
$DIMAPOST
  1

  9
$DIMALT
 70
     0
  9
$DIMALTD
 70
     2
  9
$DIMALTF
 40
25.399999999999999
  9
$DIMLFAC
 40
1.0
  9
$DIMTOFL
 70
     0
  9
$DIMTVP
 40
0.0
  9
$DIMTIX
 70
     0
  9
$DIMSOXD
 70
     0
  9
$DIMSAH
 70
     0
  9
$DIMBLK1
  1

  9
$DIMBLK2
  1

  9
$DIMSTYLE
  2
STANDARD
  9
$DIMCLRD
 70
     0
  9
$DIMCLRE
 70
     0
  9
$DIMCLRT
 70
     0
  9
$DIMTFAC
 40
1.0
  9
$DIMGAP
 40
0.09
  9
$LUNITS
 70
     2
  9
$LUPREC
 70
     4
  9
$SKETCHINC
 40
0.1
  9
$FILLETRAD
 40
0.0
  9
$AUNITS
 70
     0
  9
$AUPREC
 70
     0
  9
$MENU
  1
.
  9
$ELEVATION
 40
0.0
  9
$PELEVATION
 40
0.0
  9
$THICKNESS
 40
0.0
  9
$LIMCHECK
 70
     0
  9
$BLIPMODE
 70
     0
  9
$CHAMFERA
 40
0.0
  9
$CHAMFERB
 40
0.0
  9
$SKPOLY
 70
     0
  9
$TDCREATE
 40
2444972.375
  9
$TDUPDATE
 40
2456675.245786794
  9
$TDINDWG
 40
0.0000083796
  9
$TDUSRTIMER
 40
0.0000083796
  9
$USRTIMER
 70
     1
  9
$ANGBASE
 50
0.0
  9
$ANGDIR
 70
     0
  9
$PDMODE
 70
     0
  9
$PDSIZE
 40
0.0
  9
$PLINEWID
 40
0.0
  9
$COORDS
 70
     1
  9
$SPLFRAME
 70
     0
  9
$SPLINETYPE
 70
     6
  9
$SPLINESEGS
 70
     8
  9
$ATTDIA
 70
     0
  9
$ATTREQ
 70
     1
  9
$HANDLING
 70
     1
  9
$HANDSEED
  5
49D
  9
$SURFTAB1
 70
     6
  9
$SURFTAB2
 70
     6
  9
$SURFTYPE
 70
     6
  9
$SURFU
 70
     6
  9
$SURFV
 70
     6
  9
$UCSNAME
  2

  9
$UCSORG
 10
0.0
 20
0.0
 30
0.0
  9
$UCSXDIR
 10
1.0
 20
0.0
 30
0.0
  9
$UCSYDIR
 10
0.0
 20
1.0
 30
0.0
  9
$PUCSNAME
  2

  9
$PUCSORG
 10
0.0
 20
0.0
 30
0.0
  9
$PUCSXDIR
 10
1.0
 20
0.0
 30
0.0
  9
$PUCSYDIR
 10
0.0
 20
1.0
 30
0.0
  9
$USERI1
 70
     0
  9
$USERI2
 70
     0
  9
$USERI3
 70
     0
  9
$USERI4
 70
     0
  9
$USERI5
 70
     0
  9
$USERR1
 40
0.0
  9
$USERR2
 40
0.0
  9
$USERR3
 40
0.0
  9
$USERR4
 40
0.0
  9
$USERR5
 40
0.0
  9
$WORLDVIEW
 70
     1
  9
$SHADEDGE
 70
     3
  9
$SHADEDIF
 70
    70
  9
$TILEMODE
 70
     1
  9
$MAXACTVP
 70
    48
  9
$PLIMCHECK
 70
     0
  9
$PEXTMIN
 10
1.0000000000000000E+020
 20
1.0000000000000000E+020
 30
1.0000000000000000E+020
  9
$PEXTMAX
 10
-1.0000000000000000E+020
 20
-1.0000000000000000E+020
 30
-1.0000000000000000E+020
  9
$PLIMMIN
 10
0.0
 20
0.0
  9
$PLIMMAX
 10
12.0
 20
9.0
  9
$UNITMODE
 70
     0
  9
$VISRETAIN
 70
     1
  9
$PLINEGEN
 70
     0
  9
$PSLTSCALE
 70
     1
  0
ENDSEC
  0
SECTION
  2
TABLES
  0
TABLE
  2
VPORT
 70
     2
  0
VPORT
  2
*ACTIVE
 70
     0
 10
0.0
 20
0.0
 11
1.0
 21
1.0
 12
206.97982146115791
 22
148.72499999999991
 13
0.0
 23
0.0
 14
1.0
 24
1.0
 15
0.0
 25
0.0
 16
0.0
 26
0.0
 36
1.0
 17
0.0
 27
0.0
 37
0.0
 40
299.90488308115528
 41
2.2894736842105261
 42
50.0
 43
0.0
 44
0.0
 50
0.0
 51
0.0
 71
     0
 72
   100
 73
     1
 74
     1
 75
     0
 76
     0
 77
     0
 78
     0
  0
ENDTAB
  0
TABLE
  2
LTYPE
 70
     3
  0
LTYPE
  2
CONTINUOUS
 70
     0
  3
Solid line
 72
    65
 73
     0
 40
0.0
  0
LTYPE
  2
AIGENLINE001
 70
     0
  3
generate AI->DXF Converter
 72
    65
 73
     6
 40
7.4083750000000004
 49
3.5278
 49
-0.776115
 49
0.776115
 49
-0.776115
 49
0.776115
 49
-0.776115
  0
LTYPE
  2
AIGENLINE002
 70
     0
  3
generate AI->DXF Converter
 72
    65
 73
     4
 40
5.8561449999999988
 49
3.5278
 49
-0.776115
 49
0.776115
 49
-0.776115
  0
ENDTAB
  0
TABLE
  2
LAYER
 70
     2
  0
LAYER
  2
0
 70
     0
 62
     7
  6
CONTINUOUS
  0
LAYER
  2
_________2
 70
     0
 62
     7
  6
CONTINUOUS
  0
ENDTAB
  0
TABLE
  2
STYLE
 70
     1
  0
STYLE
  2
STANDARD
 70
     0
 40
0.0
 41
0.0
 50
0.0
 71
     0
 42
0.0
  3
TXT
  4
EXTFONT.SHX
  0
ENDTAB
  0
TABLE
  2
VIEW
 70
     0
  0
ENDTAB
  0
TABLE
  2
UCS
 70
     0
  0
ENDTAB
  0
TABLE
  2
APPID
 70
     1
  0
APPID
  2
ACAD
 70
     0
  0
ENDTAB
  0
TABLE
  2
DIMSTYLE
 70
     1
  0
DIMSTYLE
  2
STANDARD
 70
     0
  3

  4

  5

  6

  7

 40
1.0
 41
0.18
 42
0.0625
 43
0.38
 44
0.18
 45
0.0
 46
0.0
 47
0.0
 48
0.0
140
0.18
141
0.09
142
0.0
143
25.399999999999999
144
1.0
145
0.0
146
1.0
147
0.09
 71
     0
 72
     0
 73
     1
 74
     1
 75
     0
 76
     0
 77
     0
 78
     0
170
     0
171
     2
172
     0
173
     0
174
     0
175
     0
176
     0
177
     0
178
     0
  0
ENDTAB
  0
ENDSEC
  0
SECTION
  2
BLOCKS
  0
BLOCK
  8
0
  2
$MODEL_SPACE
 70
     0
 10
0.0
 20
0.0
 30
0.0
  3
$MODEL_SPACE
  1

  0
ENDBLK
  5
1A
  8
0
  0
BLOCK
 67
     1
  8
0
  2
$PAPER_SPACE
 70
     0
 10
0.0
 20
0.0
 30
0.0
  3
$PAPER_SPACE
  1

  0
ENDBLK
  5
17
 67
     1
  8
0
  0
ENDSEC
  0
SECTION
  2
ENTITIES
  0
TEXT
  5
23
  8
0
 62
     7
 10
50.530507999999998
 20
250.0449999999999
 30
0.0
 40
3.0923400000000001
  1
湯
 41
0.5
 72
     2
 11
51.97359999999999
 21
250.0449999999999
 31
0.0
  0
TEXT
  5
24
  8
0
 62
     7
 10
57.042900000000003
 20
241.9309999999999
 30
0.0
 40
3.0923400000000001
  1
45%%d
 41
0.5
  0
TEXT
  5
25
  8
0
 62
     7
 10
73.896069999999995
 20
241.9309999999999
 30
0.0
 40
3.0923400000000001
  1
45%%d
 41
0.5
 72
     2
 11
77.503799999999984
 21
241.9309999999999
 31
0.0
  0
TEXT
  5
26
  8
0
 62
     7
 10
82.665400000000005
 20
250.0449999999999
 30
0.0
 40
3.0923400000000001
  1
水
 41
0.5
  0
TEXT
  5
27
  8
0
 62
     7
 10
112.874
 20
64.133300000000006
 30
0.0
 40
3.0923400000000001
  1
G 1/2
 41
0.5
  0
TEXT
  5
28
  8
0
 62
     7
 10
150.12
 20
120.1692875
 30
0.0
 40
3.0923400000000001
  1
240
 50
90.0
 41
0.5
 72
     1
 11
150.12
 21
122.1019999999999
 31
0.0
  0
TEXT
  5
29
  8
0
 62
     7
 10
150.12
 20
183.2904399999999
 30
0.0
 40
3.0923400000000001
  1
266
 50
90.0
 41
0.5
 72
     1
 11
150.12
 21
185.35199999999989
 31
0.0
  0
TEXT
  5
2A
  8
0
 62
     7
 10
159.28599999999989
 20
186.12144000000001
 30
0.0
 40
3.0923400000000001
  1
289
 50
90.0
 41
0.5
 72
     1
 11
159.28599999999989
 21
188.18299999999991
 31
0.0
  0
TEXT
  5
2B
  8
0
 62
     7
 10
119.042
 20
137.34200000000001
 30
0.0
 40
3.0923400000000001
  1
max.35
 50
90.0
 41
0.5
  0
TEXT
  5
2C
  8
0
 62
     7
 10
91.461699999999993
 20
170.923135
 30
0.0
 40
3.0923400000000001
  1
165
 50
90.0
 41
0.5
 72
     1
 11
91.461699999999993
 21
172.727
 31
0.0
  0
TEXT
  5
2D
  8
0
 62
     7
 10
111.2389999999999
 20
170.4459824999999
 30
0.0
 40
3.0923400000000001
  1
160
 50
90.0
 41
0.5
 72
     1
 11
111.2389999999999
 21
172.1209999999999
 31
0.0
  0
TEXT
  5
2E
  8
0
 62
     7
 10
111.2389999999999
 20
110.298135
 30
0.0
 40
3.0923400000000001
  1
500
 50
90.0
 41
0.5
 72
     1
 11
111.2389999999999
 21
112.102
 31
0.0
  0
TEXT
  5
2F
  8
0
 62
     7
 10
138.25221999999991
 20
196.20099999999999
 30
0.0
 40
3.0923400000000001
  1
19
 41
0.5
 72
     1
 11
139.2829999999999
 21
196.20099999999999
 31
0.0
  0
TEXT
  5
30
  8
0
 62
     7
 10
114.74305
 20
181.4009999999999
 30
0.0
 40
3.0923400000000001
  1
116.5
 41
0.5
 72
     1
 11
117.31999999999999
 21
181.4009999999999
 31
0.0
  0
TEXT
  5
31
  8
0
 62
     7
 10
138.40588
 20
161.10599999999991
 30
0.0
 40
3.0923400000000001
  1
%%c48
 41
0.5
 72
     2
 11
142.52899999999991
 21
161.10599999999991
 31
0.0
  0
TEXT
  5
32
  8
0
 62
     7
 10
138.05387999999999
 20
171.64799999999991
 30
0.0
 40
3.0923400000000001
  1
%%c42
 41
0.5
 72
     2
 11
142.17699999999999
 21
171.64799999999991
 31
0.0
  0
TEXT
  5
33
  8
0
 62
     7
 10
97.765834999999996
 20
176.7949999999999
 30
0.0
 40
3.0923400000000001
  1
25%%d
 41
0.5
 72
     1
 11
99.569699999999997
 21
176.7949999999999
 31
0.0
  0
TEXT
  5
34
  8
0
 62
     7
 10
109.578986
 20
213.749
 30
0.0
 40
3.0923400000000001
  1
閉
 41
0.5
 72
     2
 11
110.9189999999999
 21
213.749
 31
0.0
  0
TEXT
  5
35
  8
0
 62
     7
 10
113.545986
 20
222.9309999999999
 30
0.0
 40
3.0923400000000001
  1
開
 41
0.5
 72
     2
 11
114.886
 21
222.9309999999999
 31
0.0
  0
TEXT
  5
36
  8
0
 62
     7
 10
140.23887999999991
 20
271.48599999999988
 30
0.0
 40
3.0923400000000001
  1
%%c35
 41
0.5
 72
     2
 11
144.36199999999991
 21
271.48599999999988
 31
0.0
  0
TEXT
  5
37
  8
0
 62
     7
 10
127.2376459999999
 20
250.714
 30
0.0
 40
3.0923400000000001
  1
水栓取付穴
 41
0.5
 72
     1
 11
131.6699999999999
 21
250.714
 31
0.0
  0
TEXT
  5
38
  8
0
 62
     7
 10
138.80704999999989
 20
105.64399999999991
 30
0.0
 40
3.0923400000000001
  1
%%c5
 41
0.5
 72
     2
 11
141.3839999999999
 21
105.64399999999991
 31
0.0
  0
ARC
  5
39
  8
0
 62
     7
 10
67.344313999999997
 20
263.78705600000001
 30
0.0
 40
24.604057000000001
 50
225.2857919999999
 51
269.71916099999987
  0
ARC
  5
3A
  8
0
 62
     7
 10
67.104367000000011
 20
263.78441099999992
 30
0.0
 40
24.601406000000001
 50
270.277962
 51
314.72073799999993
  0
LINE
  5
3B
  8
0
 62
     7
 10
51.2592
 20
244.3709999999999
 30
0.0
 11
50.0321
 21
246.30399999999989
 31
0.0
  0
LINE
  5
3C
  8
0
 62
     7
 10
50.0321
 20
246.30399999999989
 30
0.0
 11
52.061199999999999
 21
245.244
 31
0.0
  0
LINE
  5
3D
  8
0
 62
     7
 10
52.061199999999999
 20
245.244
 30
0.0
 11
51.2592
 21
244.3709999999999
 31
0.0
  0
LINE
  5
3E
  8
0
 62
     7
 10
65.012100000000004
 20
239.7759999999999
 30
0.0
 11
67.223699999999994
 21
239.18299999999999
 31
0.0
  0
LINE
  5
3F
  8
0
 62
     7
 10
67.223699999999994
 20
239.18299999999999
 30
0.0
 11
65.012100000000004
 21
238.59099999999989
 31
0.0
  0
LINE
  5
40
  8
0
 62
     7
 10
65.012100000000004
 20
238.59099999999989
 30
0.0
 11
65.012100000000004
 21
239.7759999999999
 31
0.0
  0
LINE
  5
41
  8
0
 62
     7
 10
83.188199999999995
 20
244.3709999999999
 30
0.0
 11
84.415400000000005
 21
246.30399999999989
 31
0.0
  0
LINE
  5
42
  8
0
 62
     7
 10
84.415400000000005
 20
246.30399999999989
 30
0.0
 11
82.386200000000002
 21
245.244
 31
0.0
  0
LINE
  5
43
  8
0
 62
     7
 10
82.386200000000002
 20
245.244
 30
0.0
 11
83.188199999999995
 21
244.3709999999999
 31
0.0
  0
LINE
  5
44
  8
0
 62
     7
 10
69.435299999999984
 20
239.7759999999999
 30
0.0
 11
67.223699999999994
 21
239.18299999999999
 31
0.0
  0
LINE
  5
45
  8
0
 62
     7
 10
67.223699999999994
 20
239.18299999999999
 30
0.0
 11
69.435299999999984
 21
238.59099999999989
 31
0.0
  0
LINE
  5
46
  8
0
 62
     7
 10
69.435299999999984
 20
238.59099999999989
 30
0.0
 11
69.435299999999984
 21
239.7759999999999
 31
0.0
  0
LINE
  5
47
  8
0
 62
     7
 10
52.320999999999998
 20
248.5929999999999
 30
0.0
 11
49.638999999999989
 21
245.91099999999989
 31
0.0
  0
LINE
  5
48
  8
0
 62
     7
 10
82.359700000000004
 20
248.36000000000001
 30
0.0
 11
84.808499999999995
 21
245.91099999999989
 31
0.0
  0
LINE
  5
49
  8
0
  6
AIGENLINE002
 62
     7
 10
75.247
 20
263.49599999999992
 30
0.0
 11
58.970399999999998
 21
263.49599999999992
 31
0.0
  0
LINE
  5
4A
  8
0
  6
AIGENLINE002
 62
     7
 10
67.223699999999994
 20
228.64400000000001
 30
0.0
 11
67.223699999999994
 21
272.39299999999992
 31
0.0
  0
LINE
  5
4B
  8
0
  6
AIGENLINE002
 62
     7
 10
130.119
 20
111.759
 30
0.0
 11
123.21299999999989
 21
122.307
 31
0.0
  0
LINE
  5
4C
  8
0
 62
     7
 10
121.78999999999991
 20
78.568700000000007
 30
0.0
 11
121.78999999999991
 21
109.6989999999999
 31
0.0
  0
LINE
  5
4D
  8
0
 62
     7
 10
121.98399999999999
 20
71.349100000000007
 30
0.0
 11
123.21299999999989
 21
71.349100000000007
 31
0.0
  0
LINE
  5
4E
  8
0
 62
     7
 10
124.441
 20
71.349100000000007
 30
0.0
 11
123.21299999999989
 21
71.349100000000007
 31
0.0
  0
LINE
  5
4F
  8
0
 62
     7
 10
121.648
 20
75.5304
 30
0.0
 11
121.648
 21
76.318299999999994
 31
0.0
  0
ARC
  5
50
  8
0
 62
     7
 10
122.4221559999999
 20
75.746741999999998
 30
0.0
 40
0.302398
 50
180.2576929999999
 51
222.05385200000001
  0
ARC
  5
51
  8
0
 62
     7
 10
121.970265
 20
75.746789000000007
 30
0.0
 40
0.304529
 50
318.29494299999988
 51
359.73526600000002
  0
ARC
  5
52
  8
0
 62
     7
 10
123.43708700000001
 20
75.746741999999998
 30
0.0
 40
0.302398
 50
180.2576929999999
 51
222.05385200000001
  0
LINE
  5
53
  8
0
 62
     7
 10
123.21299999999989
 20
74.840699999999998
 30
0.0
 11
121.6609999999999
 21
74.840699999999998
 31
0.0
  0
LINE
  5
54
  8
0
 62
     7
 10
122.598
 20
74.840699999999998
 30
0.0
 11
123.21299999999989
 21
74.840699999999998
 31
0.0
  0
LINE
  5
55
  8
0
 62
     7
 10
121.648
 20
75.544200000000004
 30
0.0
 11
123.21299999999989
 21
75.544200000000004
 31
0.0
  0
ARC
  5
56
  8
0
 62
     7
 10
122.04303999999991
 20
75.192928000000009
 30
0.0
 40
0.519732
 50
139.508858
 51
222.66594499999999
  0
LINE
  5
57
  8
0
 62
     7
 10
122.185
 20
74.840699999999998
 30
0.0
 11
122.598
 21
74.840699999999998
 31
0.0
  0
LINE
  5
58
  8
0
 62
     7
 10
121.78999999999991
 20
78.568700000000007
 30
0.0
 11
123.21299999999989
 21
78.568700000000007
 31
0.0
  0
LINE
  5
59
  8
0
 62
     7
 10
121.648
 20
76.304900000000004
 30
0.0
 11
123.21299999999989
 21
76.304900000000004
 31
0.0
  0
LINE
  5
5A
  8
0
 62
     7
 10
121.648
 20
77.007999999999996
 30
0.0
 11
123.21299999999989
 21
77.007999999999996
 31
0.0
  0
LINE
  5
5B
  8
0
 62
     7
 10
121.648
 20
77.770399999999995
 30
0.0
 11
123.21299999999989
 21
77.770399999999995
 31
0.0
  0
ARC
  5
5C
  8
0
 62
     7
 10
122.044562
 20
78.113643999999994
 30
0.0
 40
0.5215180000000002
 50
119.25236200000001
 51
205.02098399999991
  0
ARC
  5
5D
  8
0
 62
     7
 10
122.00085900000001
 20
78.108777000000003
 30
0.0
 40
0.4800640000000001
 50
206.70096099999989
 51
222.651893
  0
ARC
  5
5E
  8
0
 62
     7
 10
122.04170999999999
 20
76.65644300000001
 30
0.0
 40
0.5191520000000001
 50
139.35815899999989
 51
220.641841
  0
LINE
  5
5F
  8
0
 62
     7
 10
121.648
 20
76.994600000000005
 30
0.0
 11
121.648
 21
77.783500000000004
 31
0.0
  0
LINE
  5
60
  8
0
 62
     7
 10
122.27500000000001
 20
77.209199999999996
 30
0.0
 11
122.27500000000001
 21
77.569199999999995
 31
0.0
  0
LINE
  5
61
  8
0
 62
     7
 10
122.27500000000001
 20
75.745400000000004
 30
0.0
 11
122.27500000000001
 21
76.103700000000003
 31
0.0
  0
ARC
  5
62
  8
0
 62
     7
 10
122.421533
 20
76.102554999999995
 30
0.0
 40
0.301775
 50
137.90096199999999
 51
179.7874929999999
  0
ARC
  5
63
  8
0
 62
     7
 10
122.421533
 20
77.568107999999995
 30
0.0
 40
0.301775
 50
137.90096199999999
 51
179.7874929999999
  0
ARC
  5
64
  8
0
 62
     7
 10
122.422112
 20
77.210554999999999
 30
0.0
 40
0.302355
 50
180.25456
 51
222.05698499999991
  0
LINE
  5
65
  8
0
 62
     7
 10
122.12
 20
77.209199999999996
 30
0.0
 11
122.12
 21
77.569199999999995
 31
0.0
  0
LINE
  5
66
  8
0
 62
     7
 10
122.12
 20
75.745400000000004
 30
0.0
 11
122.12
 21
76.103700000000003
 31
0.0
  0
ARC
  5
67
  8
0
 62
     7
 10
121.970456
 20
76.102339999999998
 30
0.0
 40
0.304338
 50
0.251121
 51
41.718670000000003
  0
ARC
  5
68
  8
0
 62
     7
 10
121.970456
 20
77.567893000000012
 30
0.0
 40
0.304338
 50
0.251121
 51
41.718670000000003
  0
ARC
  5
69
  8
0
 62
     7
 10
121.970265
 20
77.210618999999994
 30
0.0
 40
0.304529
 50
318.29494299999988
 51
359.73526600000002
  0
LINE
  5
6A
  8
0
 62
     7
 10
123.13500000000001
 20
77.209199999999996
 30
0.0
 11
123.13500000000001
 21
77.569199999999995
 31
0.0
  0
LINE
  5
6B
  8
0
 62
     7
 10
123.13500000000001
 20
75.745400000000004
 30
0.0
 11
123.13500000000001
 21
76.103700000000003
 31
0.0
  0
ARC
  5
6C
  8
0
 62
     7
 10
123.4364649999999
 20
76.102554999999995
 30
0.0
 40
0.301775
 50
137.90096199999999
 51
179.7874929999999
  0
ARC
  5
6D
  8
0
 62
     7
 10
123.4364649999999
 20
77.568107999999995
 30
0.0
 40
0.301775
 50
137.90096199999999
 51
179.7874929999999
  0
ARC
  5
6E
  8
0
 62
     7
 10
123.4370439999999
 20
77.210554999999999
 30
0.0
 40
0.302355
 50
180.25456
 51
222.05698499999991
  0
ARC
  5
6F
  8
0
 62
     7
 10
122.985197
 20
77.210618999999994
 30
0.0
 40
0.304529
 50
318.29494299999988
 51
359.73526600000002
  0
ARC
  5
70
  8
0
 62
     7
 10
122.9853879999999
 20
77.567893000000012
 30
0.0
 40
0.304338
 50
0.251121
 51
41.718670000000003
  0
ARC
  5
71
  8
0
 62
     7
 10
122.9853879999999
 20
76.102339999999998
 30
0.0
 40
0.304338
 50
0.251121
 51
41.718670000000003
  0
LINE
  5
72
  8
0
 62
     7
 10
123.29000000000001
 20
75.745400000000004
 30
0.0
 11
123.29000000000001
 21
76.103700000000003
 31
0.0
  0
LINE
  5
73
  8
0
 62
     7
 10
123.29000000000001
 20
77.209199999999996
 30
0.0
 11
123.29000000000001
 21
77.569199999999995
 31
0.0
  0
ARC
  5
74
  8
0
 62
     7
 10
124.451975
 20
77.210554999999999
 30
0.0
 40
0.302355
 50
180.25456
 51
222.05698499999991
  0
ARC
  5
75
  8
0
 62
     7
 10
124.451396
 20
77.568107999999995
 30
0.0
 40
0.301775
 50
137.90096199999999
 51
179.7874929999999
  0
ARC
  5
76
  8
0
 62
     7
 10
124.451396
 20
76.102554999999995
 30
0.0
 40
0.301775
 50
137.90096199999999
 51
179.7874929999999
  0
LINE
  5
77
  8
0
 62
     7
 10
124.30499999999989
 20
75.745400000000004
 30
0.0
 11
124.30499999999989
 21
76.103700000000003
 31
0.0
  0
LINE
  5
78
  8
0
 62
     7
 10
124.30499999999989
 20
77.209199999999996
 30
0.0
 11
124.30499999999989
 21
77.569199999999995
 31
0.0
  0
ARC
  5
79
  8
0
 62
     7
 10
124.0001279999999
 20
77.210618999999994
 30
0.0
 40
0.304529
 50
318.29494299999988
 51
359.73526600000002
  0
ARC
  5
7A
  8
0
 62
     7
 10
124.00031899999991
 20
77.567893000000012
 30
0.0
 40
0.304338
 50
0.251121
 51
41.718670000000003
  0
ARC
  5
7B
  8
0
 62
     7
 10
124.00031899999991
 20
76.102339999999998
 30
0.0
 40
0.304338
 50
0.251121
 51
41.718670000000003
  0
LINE
  5
7C
  8
0
 62
     7
 10
124.15000000000001
 20
75.745400000000004
 30
0.0
 11
124.15000000000001
 21
76.103700000000003
 31
0.0
  0
LINE
  5
7D
  8
0
 62
     7
 10
124.15000000000001
 20
77.209199999999996
 30
0.0
 11
124.15000000000001
 21
77.569199999999995
 31
0.0
  0
LINE
  5
7E
  8
0
 62
     7
 10
124.777
 20
76.994600000000005
 30
0.0
 11
124.777
 21
77.783500000000004
 31
0.0
  0
LINE
  5
7F
  8
0
 62
     7
 10
124.777
 20
77.770399999999995
 30
0.0
 11
123.21299999999989
 21
77.770399999999995
 31
0.0
  0
LINE
  5
80
  8
0
 62
     7
 10
124.777
 20
77.007999999999996
 30
0.0
 11
123.21299999999989
 21
77.007999999999996
 31
0.0
  0
LINE
  5
81
  8
0
 62
     7
 10
124.777
 20
76.304900000000004
 30
0.0
 11
123.21299999999989
 21
76.304900000000004
 31
0.0
  0
LINE
  5
82
  8
0
 62
     7
 10
124.63500000000001
 20
78.568700000000007
 30
0.0
 11
123.21299999999989
 21
78.568700000000007
 31
0.0
  0
LINE
  5
83
  8
0
 62
     7
 10
124.241
 20
74.840699999999998
 30
0.0
 11
123.827
 21
74.840699999999998
 31
0.0
  0
LINE
  5
84
  8
0
 62
     7
 10
124.777
 20
75.544200000000004
 30
0.0
 11
123.21299999999989
 21
75.544200000000004
 31
0.0
  0
LINE
  5
85
  8
0
 62
     7
 10
123.827
 20
74.840699999999998
 30
0.0
 11
123.21299999999989
 21
74.840699999999998
 31
0.0
  0
LINE
  5
86
  8
0
 62
     7
 10
123.21299999999989
 20
74.840699999999998
 30
0.0
 11
124.764
 21
74.840699999999998
 31
0.0
  0
ARC
  5
87
  8
0
 62
     7
 10
122.985197
 20
75.746789000000007
 30
0.0
 40
0.304529
 50
318.29494299999988
 51
359.73526600000002
  0
ARC
  5
88
  8
0
 62
     7
 10
124.45201900000001
 20
75.746741999999998
 30
0.0
 40
0.302398
 50
180.2576929999999
 51
222.05385200000001
  0
ARC
  5
89
  8
0
 62
     7
 10
124.0001279999999
 20
75.746789000000007
 30
0.0
 40
0.304529
 50
318.29494299999988
 51
359.73526600000002
  0
LINE
  5
8A
  8
0
 62
     7
 10
124.777
 20
75.5304
 30
0.0
 11
124.777
 21
76.318299999999994
 31
0.0
  0
LINE
  5
8B
  8
0
 62
     7
 10
123.21299999999989
 20
74.711200000000005
 30
0.0
 11
121.98399999999999
 21
74.711200000000005
 31
0.0
  0
LINE
  5
8C
  8
0
 62
     7
 10
121.467
 20
74.711200000000005
 30
0.0
 11
120.497
 21
74.711200000000005
 31
0.0
  0
LINE
  5
8D
  8
0
 62
     7
 10
120.497
 20
74.711200000000005
 30
0.0
 11
120.238
 21
74.452799999999996
 31
0.0
  0
LINE
  5
8E
  8
0
 62
     7
 10
121.98399999999999
 20
74.711200000000005
 30
0.0
 11
121.467
 21
74.711200000000005
 31
0.0
  0
LINE
  5
8F
  8
0
 62
     7
 10
121.98399999999999
 20
74.711200000000005
 30
0.0
 11
121.726
 21
74.452799999999996
 31
0.0
  0
LINE
  5
90
  8
0
 62
     7
 10
121.467
 20
74.711200000000005
 30
0.0
 11
121.726
 21
74.452799999999996
 31
0.0
  0
LINE
  5
91
  8
0
 62
     7
 10
121.467
 20
71.349100000000007
 30
0.0
 11
120.497
 21
71.349100000000007
 31
0.0
  0
LINE
  5
92
  8
0
 62
     7
 10
120.238
 20
71.607799999999983
 30
0.0
 11
120.497
 21
71.349100000000007
 31
0.0
  0
LINE
  5
93
  8
0
 62
     7
 10
121.98399999999999
 20
71.349100000000007
 30
0.0
 11
121.467
 21
71.349100000000007
 31
0.0
  0
LINE
  5
94
  8
0
 62
     7
 10
121.726
 20
71.607799999999983
 30
0.0
 11
121.98399999999999
 21
71.349100000000007
 31
0.0
  0
LINE
  5
95
  8
0
 62
     7
 10
121.726
 20
71.607799999999983
 30
0.0
 11
121.467
 21
71.349100000000007
 31
0.0
  0
LINE
  5
96
  8
0
 62
     7
 10
120.238
 20
74.452799999999996
 30
0.0
 11
120.238
 21
71.607799999999983
 31
0.0
  0
LINE
  5
97
  8
0
 62
     7
 10
121.726
 20
71.607799999999983
 30
0.0
 11
121.726
 21
74.452799999999996
 31
0.0
  0
LINE
  5
98
  8
0
 62
     7
 10
124.699
 20
71.607799999999983
 30
0.0
 11
124.699
 21
74.452799999999996
 31
0.0
  0
LINE
  5
99
  8
0
 62
     7
 10
124.699
 20
71.607799999999983
 30
0.0
 11
124.441
 21
71.349100000000007
 31
0.0
  0
LINE
  5
9A
  8
0
 62
     7
 10
124.441
 20
74.711200000000005
 30
0.0
 11
124.699
 21
74.452799999999996
 31
0.0
  0
LINE
  5
9B
  8
0
 62
     7
 10
123.21299999999989
 20
74.711200000000005
 30
0.0
 11
124.441
 21
74.711200000000005
 31
0.0
  0
LINE
  5
9C
  8
0
 62
     7
 10
121.6609999999999
 20
74.840699999999998
 30
0.0
 11
121.6609999999999
 21
74.711200000000005
 31
0.0
  0
LINE
  5
9D
  8
0
 62
     7
 10
124.764
 20
74.840699999999998
 30
0.0
 11
124.764
 21
74.711200000000005
 31
0.0
  0
LINE
  5
9E
  8
0
 62
     7
 10
126.18600000000001
 20
74.452799999999996
 30
0.0
 11
126.18600000000001
 21
71.607799999999983
 31
0.0
  0
LINE
  5
9F
  8
0
 62
     7
 10
126.18600000000001
 20
71.607799999999983
 30
0.0
 11
125.9279999999999
 21
71.349100000000007
 31
0.0
  0
LINE
  5
A0
  8
0
 62
     7
 10
124.9589999999999
 20
71.349100000000007
 30
0.0
 11
125.9279999999999
 21
71.349100000000007
 31
0.0
  0
LINE
  5
A1
  8
0
 62
     7
 10
125.9279999999999
 20
74.711200000000005
 30
0.0
 11
126.18600000000001
 21
74.452799999999996
 31
0.0
  0
LINE
  5
A2
  8
0
 62
     7
 10
124.9589999999999
 20
74.711200000000005
 30
0.0
 11
125.9279999999999
 21
74.711200000000005
 31
0.0
  0
LINE
  5
A3
  8
0
 62
     7
 10
124.699
 20
71.607799999999983
 30
0.0
 11
124.9589999999999
 21
71.349100000000007
 31
0.0
  0
LINE
  5
A4
  8
0
 62
     7
 10
124.441
 20
71.349100000000007
 30
0.0
 11
124.9589999999999
 21
71.349100000000007
 31
0.0
  0
LINE
  5
A5
  8
0
 62
     7
 10
124.9589999999999
 20
74.711200000000005
 30
0.0
 11
124.699
 21
74.452799999999996
 31
0.0
  0
LINE
  5
A6
  8
0
 62
     7
 10
124.441
 20
74.711200000000005
 30
0.0
 11
124.9589999999999
 21
74.711200000000005
 31
0.0
  0
ARC
  5
A7
  8
0
 62
     7
 10
124.382457
 20
76.65644300000001
 30
0.0
 40
0.519863
 50
319.42540099999991
 51
40.574598999999999
  0
ARC
  5
A8
  8
0
 62
     7
 10
124.3789889999999
 20
78.120386999999994
 30
0.0
 40
0.5216840000000002
 50
319.77864799999998
 51
45.560268000000001
  0
ARC
  5
A9
  8
0
 62
     7
 10
124.386579
 20
78.092939000000001
 30
0.0
 40
0.5365340000000001
 50
48.192146000000008
 51
62.455018999999993
  0
ARC
  5
AA
  8
0
 62
     7
 10
124.38031599999989
 20
75.192961999999994
 30
0.0
 40
0.521041
 50
317.46164399999992
 51
40.363553000000003
  0
LINE
  5
AB
  8
0
 62
     7
 10
124.63500000000001
 20
78.568700000000007
 30
0.0
 11
124.63500000000001
 21
109.6989999999999
 31
0.0
  0
LINE
  5
AC
  8
0
 62
     7
 10
122.79899999999989
 20
64.025800000000004
 30
0.0
 11
120.5869999999999
 21
63.433199999999999
 31
0.0
  0
LINE
  5
AD
  8
0
 62
     7
 10
120.5869999999999
 20
63.433199999999999
 30
0.0
 11
122.79899999999989
 21
62.840699999999991
 31
0.0
  0
LINE
  5
AE
  8
0
 62
     7
 10
122.79899999999989
 20
62.840699999999991
 30
0.0
 11
122.79899999999989
 21
64.025800000000004
 31
0.0
  0
LINE
  5
AF
  8
0
 62
     7
 10
123.627
 20
62.8551
 30
0.0
 11
125.83799999999999
 21
63.447699999999998
 31
0.0
  0
LINE
  5
B0
  8
0
 62
     7
 10
125.83799999999999
 20
63.447699999999998
 30
0.0
 11
123.627
 21
64.040300000000002
 31
0.0
  0
LINE
  5
B1
  8
0
 62
     7
 10
123.627
 20
64.040300000000002
 30
0.0
 11
123.627
 21
62.8551
 31
0.0
  0
LINE
  5
B2
  8
0
 62
     7
 10
112.874
 20
63.433199999999999
 30
0.0
 11
125.83799999999999
 21
63.433199999999999
 31
0.0
  0
LINE
  5
B3
  8
0
 62
     7
 10
125.83799999999999
 20
70.649000000000001
 30
0.0
 11
125.83799999999999
 21
62.733199999999997
 31
0.0
  0
LINE
  5
B4
  8
0
 62
     7
 10
120.5869999999999
 20
70.649000000000001
 30
0.0
 11
120.5869999999999
 21
62.733199999999997
 31
0.0
  0
LINE
  5
B5
  8
0
  6
AIGENLINE002
 62
     7
 10
123.21299999999989
 20
69.714399999999998
 30
0.0
 11
123.21299999999989
 21
122.307
 31
0.0
  0
LINE
  5
B6
  8
0
 62
     7
 10
128.696
 20
122.5859999999999
 30
0.0
 11
128.696
 21
145.06700000000001
 31
0.0
  0
LINE
  5
B7
  8
0
 62
     7
 10
131.54099999999991
 20
122.5859999999999
 30
0.0
 11
131.54099999999991
 21
145.06700000000001
 31
0.0
  0
LINE
  5
B8
  8
0
  6
AIGENLINE002
 62
     7
 10
130.119
 20
111.759
 30
0.0
 11
130.119
 21
154.173
 31
0.0
  0
ARC
  5
B9
  8
0
  6
AIGENLINE002
 62
     7
 10
59.487648
 20
109.66321599999991
 30
0.0
 40
4.7641599999999986
 50
128.53577999999999
 51
179.5728159999999
  0
ARC
  5
BA
  8
0
  6
AIGENLINE002
 62
     7
 10
60.57189799999999
 20
122.62173899999991
 30
0.0
 40
4.7638499999999988
 50
308.54459700000001
 51
359.57292199999989
  0
LINE
  5
BB
  8
0
  6
AIGENLINE002
 62
     7
 10
63.540399999999998
 20
118.896
 30
0.0
 11
56.51959999999999
 21
113.39
 31
0.0
  0
LINE
  5
BC
  8
0
 62
     7
 10
63.912799999999997
 20
122.5859999999999
 30
0.0
 11
63.912799999999997
 21
151.06700000000001
 31
0.0
  0
LINE
  5
BD
  8
0
 62
     7
 10
66.757800000000003
 20
122.5859999999999
 30
0.0
 11
66.757800000000003
 21
151.06700000000001
 31
0.0
  0
LINE
  5
BE
  8
0
  6
AIGENLINE002
 62
     7
 10
65.335599999999999
 20
122.5859999999999
 30
0.0
 11
65.335599999999999
 21
155.096
 31
0.0
  0
LINE
  5
BF
  8
0
 62
     7
 10
56.540199999999999
 20
71.349100000000007
 30
0.0
 11
55.311700000000002
 21
71.349100000000007
 31
0.0
  0
LINE
  5
C0
  8
0
 62
     7
 10
54.083199999999991
 20
71.349100000000007
 30
0.0
 11
55.311700000000002
 21
71.349100000000007
 31
0.0
  0
ARC
  5
C1
  8
0
 62
     7
 10
55.917181000000006
 20
78.121995999999996
 30
0.0
 40
0.5019090000000001
 50
332.86334199999999
 51
62.863312000000001
  0
ARC
  5
C2
  8
0
 62
     7
 10
55.930467999999998
 20
78.111890999999986
 30
0.0
 40
0.4854850000000001
 50
317.43775099999988
 51
333.20943499999998
  0
LINE
  5
C3
  8
0
 62
     7
 10
56.14609999999999
 20
78.568700000000007
 30
0.0
 11
54.723300000000002
 21
78.568700000000007
 31
0.0
  0
LINE
  5
C4
  8
0
 62
     7
 10
56.287999999999997
 20
77.007999999999996
 30
0.0
 11
54.723300000000002
 21
77.007999999999996
 31
0.0
  0
LINE
  5
C5
  8
0
 62
     7
 10
56.287999999999997
 20
77.770399999999995
 30
0.0
 11
54.723300000000002
 21
77.770399999999995
 31
0.0
  0
LINE
  5
C6
  8
0
 62
     7
 10
56.287999999999997
 20
76.994600000000005
 30
0.0
 11
56.287999999999997
 21
77.783500000000004
 31
0.0
  0
LINE
  5
C7
  8
0
 62
     7
 10
55.661000000000001
 20
77.209199999999996
 30
0.0
 11
55.661000000000001
 21
77.569199999999995
 31
0.0
  0
ARC
  5
C8
  8
0
 62
     7
 10
55.513491000000002
 20
77.568314000000001
 30
0.0
 40
0.302233
 50
0.172964
 51
41.967782999999997
  0
ARC
  5
C9
  8
0
 62
     7
 10
55.512385000000002
 20
77.210550999999995
 30
0.0
 40
0.303341
 50
318.11207200000001
 51
359.74718100000001
  0
LINE
  5
CA
  8
0
 62
     7
 10
55.8157
 20
77.209199999999996
 30
0.0
 11
55.8157
 21
77.569199999999995
 31
0.0
  0
ARC
  5
CB
  8
0
 62
     7
 10
55.965372000000002
 20
77.567893000000012
 30
0.0
 40
0.304338
 50
138.28130999999999
 51
179.74885900000001
  0
ARC
  5
CC
  8
0
 62
     7
 10
55.964646000000002
 20
77.210267000000002
 30
0.0
 40
0.30361
 50
180.19917699999991
 51
221.77065300000001
  0
LINE
  5
CD
  8
0
 62
     7
 10
54.801099999999991
 20
77.209199999999996
 30
0.0
 11
54.801099999999991
 21
77.569199999999995
 31
0.0
  0
ARC
  5
CE
  8
0
 62
     7
 10
54.500250000000001
 20
77.568450999999996
 30
0.0
 40
0.300887
 50
0.147788
 51
42.163716999999991
  0
ARC
  5
CF
  8
0
 62
     7
 10
54.498783999999993
 20
77.210554999999999
 30
0.0
 40
0.302355
 50
317.94303500000001
 51
359.74545999999998
  0
ARC
  5
D0
  8
0
 62
     7
 10
54.947992999999997
 20
77.210123999999993
 30
0.0
 40
0.302233
 50
180.17296399999989
 51
221.96782200000001
  0
ARC
  5
D1
  8
0
 62
     7
 10
54.94909899999999
 20
77.567887999999996
 30
0.0
 40
0.303341
 50
138.112053
 51
179.747162
  0
LINE
  5
D2
  8
0
 62
     7
 10
54.645800000000001
 20
77.209199999999996
 30
0.0
 11
54.645800000000001
 21
77.569199999999995
 31
0.0
  0
ARC
  5
D3
  8
0
 62
     7
 10
53.483853000000003
 20
77.210554999999999
 30
0.0
 40
0.302355
 50
317.94303500000001
 51
359.74545999999998
  0
ARC
  5
D4
  8
0
 62
     7
 10
53.485317999999999
 20
77.568450999999996
 30
0.0
 40
0.300887
 50
0.147788
 51
42.163716999999991
  0
LINE
  5
D5
  8
0
 62
     7
 10
53.630800000000001
 20
77.209199999999996
 30
0.0
 11
53.630800000000001
 21
77.569199999999995
 31
0.0
  0
ARC
  5
D6
  8
0
 62
     7
 10
53.935788000000002
 20
77.211174999999997
 30
0.0
 40
0.304965
 50
180.368831
 51
221.77195499999991
  0
ARC
  5
D7
  8
0
 62
     7
 10
53.934167000000002
 20
77.567887999999996
 30
0.0
 40
0.303341
 50
138.112053
 51
179.747162
  0
LINE
  5
D8
  8
0
 62
     7
 10
53.786200000000001
 20
77.209199999999996
 30
0.0
 11
53.786200000000001
 21
77.569199999999995
 31
0.0
  0
LINE
  5
D9
  8
0
 62
     7
 10
53.158799999999992
 20
76.994600000000005
 30
0.0
 11
53.158799999999992
 21
77.783500000000004
 31
0.0
  0
LINE
  5
DA
  8
0
 62
     7
 10
53.158799999999992
 20
77.770399999999995
 30
0.0
 11
54.723300000000002
 21
77.770399999999995
 31
0.0
  0
LINE
  5
DB
  8
0
 62
     7
 10
53.158799999999992
 20
77.007999999999996
 30
0.0
 11
54.723300000000002
 21
77.007999999999996
 31
0.0
  0
LINE
  5
DC
  8
0
 62
     7
 10
53.301099999999998
 20
78.568700000000007
 30
0.0
 11
54.723300000000002
 21
78.568700000000007
 31
0.0
  0
ARC
  5
DD
  8
0
 62
     7
 10
53.556506999999989
 20
78.120594999999994
 30
0.0
 40
0.521303
 50
134.42974199999989
 51
220.28687600000001
  0
ARC
  5
DE
  8
0
 62
     7
 10
53.534664999999997
 20
78.114018999999985
 30
0.0
 40
0.5111090000000002
 50
117.188231
 51
132.1645629999999
  0
ARC
  5
DF
  8
0
 62
     7
 10
55.89323199999999
 20
75.192920000000001
 30
0.0
 40
0.5194010000000001
 50
317.30162399999989
 51
40.523572999999992
  0
LINE
  5
E0
  8
0
 62
     7
 10
52.596299999999999
 20
74.711200000000005
 30
0.0
 11
56.863399999999999
 21
74.711200000000005
 31
0.0
  0
LINE
  5
E1
  8
0
 62
     7
 10
56.540199999999999
 20
71.349100000000007
 30
0.0
 11
56.8506
 21
71.349100000000007
 31
0.0
  0
LINE
  5
E2
  8
0
 62
     7
 10
56.287999999999997
 20
75.5304
 30
0.0
 11
56.287999999999997
 21
76.318299999999994
 31
0.0
  0
ARC
  5
E3
  8
0
 62
     7
 10
55.512341000000013
 20
75.746736999999996
 30
0.0
 40
0.303384
 50
318.11520200000001
 51
359.74405200000001
  0
ARC
  5
E4
  8
0
 62
     7
 10
55.964646000000002
 20
75.746437
 30
0.0
 40
0.30361
 50
180.19917699999991
 51
221.77065300000001
  0
ARC
  5
E5
  8
0
 62
     7
 10
54.498741000000003
 20
75.746741999999998
 30
0.0
 40
0.302398
 50
317.946168
 51
359.74232699999999
  0
LINE
  5
E6
  8
0
 62
     7
 10
54.723300000000002
 20
74.840699999999998
 30
0.0
 11
56.274999999999999
 21
74.840699999999998
 31
0.0
  0
LINE
  5
E7
  8
0
 62
     7
 10
55.337899999999991
 20
74.840699999999998
 30
0.0
 11
54.723300000000002
 21
74.840699999999998
 31
0.0
  0
LINE
  5
E8
  8
0
 62
     7
 10
56.287999999999997
 20
75.544200000000004
 30
0.0
 11
54.723300000000002
 21
75.544200000000004
 31
0.0
  0
LINE
  5
E9
  8
0
 62
     7
 10
55.751300000000001
 20
74.840699999999998
 30
0.0
 11
55.337899999999991
 21
74.840699999999998
 31
0.0
  0
LINE
  5
EA
  8
0
 62
     7
 10
56.287999999999997
 20
76.304900000000004
 30
0.0
 11
54.723300000000002
 21
76.304900000000004
 31
0.0
  0
LINE
  5
EB
  8
0
 62
     7
 10
55.661000000000001
 20
75.745400000000004
 30
0.0
 11
55.661000000000001
 21
76.103700000000003
 31
0.0
  0
ARC
  5
EC
  8
0
 62
     7
 10
55.513491000000002
 20
76.102761999999998
 30
0.0
 40
0.302233
 50
0.172964
 51
41.967782999999997
  0
LINE
  5
ED
  8
0
 62
     7
 10
55.8157
 20
75.745400000000004
 30
0.0
 11
55.8157
 21
76.103700000000003
 31
0.0
  0
ARC
  5
EE
  8
0
 62
     7
 10
55.965372000000002
 20
76.102339999999998
 30
0.0
 40
0.304338
 50
138.28130999999999
 51
179.74885900000001
  0
LINE
  5
EF
  8
0
 62
     7
 10
54.801099999999991
 20
75.745400000000004
 30
0.0
 11
54.801099999999991
 21
76.103700000000003
 31
0.0
  0
ARC
  5
F0
  8
0
 62
     7
 10
54.500250000000001
 20
76.102897999999996
 30
0.0
 40
0.300887
 50
0.147788
 51
42.163716999999991
  0
ARC
  5
F1
  8
0
 62
     7
 10
54.94909899999999
 20
76.102334999999997
 30
0.0
 40
0.303341
 50
138.112053
 51
179.747162
  0
LINE
  5
F2
  8
0
 62
     7
 10
54.645800000000001
 20
75.745400000000004
 30
0.0
 11
54.645800000000001
 21
76.103700000000003
 31
0.0
  0
ARC
  5
F3
  8
0
 62
     7
 10
53.485317999999999
 20
76.102897999999996
 30
0.0
 40
0.300887
 50
0.147788
 51
42.163716999999991
  0
LINE
  5
F4
  8
0
 62
     7
 10
53.630800000000001
 20
75.745400000000004
 30
0.0
 11
53.630800000000001
 21
76.103700000000003
 31
0.0
  0
ARC
  5
F5
  8
0
 62
     7
 10
53.934167000000002
 20
76.102334999999997
 30
0.0
 40
0.303341
 50
138.112053
 51
179.747162
  0
LINE
  5
F6
  8
0
 62
     7
 10
53.786200000000001
 20
75.745400000000004
 30
0.0
 11
53.786200000000001
 21
76.103700000000003
 31
0.0
  0
LINE
  5
F7
  8
0
 62
     7
 10
53.158799999999992
 20
76.304900000000004
 30
0.0
 11
54.723300000000002
 21
76.304900000000004
 31
0.0
  0
LINE
  5
F8
  8
0
 62
     7
 10
53.69530000000001
 20
74.840699999999998
 30
0.0
 11
54.108699999999999
 21
74.840699999999998
 31
0.0
  0
LINE
  5
F9
  8
0
 62
     7
 10
53.158799999999992
 20
75.544200000000004
 30
0.0
 11
54.723300000000002
 21
75.544200000000004
 31
0.0
  0
LINE
  5
FA
  8
0
 62
     7
 10
54.108699999999999
 20
74.840699999999998
 30
0.0
 11
54.723300000000002
 21
74.840699999999998
 31
0.0
  0
LINE
  5
FB
  8
0
 62
     7
 10
54.723300000000002
 20
74.840699999999998
 30
0.0
 11
53.171599999999998
 21
74.840699999999998
 31
0.0
  0
ARC
  5
FC
  8
0
 62
     7
 10
54.947992999999997
 20
75.746293999999992
 30
0.0
 40
0.302233
 50
180.17296399999989
 51
221.96782200000001
  0
ARC
  5
FD
  8
0
 62
     7
 10
53.483808999999987
 20
75.746741999999998
 30
0.0
 40
0.302398
 50
317.946168
 51
359.74232699999999
  0
ARC
  5
FE
  8
0
 62
     7
 10
53.935788000000002
 20
75.747344999999996
 30
0.0
 40
0.304965
 50
180.368831
 51
221.77195499999991
  0
LINE
  5
FF
  8
0
 62
     7
 10
53.158799999999992
 20
75.5304
 30
0.0
 11
53.158799999999992
 21
76.318299999999994
 31
0.0
  0
LINE
  5
100
  8
0
 62
     7
 10
55.363399999999999
 20
74.711200000000005
 30
0.0
 11
55.622100000000003
 21
74.452799999999996
 31
0.0
  0
LINE
  5
101
  8
0
 62
     7
 10
55.622100000000003
 20
71.607799999999983
 30
0.0
 11
55.363399999999999
 21
71.349100000000007
 31
0.0
  0
LINE
  5
102
  8
0
 62
     7
 10
53.82480000000001
 20
71.607799999999983
 30
0.0
 11
53.82480000000001
 21
74.452799999999996
 31
0.0
  0
LINE
  5
103
  8
0
 62
     7
 10
53.82480000000001
 20
71.607799999999983
 30
0.0
 11
54.083199999999991
 21
71.349100000000007
 31
0.0
  0
LINE
  5
104
  8
0
 62
     7
 10
54.083199999999991
 20
74.711200000000005
 30
0.0
 11
53.82480000000001
 21
74.452799999999996
 31
0.0
  0
LINE
  5
105
  8
0
 62
     7
 10
56.274999999999999
 20
74.840699999999998
 30
0.0
 11
56.274999999999999
 21
74.711200000000005
 31
0.0
  0
LINE
  5
106
  8
0
 62
     7
 10
53.171599999999998
 20
74.840699999999998
 30
0.0
 11
53.171599999999998
 21
74.711200000000005
 31
0.0
  0
LINE
  5
107
  8
0
 62
     7
 10
52.337899999999991
 20
74.452799999999996
 30
0.0
 11
52.337899999999991
 21
71.607799999999983
 31
0.0
  0
LINE
  5
108
  8
0
 62
     7
 10
52.337899999999991
 20
71.607799999999983
 30
0.0
 11
52.596299999999999
 21
71.349100000000007
 31
0.0
  0
LINE
  5
109
  8
0
 62
     7
 10
53.566099999999992
 20
71.349100000000007
 30
0.0
 11
52.596299999999999
 21
71.349100000000007
 31
0.0
  0
LINE
  5
10A
  8
0
 62
     7
 10
52.596299999999999
 20
74.711200000000005
 30
0.0
 11
52.337899999999991
 21
74.452799999999996
 31
0.0
  0
LINE
  5
10B
  8
0
 62
     7
 10
53.82480000000001
 20
71.607799999999983
 30
0.0
 11
53.566099999999992
 21
71.349100000000007
 31
0.0
  0
LINE
  5
10C
  8
0
 62
     7
 10
54.083199999999991
 20
71.349100000000007
 30
0.0
 11
53.566099999999992
 21
71.349100000000007
 31
0.0
  0
LINE
  5
10D
  8
0
 62
     7
 10
53.566099999999992
 20
74.711200000000005
 30
0.0
 11
53.82480000000001
 21
74.452799999999996
 31
0.0
  0
ARC
  5
10E
  8
0
 62
     7
 10
53.554906999999993
 20
75.192751999999999
 30
0.0
 40
0.520454
 50
139.55116499999991
 51
222.56641999999999
  0
ARC
  5
10F
  8
0
 62
     7
 10
55.893650000000001
 20
76.65644300000001
 30
0.0
 40
0.5195070000000001
 50
319.391775
 51
40.60822499999999
  0
ARC
  5
110
  8
0
 62
     7
 10
53.553245999999987
 20
76.65644300000001
 30
0.0
 40
0.5195070000000001
 50
139.39173799999989
 51
220.608262
  0
LINE
  5
111
  8
0
 62
     7
 10
56.8506
 20
74.711200000000005
 30
0.0
 11
57.109400000000001
 21
74.452799999999996
 31
0.0
  0
LINE
  5
112
  8
0
 62
     7
 10
57.109400000000001
 20
71.607799999999983
 30
0.0
 11
56.8506
 21
71.349100000000007
 31
0.0
  0
LINE
  5
113
  8
0
 62
     7
 10
55.880800000000001
 20
74.711200000000005
 30
0.0
 11
55.622100000000003
 21
74.452799999999996
 31
0.0
  0
LINE
  5
114
  8
0
 62
     7
 10
56.8506
 20
71.349100000000007
 30
0.0
 11
55.880800000000001
 21
71.349100000000007
 31
0.0
  0
LINE
  5
115
  8
0
 62
     7
 10
55.622100000000003
 20
71.607799999999983
 30
0.0
 11
55.880800000000001
 21
71.349100000000007
 31
0.0
  0
LINE
  5
116
  8
0
 62
     7
 10
55.622100000000003
 20
74.452799999999996
 30
0.0
 11
55.622100000000003
 21
71.607799999999983
 31
0.0
  0
LINE
  5
117
  8
0
 62
     7
 10
57.109400000000001
 20
71.607799999999983
 30
0.0
 11
57.109400000000001
 21
74.452799999999996
 31
0.0
  0
LINE
  5
118
  8
0
 62
     7
 10
56.14609999999999
 20
78.568700000000007
 30
0.0
 11
56.14609999999999
 21
109.6989999999999
 31
0.0
  0
LINE
  5
119
  8
0
 62
     7
 10
53.301099999999998
 20
78.568700000000007
 30
0.0
 11
53.301099999999998
 21
109.6989999999999
 31
0.0
  0
LINE
  5
11A
  8
0
  6
AIGENLINE002
 62
     7
 10
54.723300000000002
 20
69.714399999999998
 30
0.0
 11
54.723300000000002
 21
109.6989999999999
 31
0.0
  0
ARC
  5
11B
  8
0
  6
AIGENLINE002
 62
     7
 10
74.959772000000001
 20
109.66321499999999
 30
0.0
 40
4.764162999999999
 50
0.4271830000000001
 51
51.464180999999989
  0
ARC
  5
11C
  8
0
  6
AIGENLINE002
 62
     7
 10
73.875523000000001
 20
122.621737
 30
0.0
 40
4.7638470000000002
 50
180.42707899999991
 51
231.45544199999989
  0
LINE
  5
11D
  8
0
  6
AIGENLINE002
 62
     7
 10
70.9071
 20
118.896
 30
0.0
 11
77.927899999999994
 21
113.39
 31
0.0
  0
LINE
  5
11E
  8
0
 62
     7
 10
70.534599999999998
 20
122.5859999999999
 30
0.0
 11
70.534599999999998
 21
151.06700000000001
 31
0.0
  0
LINE
  5
11F
  8
0
 62
     7
 10
67.689700000000002
 20
122.5859999999999
 30
0.0
 11
67.689700000000002
 21
151.06700000000001
 31
0.0
  0
LINE
  5
120
  8
0
  6
AIGENLINE002
 62
     7
 10
69.111800000000002
 20
122.5859999999999
 30
0.0
 11
69.111800000000002
 21
155.096
 31
0.0
  0
LINE
  5
121
  8
0
 62
     7
 10
77.907200000000003
 20
71.349100000000007
 30
0.0
 11
79.135699999999986
 21
71.349100000000007
 31
0.0
  0
LINE
  5
122
  8
0
 62
     7
 10
80.364300000000014
 20
71.349100000000007
 30
0.0
 11
79.135699999999986
 21
71.349100000000007
 31
0.0
  0
ARC
  5
123
  8
0
 62
     7
 10
78.530242000000001
 20
78.121995999999996
 30
0.0
 40
0.5019090000000001
 50
117.13664799999989
 51
207.136698
  0
ARC
  5
124
  8
0
 62
     7
 10
78.516956000000008
 20
78.111890999999986
 30
0.0
 40
0.4854850000000001
 50
206.79058499999999
 51
222.5622689999999
  0
LINE
  5
125
  8
0
 62
     7
 10
78.301299999999998
 20
78.568700000000007
 30
0.0
 11
79.724100000000007
 21
78.568700000000007
 31
0.0
  0
LINE
  5
126
  8
0
 62
     7
 10
78.159400000000005
 20
77.007999999999996
 30
0.0
 11
79.724100000000007
 21
77.007999999999996
 31
0.0
  0
LINE
  5
127
  8
0
 62
     7
 10
78.159400000000005
 20
77.770399999999995
 30
0.0
 11
79.724100000000007
 21
77.770399999999995
 31
0.0
  0
LINE
  5
128
  8
0
 62
     7
 10
78.159400000000005
 20
76.994600000000005
 30
0.0
 11
78.159400000000005
 21
77.783500000000004
 31
0.0
  0
LINE
  5
129
  8
0
 62
     7
 10
78.7864
 20
77.209199999999996
 30
0.0
 11
78.7864
 21
77.569199999999995
 31
0.0
  0
ARC
  5
12A
  8
0
 62
     7
 10
78.933932999999996
 20
77.568314999999998
 30
0.0
 40
0.302233
 50
138.03217799999999
 51
179.82703599999999
  0
ARC
  5
12B
  8
0
 62
     7
 10
78.935039000000003
 20
77.210550999999995
 30
0.0
 40
0.303341
 50
180.252838
 51
221.887947
  0
LINE
  5
12C
  8
0
 62
     7
 10
78.631699999999995
 20
77.209199999999996
 30
0.0
 11
78.631699999999995
 21
77.569199999999995
 31
0.0
  0
ARC
  5
12D
  8
0
 62
     7
 10
78.482051999999996
 20
77.567893000000012
 30
0.0
 40
0.304338
 50
0.251121
 51
41.718670000000003
  0
ARC
  5
12E
  8
0
 62
     7
 10
78.482777999999996
 20
77.210267000000002
 30
0.0
 40
0.303611
 50
318.22938599999992
 51
359.80082299999998
  0
LINE
  5
12F
  8
0
 62
     7
 10
79.646299999999997
 20
77.209199999999996
 30
0.0
 11
79.646299999999997
 21
77.569199999999995
 31
0.0
  0
ARC
  5
130
  8
0
 62
     7
 10
79.947174000000004
 20
77.568450999999996
 30
0.0
 40
0.300887
 50
137.83624399999991
 51
179.85221200000001
  0
ARC
  5
131
  8
0
 62
     7
 10
79.948639999999983
 20
77.210554999999999
 30
0.0
 40
0.302355
 50
180.25456
 51
222.05698499999991
  0
ARC
  5
132
  8
0
 62
     7
 10
79.499431000000001
 20
77.210123999999993
 30
0.0
 40
0.302233
 50
318.032217
 51
359.82703600000002
  0
ARC
  5
133
  8
0
 62
     7
 10
79.498324999999994
 20
77.567887999999996
 30
0.0
 40
0.303341
 50
0.252819
 51
41.887928000000002
  0
LINE
  5
134
  8
0
 62
     7
 10
79.801699999999997
 20
77.209199999999996
 30
0.0
 11
79.801699999999997
 21
77.569199999999995
 31
0.0
  0
ARC
  5
135
  8
0
 62
     7
 10
80.963571000000002
 20
77.210554999999999
 30
0.0
 40
0.302355
 50
180.25456
 51
222.05698499999991
  0
ARC
  5
136
  8
0
 62
     7
 10
80.962105000000008
 20
77.568450999999996
 30
0.0
 40
0.300887
 50
137.83624399999991
 51
179.85221200000001
  0
LINE
  5
137
  8
0
 62
     7
 10
80.816599999999994
 20
77.209199999999996
 30
0.0
 11
80.816599999999994
 21
77.569199999999995
 31
0.0
  0
ARC
  5
138
  8
0
 62
     7
 10
80.511634999999984
 20
77.211174999999997
 30
0.0
 40
0.304965
 50
318.22806500000002
 51
359.63118899999989
  0
ARC
  5
139
  8
0
 62
     7
 10
80.513256000000013
 20
77.567887999999996
 30
0.0
 40
0.303341
 50
0.252819
 51
41.887928000000002
  0
LINE
  5
13A
  8
0
 62
     7
 10
80.661199999999994
 20
77.209199999999996
 30
0.0
 11
80.661199999999994
 21
77.569199999999995
 31
0.0
  0
LINE
  5
13B
  8
0
 62
     7
 10
81.288600000000017
 20
76.994600000000005
 30
0.0
 11
81.288600000000017
 21
77.783500000000004
 31
0.0
  0
LINE
  5
13C
  8
0
 62
     7
 10
81.288600000000017
 20
77.770399999999995
 30
0.0
 11
79.724100000000007
 21
77.770399999999995
 31
0.0
  0
LINE
  5
13D
  8
0
 62
     7
 10
81.288600000000017
 20
77.007999999999996
 30
0.0
 11
79.724100000000007
 21
77.007999999999996
 31
0.0
  0
LINE
  5
13E
  8
0
 62
     7
 10
81.146299999999997
 20
78.568700000000007
 30
0.0
 11
79.724100000000007
 21
78.568700000000007
 31
0.0
  0
ARC
  5
13F
  8
0
 62
     7
 10
80.890917000000002
 20
78.120594999999994
 30
0.0
 40
0.521303
 50
319.71316100000001
 51
45.570220999999997
  0
ARC
  5
140
  8
0
 62
     7
 10
80.911919999999995
 20
78.112806000000006
 30
0.0
 40
0.5125700000000001
 50
47.856887999999991
 51
62.790278000000008
  0
ARC
  5
141
  8
0
 62
     7
 10
78.554192
 20
75.192920000000001
 30
0.0
 40
0.5194010000000001
 50
139.4763899999999
 51
222.6984129999999
  0
LINE
  5
142
  8
0
 62
     7
 10
81.851200000000006
 20
74.711200000000005
 30
0.0
 11
77.584000000000003
 21
74.711200000000005
 31
0.0
  0
LINE
  5
143
  8
0
 62
     7
 10
77.907200000000003
 20
71.349100000000007
 30
0.0
 11
77.596800000000002
 21
71.349100000000007
 31
0.0
  0
LINE
  5
144
  8
0
 62
     7
 10
78.159400000000005
 20
75.5304
 30
0.0
 11
78.159400000000005
 21
76.318299999999994
 31
0.0
  0
ARC
  5
145
  8
0
 62
     7
 10
78.935081999999994
 20
75.746736999999996
 30
0.0
 40
0.303384
 50
180.25596799999991
 51
221.884818
  0
ARC
  5
146
  8
0
 62
     7
 10
78.482777999999996
 20
75.746437
 30
0.0
 40
0.303611
 50
318.22938599999992
 51
359.80082299999998
  0
ARC
  5
147
  8
0
 62
     7
 10
79.948683000000003
 20
75.746741999999998
 30
0.0
 40
0.302398
 50
180.2576929999999
 51
222.05385200000001
  0
LINE
  5
148
  8
0
 62
     7
 10
79.724100000000007
 20
74.840699999999998
 30
0.0
 11
78.172499999999999
 21
74.840699999999998
 31
0.0
  0
LINE
  5
149
  8
0
 62
     7
 10
79.109499999999997
 20
74.840699999999998
 30
0.0
 11
79.724100000000007
 21
74.840699999999998
 31
0.0
  0
LINE
  5
14A
  8
0
 62
     7
 10
78.159400000000005
 20
75.544200000000004
 30
0.0
 11
79.724100000000007
 21
75.544200000000004
 31
0.0
  0
LINE
  5
14B
  8
0
 62
     7
 10
78.696100000000001
 20
74.840699999999998
 30
0.0
 11
79.109499999999997
 21
74.840699999999998
 31
0.0
  0
LINE
  5
14C
  8
0
 62
     7
 10
78.159400000000005
 20
76.304900000000004
 30
0.0
 11
79.724100000000007
 21
76.304900000000004
 31
0.0
  0
LINE
  5
14D
  8
0
 62
     7
 10
78.7864
 20
75.745400000000004
 30
0.0
 11
78.7864
 21
76.103700000000003
 31
0.0
  0
ARC
  5
14E
  8
0
 62
     7
 10
78.933932999999996
 20
76.102761999999998
 30
0.0
 40
0.302233
 50
138.03217799999999
 51
179.82703599999999
  0
LINE
  5
14F
  8
0
 62
     7
 10
78.631699999999995
 20
75.745400000000004
 30
0.0
 11
78.631699999999995
 21
76.103700000000003
 31
0.0
  0
ARC
  5
150
  8
0
 62
     7
 10
78.482051999999996
 20
76.102339999999998
 30
0.0
 40
0.304338
 50
0.251121
 51
41.718670000000003
  0
LINE
  5
151
  8
0
 62
     7
 10
79.646299999999997
 20
75.745400000000004
 30
0.0
 11
79.646299999999997
 21
76.103700000000003
 31
0.0
  0
ARC
  5
152
  8
0
 62
     7
 10
79.947174000000004
 20
76.102897999999996
 30
0.0
 40
0.300887
 50
137.83624399999991
 51
179.85221200000001
  0
ARC
  5
153
  8
0
 62
     7
 10
79.498324999999994
 20
76.102334999999997
 30
0.0
 40
0.303341
 50
0.252819
 51
41.887928000000002
  0
LINE
  5
154
  8
0
 62
     7
 10
79.801699999999997
 20
75.745400000000004
 30
0.0
 11
79.801699999999997
 21
76.103700000000003
 31
0.0
  0
ARC
  5
155
  8
0
 62
     7
 10
80.962105000000008
 20
76.102897999999996
 30
0.0
 40
0.300887
 50
137.83624399999991
 51
179.85221200000001
  0
LINE
  5
156
  8
0
 62
     7
 10
80.816599999999994
 20
75.745400000000004
 30
0.0
 11
80.816599999999994
 21
76.103700000000003
 31
0.0
  0
ARC
  5
157
  8
0
 62
     7
 10
80.513256000000013
 20
76.102334999999997
 30
0.0
 40
0.303341
 50
0.252819
 51
41.887928000000002
  0
LINE
  5
158
  8
0
 62
     7
 10
80.661199999999994
 20
75.745400000000004
 30
0.0
 11
80.661199999999994
 21
76.103700000000003
 31
0.0
  0
LINE
  5
159
  8
0
 62
     7
 10
81.288600000000017
 20
76.304900000000004
 30
0.0
 11
79.724100000000007
 21
76.304900000000004
 31
0.0
  0
LINE
  5
15A
  8
0
 62
     7
 10
80.752199999999988
 20
74.840699999999998
 30
0.0
 11
80.338800000000006
 21
74.840699999999998
 31
0.0
  0
LINE
  5
15B
  8
0
 62
     7
 10
81.288600000000017
 20
75.544200000000004
 30
0.0
 11
79.724100000000007
 21
75.544200000000004
 31
0.0
  0
LINE
  5
15C
  8
0
 62
     7
 10
80.338800000000006
 20
74.840699999999998
 30
0.0
 11
79.724100000000007
 21
74.840699999999998
 31
0.0
  0
LINE
  5
15D
  8
0
 62
     7
 10
79.724100000000007
 20
74.840699999999998
 30
0.0
 11
81.275800000000004
 21
74.840699999999998
 31
0.0
  0
ARC
  5
15E
  8
0
 62
     7
 10
79.499431000000001
 20
75.746293999999992
 30
0.0
 40
0.302233
 50
318.032217
 51
359.82703600000002
  0
ARC
  5
15F
  8
0
 62
     7
 10
80.963614000000007
 20
75.746741999999998
 30
0.0
 40
0.302398
 50
180.2576929999999
 51
222.05385200000001
  0
ARC
  5
160
  8
0
 62
     7
 10
80.511634999999984
 20
75.747344999999996
 30
0.0
 40
0.304965
 50
318.22806500000002
 51
359.63118899999989
  0
LINE
  5
161
  8
0
 62
     7
 10
81.288600000000017
 20
75.5304
 30
0.0
 11
81.288600000000017
 21
76.318299999999994
 31
0.0
  0
LINE
  5
162
  8
0
 62
     7
 10
79.084000000000003
 20
74.711200000000005
 30
0.0
 11
78.825299999999999
 21
74.452799999999996
 31
0.0
  0
LINE
  5
163
  8
0
 62
     7
 10
78.825299999999999
 20
71.607799999999983
 30
0.0
 11
79.084000000000003
 21
71.349100000000007
 31
0.0
  0
LINE
  5
164
  8
0
 62
     7
 10
80.622600000000006
 20
71.607799999999983
 30
0.0
 11
80.622600000000006
 21
74.452799999999996
 31
0.0
  0
LINE
  5
165
  8
0
 62
     7
 10
80.622600000000006
 20
71.607799999999983
 30
0.0
 11
80.364300000000014
 21
71.349100000000007
 31
0.0
  0
LINE
  5
166
  8
0
 62
     7
 10
80.364300000000014
 20
74.711200000000005
 30
0.0
 11
80.622600000000006
 21
74.452799999999996
 31
0.0
  0
LINE
  5
167
  8
0
 62
     7
 10
78.172499999999999
 20
74.840699999999998
 30
0.0
 11
78.172499999999999
 21
74.711200000000005
 31
0.0
  0
LINE
  5
168
  8
0
 62
     7
 10
81.275800000000004
 20
74.840699999999998
 30
0.0
 11
81.275800000000004
 21
74.711200000000005
 31
0.0
  0
LINE
  5
169
  8
0
 62
     7
 10
82.109499999999997
 20
74.452799999999996
 30
0.0
 11
82.109499999999997
 21
71.607799999999983
 31
0.0
  0
LINE
  5
16A
  8
0
 62
     7
 10
82.109499999999997
 20
71.607799999999983
 30
0.0
 11
81.851200000000006
 21
71.349100000000007
 31
0.0
  0
LINE
  5
16B
  8
0
 62
     7
 10
80.881399999999999
 20
71.349100000000007
 30
0.0
 11
81.851200000000006
 21
71.349100000000007
 31
0.0
  0
LINE
  5
16C
  8
0
 62
     7
 10
81.851200000000006
 20
74.711200000000005
 30
0.0
 11
82.109499999999997
 21
74.452799999999996
 31
0.0
  0
LINE
  5
16D
  8
0
 62
     7
 10
80.622600000000006
 20
71.607799999999983
 30
0.0
 11
80.881399999999999
 21
71.349100000000007
 31
0.0
  0
LINE
  5
16E
  8
0
 62
     7
 10
80.364300000000014
 20
71.349100000000007
 30
0.0
 11
80.881399999999999
 21
71.349100000000007
 31
0.0
  0
LINE
  5
16F
  8
0
 62
     7
 10
80.881399999999999
 20
74.711200000000005
 30
0.0
 11
80.622600000000006
 21
74.452799999999996
 31
0.0
  0
ARC
  5
170
  8
0
 62
     7
 10
80.892516999999998
 20
75.192751999999999
 30
0.0
 40
0.520454
 50
317.43361699999991
 51
40.448797999999989
  0
ARC
  5
171
  8
0
 62
     7
 10
78.553772999999993
 20
76.65644300000001
 30
0.0
 40
0.5195070000000001
 50
139.39173799999989
 51
220.608262
  0
ARC
  5
172
  8
0
 62
     7
 10
80.894176999999999
 20
76.65644300000001
 30
0.0
 40
0.5195070000000001
 50
319.391775
 51
40.60822499999999
  0
LINE
  5
173
  8
0
 62
     7
 10
77.596800000000002
 20
74.711200000000005
 30
0.0
 11
77.338099999999997
 21
74.452799999999996
 31
0.0
  0
LINE
  5
174
  8
0
 62
     7
 10
77.338099999999997
 20
71.607799999999983
 30
0.0
 11
77.596800000000002
 21
71.349100000000007
 31
0.0
  0
LINE
  5
175
  8
0
 62
     7
 10
78.566599999999994
 20
74.711200000000005
 30
0.0
 11
78.825299999999999
 21
74.452799999999996
 31
0.0
  0
LINE
  5
176
  8
0
 62
     7
 10
77.596800000000002
 20
71.349100000000007
 30
0.0
 11
78.566599999999994
 21
71.349100000000007
 31
0.0
  0
LINE
  5
177
  8
0
 62
     7
 10
78.825299999999999
 20
71.607799999999983
 30
0.0
 11
78.566599999999994
 21
71.349100000000007
 31
0.0
  0
LINE
  5
178
  8
0
 62
     7
 10
78.825299999999999
 20
74.452799999999996
 30
0.0
 11
78.825299999999999
 21
71.607799999999983
 31
0.0
  0
LINE
  5
179
  8
0
 62
     7
 10
77.338099999999997
 20
71.607799999999983
 30
0.0
 11
77.338099999999997
 21
74.452799999999996
 31
0.0
  0
LINE
  5
17A
  8
0
 62
     7
 10
78.301299999999998
 20
78.568700000000007
 30
0.0
 11
78.301299999999998
 21
109.6989999999999
 31
0.0
  0
LINE
  5
17B
  8
0
 62
     7
 10
81.146299999999997
 20
78.568700000000007
 30
0.0
 11
81.146299999999997
 21
109.6989999999999
 31
0.0
  0
LINE
  5
17C
  8
0
  6
AIGENLINE002
 62
     7
 10
79.724100000000007
 20
69.714399999999998
 30
0.0
 11
79.724100000000007
 21
109.6989999999999
 31
0.0
  0
LINE
  5
17D
  8
0
 62
     7
 10
66.728499999999997
 20
92.101799999999983
 30
0.0
 11
67.719499999999996
 21
92.101799999999983
 31
0.0
  0
LINE
  5
17E
  8
0
 62
     7
 10
66.599299999999999
 20
92.230999999999995
 30
0.0
 11
67.848699999999994
 21
92.230999999999995
 31
0.0
  0
LINE
  5
17F
  8
0
 62
     7
 10
67.719499999999996
 20
92.101799999999983
 30
0.0
 11
67.848699999999994
 21
92.230999999999995
 31
0.0
  0
LINE
  5
180
  8
0
 62
     7
 10
66.728499999999997
 20
92.101799999999983
 30
0.0
 11
66.599299999999999
 21
92.230999999999995
 31
0.0
  0
LINE
  5
181
  8
0
 62
     7
 10
66.598600000000005
 20
119.77799999999991
 30
0.0
 11
66.599299999999999
 21
92.230999999999995
 31
0.0
  0
LINE
  5
182
  8
0
 62
     7
 10
67.84899999999999
 20
119.77799999999991
 30
0.0
 11
67.848699999999994
 21
92.230999999999995
 31
0.0
  0
LINE
  5
183
  8
0
 62
     7
 10
134.53700000000001
 20
92.101799999999983
 30
0.0
 11
134.4079999999999
 21
92.230999999999995
 31
0.0
  0
LINE
  5
184
  8
0
 62
     7
 10
135.52799999999999
 20
92.101799999999983
 30
0.0
 11
135.6579999999999
 21
92.230999999999995
 31
0.0
  0
LINE
  5
185
  8
0
 62
     7
 10
134.4079999999999
 20
92.230999999999995
 30
0.0
 11
135.6579999999999
 21
92.230999999999995
 31
0.0
  0
LINE
  5
186
  8
0
 62
     7
 10
134.53700000000001
 20
92.101799999999983
 30
0.0
 11
135.52799999999999
 21
92.101799999999983
 31
0.0
  0
LINE
  5
187
  8
0
 62
     7
 10
135.6579999999999
 20
145.06700000000001
 30
0.0
 11
135.6579999999999
 21
92.230999999999995
 31
0.0
  0
LINE
  5
188
  8
0
 62
     7
 10
134.4079999999999
 20
138.77500000000001
 30
0.0
 11
134.4079999999999
 21
92.230999999999995
 31
0.0
  0
LINE
  5
189
  8
0
  6
AIGENLINE002
 62
     7
 10
135.0329999999999
 20
155.21100000000001
 30
0.0
 11
135.0329999999999
 21
90.426400000000001
 31
0.0
  0
ARC
  5
18A
  8
0
 62
     7
 10
66.657747000000001
 20
273.41528999999991
 30
0.0
 40
0.08109
 50
92.239394000000004
 51
177.76057599999999
  0
ARC
  5
18B
  8
0
 62
     7
 10
67.789275000000004
 20
273.41560600000003
 30
0.0
 40
0.080791
 50
2.0235199999999991
 51
87.467177000000007
  0
LINE
  5
18C
  8
0
 62
     7
 10
66.654600000000002
 20
273.49599999999998
 30
0.0
 11
67.792799999999986
 21
273.49599999999998
 31
0.0
  0
LINE
  5
18D
  8
0
 62
     7
 10
67.870000000000005
 20
269.27800000000002
 30
0.0
 11
67.870000000000005
 21
273.41800000000001
 31
0.0
  0
LINE
  5
18E
  8
0
 62
     7
 10
66.576700000000002
 20
269.27800000000002
 30
0.0
 11
66.576700000000002
 21
273.41800000000001
 31
0.0
  0
LINE
  5
18F
  8
0
  6
AIGENLINE002
 62
     7
 10
67.223699999999994
 20
275.01299999999992
 30
0.0
 11
67.223699999999994
 21
266.90399999999988
 31
0.0
  0
ARC
  5
190
  8
0
 62
     7
 10
126.2654629999999
 20
153.38740000000001
 30
0.0
 40
0.266269
 50
91.227611999999993
 51
164.71795
  0
LINE
  5
191
  8
0
 62
     7
 10
125.79899999999989
 20
152.102
 30
0.0
 11
125.79899999999989
 21
151.06700000000001
 31
0.0
  0
LINE
  5
192
  8
0
 62
     7
 10
126.0089999999999
 20
153.458
 30
0.0
 11
125.67
 21
152.102
 31
0.0
  0
LINE
  5
193
  8
0
 62
     7
 10
137.33099999999999
 20
153.458
 30
0.0
 11
137.6699999999999
 21
152.102
 31
0.0
  0
LINE
  5
194
  8
0
 62
     7
 10
137.541
 20
152.102
 30
0.0
 11
137.541
 21
151.06700000000001
 31
0.0
  0
LINE
  5
195
  8
0
 62
     7
 10
137.08099999999999
 20
153.654
 30
0.0
 11
126.26000000000001
 21
153.654
 31
0.0
  0
ARC
  5
196
  8
0
 62
     7
 10
137.0743689999999
 20
153.38727199999991
 30
0.0
 40
0.266407
 50
15.302524
 51
88.675567000000015
  0
LINE
  5
197
  8
0
 62
     7
 10
137.6699999999999
 20
152.102
 30
0.0
 11
125.67
 21
152.102
 31
0.0
  0
LINE
  5
198
  8
0
 62
     7
 10
125.79899999999989
 20
151.06700000000001
 30
0.0
 11
137.541
 21
151.06700000000001
 31
0.0
  0
LINE
  5
199
  8
0
 62
     7
 10
119.2389999999999
 20
71.349100000000007
 30
0.0
 11
111.2389999999999
 21
71.349100000000007
 31
0.0
  0
LINE
  5
19A
  8
0
 62
     7
 10
124.634
 20
152.102
 30
0.0
 11
91.461699999999993
 21
152.102
 31
0.0
  0
LINE
  5
19B
  8
0
 62
     7
 10
91.461699999999993
 20
193.352
 30
0.0
 11
101.34
 21
193.352
 31
0.0
  0
LINE
  5
19C
  8
0
 62
     7
 10
91.569100000000006
 20
154.31399999999999
 30
0.0
 11
92.161699999999996
 21
152.102
 31
0.0
  0
LINE
  5
19D
  8
0
 62
     7
 10
92.161699999999996
 20
152.102
 30
0.0
 11
92.754300000000001
 21
154.31399999999999
 31
0.0
  0
LINE
  5
19E
  8
0
 62
     7
 10
92.754300000000001
 20
154.31399999999999
 30
0.0
 11
91.569100000000006
 21
154.31399999999999
 31
0.0
  0
LINE
  5
19F
  8
0
 62
     7
 10
92.754300000000001
 20
191.14099999999999
 30
0.0
 11
92.161699999999996
 21
193.352
 31
0.0
  0
LINE
  5
1A0
  8
0
 62
     7
 10
92.161699999999996
 20
193.352
 30
0.0
 11
91.569100000000006
 21
191.14099999999999
 31
0.0
  0
LINE
  5
1A1
  8
0
 62
     7
 10
91.569100000000006
 20
191.14099999999999
 30
0.0
 11
92.754300000000001
 21
191.14099999999999
 31
0.0
  0
LINE
  5
1A2
  8
0
 62
     7
 10
92.161699999999996
 20
193.352
 30
0.0
 11
92.161699999999996
 21
152.102
 31
0.0
  0
LINE
  5
1A3
  8
0
 62
     7
 10
106.4799999999999
 20
192.13900000000001
 30
0.0
 11
112.639
 21
192.13900000000001
 31
0.0
  0
LINE
  5
1A4
  8
0
 62
     7
 10
160.68600000000001
 20
152.102
 30
0.0
 11
138.70699999999999
 21
152.102
 31
0.0
  0
LINE
  5
1A5
  8
0
 62
     7
 10
151.52000000000001
 20
92.101799999999983
 30
0.0
 11
136.54599999999991
 21
92.101799999999983
 31
0.0
  0
LINE
  5
1A6
  8
0
 62
     7
 10
151.52000000000001
 20
218.60299999999989
 30
0.0
 11
138.53200000000001
 21
218.60299999999989
 31
0.0
  0
LINE
  5
1A7
  8
0
 62
     7
 10
160.68600000000001
 20
224.26400000000001
 30
0.0
 11
118.3359999999999
 21
224.26400000000001
 31
0.0
  0
ARC
  5
1A8
  8
0
 62
     7
 10
131.67005599999999
 20
263.49540200000001
 30
0.0
 40
4.3748690000000003
 50
270.00340399999988
 51
0.003374
  0
ARC
  5
1A9
  8
0
 62
     7
 10
131.67022800000001
 20
263.49574499999989
 30
0.0
 40
4.3752120000000003
 50
180.00113799999991
 51
270.001148
  0
ARC
  5
1AA
  8
0
 62
     7
 10
131.67014299999991
 20
263.49548700000003
 30
0.0
 40
4.3751269999999991
 50
89.997743999999983
 51
179.997714
  0
ARC
  5
1AB
  8
0
 62
     7
 10
131.670142
 20
263.49583100000001
 30
0.0
 40
4.374782999999999
 50
359.99775399999987
 51
89.997724000000005
  0
LINE
  5
1AC
  8
0
 62
     7
 10
138.45599999999999
 20
270.28199999999998
 30
0.0
 11
144.36199999999991
 21
270.28199999999998
 31
0.0
  0
LINE
  5
1AD
  8
0
 62
     7
 10
127.432
 20
258.41899999999998
 30
0.0
 11
128.577
 21
260.40199999999987
 31
0.0
  0
LINE
  5
1AE
  8
0
 62
     7
 10
128.577
 20
260.40199999999987
 30
0.0
 11
126.59399999999999
 21
259.25700000000001
 31
0.0
  0
LINE
  5
1AF
  8
0
 62
     7
 10
126.59399999999999
 20
259.25700000000001
 30
0.0
 11
127.432
 21
258.41899999999998
 31
0.0
  0
LINE
  5
1B0
  8
0
 62
     7
 10
135.9079999999999
 20
268.57199999999989
 30
0.0
 11
134.76400000000001
 21
266.589
 31
0.0
  0
LINE
  5
1B1
  8
0
 62
     7
 10
134.76400000000001
 20
266.589
 30
0.0
 11
136.74700000000001
 21
267.73399999999998
 31
0.0
  0
LINE
  5
1B2
  8
0
 62
     7
 10
136.74700000000001
 20
267.73399999999998
 30
0.0
 11
135.9079999999999
 21
268.57199999999989
 31
0.0
  0
LINE
  5
1B3
  8
0
 62
     7
 10
138.45599999999999
 20
270.28199999999998
 30
0.0
 11
125.327
 21
257.15199999999999
 31
0.0
  0
ARC
  5
1B4
  8
0
  6
AIGENLINE001
 62
     7
 10
117.033935
 20
224.04634899999999
 30
0.0
 40
0.214945
 50
67.135992000000002
 51
152.933931
  0
ARC
  5
1B5
  8
0
 62
     7
 10
102.5864569999999
 20
193.4635879999999
 30
0.0
 40
12.762430999999999
 50
229.140681
 51
269.81366400000002
  0
ARC
  5
1B6
  8
0
 62
     7
 10
67.009024999999994
 20
263.30236999999988
 30
0.0
 40
6.5534530000000002
 50
1.690143999999999
 51
82.450665000000001
  0
ARC
  5
1B7
  8
0
 62
     7
 10
67.112808000000001
 20
263.552706
 30
0.0
 40
6.4470710000000002
 50
305.3679029999999
 51
359.49301700000001
  0
ARC
  5
1B8
  8
0
 62
     7
 10
67.345939000000001
 20
263.55878200000001
 30
0.0
 40
6.4586230000000002
 50
180.5599959999999
 51
234.58353199999991
  0
ARC
  5
1B9
  8
0
 62
     7
 10
67.445414999999997
 20
263.29589399999992
 30
0.0
 40
6.5608320000000004
 50
97.616247000000001
 51
178.25515300000001
  0
ARC
  5
1BA
  8
0
 62
     7
 10
66.877359999999996
 20
234.857223
 30
0.0
 40
3.9674960000000001
 50
294.29884499999997
 51
359.09253899999987
  0
ARC
  5
1BB
  8
0
 62
     7
 10
67.212289999999996
 20
234.3443629999999
 30
0.0
 40
3.3635660000000001
 50
270.191643
 51
292.6936859999999
  0
ARC
  5
1BC
  8
0
 62
     7
 10
67.233317
 20
234.3683399999999
 30
0.0
 40
3.387538999999999
 50
232.33116799999999
 51
269.834632
  0
ARC
  5
1BD
  8
0
 62
     7
 10
67.584886999999995
 20
234.84834199999989
 30
0.0
 40
3.9823579999999992
 50
180.77630300000001
 51
232.54756800000001
  0
ARC
  5
1BE
  8
0
 62
     7
 10
67.223710999999994
 20
263.49566099999993
 30
0.0
 40
5.8188040000000001
 50
270.00002000000001
 51
359.99998999999991
  0
ARC
  5
1BF
  8
0
 62
     7
 10
67.223710999999994
 20
263.49565899999988
 30
0.0
 40
5.8188019999999989
 50
179.99996999999991
 51
270.00002000000001
  0
ARC
  5
1C0
  8
0
 62
     7
 10
67.223713000000004
 20
263.49565899999988
 30
0.0
 40
5.8188040000000001
 50
90.0
 51
179.99996999999991
  0
ARC
  5
1C1
  8
0
 62
     7
 10
67.223710999999994
 20
263.49565899999988
 30
0.0
 40
5.8188040000000001
 50
0.00001
 51
89.999980000000008
  0
LINE
  5
1C2
  8
0
 62
     7
 10
139.45899999999989
 20
194.62599999999989
 30
0.0
 11
141.67099999999991
 21
195.21899999999999
 31
0.0
  0
LINE
  5
1C3
  8
0
 62
     7
 10
141.67099999999991
 20
195.21899999999999
 30
0.0
 11
139.45899999999989
 21
195.81099999999989
 31
0.0
  0
LINE
  5
1C4
  8
0
 62
     7
 10
139.45899999999989
 20
195.81099999999989
 30
0.0
 11
139.45899999999989
 21
194.62599999999989
 31
0.0
  0
LINE
  5
1C5
  8
0
 62
     7
 10
139.13200000000001
 20
195.81099999999989
 30
0.0
 11
136.92099999999999
 21
195.21899999999999
 31
0.0
  0
LINE
  5
1C6
  8
0
 62
     7
 10
136.92099999999999
 20
195.21899999999999
 30
0.0
 11
139.13200000000001
 21
194.62599999999989
 31
0.0
  0
LINE
  5
1C7
  8
0
 62
     7
 10
139.13200000000001
 20
194.62599999999989
 30
0.0
 11
139.13200000000001
 21
195.81099999999989
 31
0.0
  0
LINE
  5
1C8
  8
0
 62
     7
 10
141.67099999999991
 20
195.21899999999999
 30
0.0
 11
136.92099999999999
 21
195.21899999999999
 31
0.0
  0
LINE
  5
1C9
  8
0
 62
     7
 10
120.334
 20
149.89099999999991
 30
0.0
 11
119.742
 21
152.102
 31
0.0
  0
LINE
  5
1CA
  8
0
 62
     7
 10
119.742
 20
152.102
 30
0.0
 11
119.1489999999999
 21
149.89099999999991
 31
0.0
  0
LINE
  5
1CB
  8
0
 62
     7
 10
119.1489999999999
 20
149.89099999999991
 30
0.0
 11
120.334
 21
149.89099999999991
 31
0.0
  0
LINE
  5
1CC
  8
0
 62
     7
 10
119.164
 20
148.10599999999999
 30
0.0
 11
119.7559999999999
 21
145.89500000000001
 31
0.0
  0
LINE
  5
1CD
  8
0
 62
     7
 10
119.7559999999999
 20
145.89500000000001
 30
0.0
 11
120.3489999999999
 21
148.10599999999999
 31
0.0
  0
LINE
  5
1CE
  8
0
 62
     7
 10
120.3489999999999
 20
148.10599999999999
 30
0.0
 11
119.164
 21
148.10599999999999
 31
0.0
  0
LINE
  5
1CF
  8
0
 62
     7
 10
119.742
 20
152.102
 30
0.0
 11
119.742
 21
137.34200000000001
 31
0.0
  0
LINE
  5
1D0
  8
0
 62
     7
 10
112.53100000000001
 20
149.89099999999991
 30
0.0
 11
111.93899999999989
 21
152.102
 31
0.0
  0
LINE
  5
1D1
  8
0
 62
     7
 10
111.93899999999989
 20
152.102
 30
0.0
 11
111.346
 21
149.89099999999991
 31
0.0
  0
LINE
  5
1D2
  8
0
 62
     7
 10
111.346
 20
149.89099999999991
 30
0.0
 11
112.53100000000001
 21
149.89099999999991
 31
0.0
  0
LINE
  5
1D3
  8
0
 62
     7
 10
111.346
 20
154.31399999999999
 30
0.0
 11
111.93899999999989
 21
152.102
 31
0.0
  0
LINE
  5
1D4
  8
0
 62
     7
 10
111.93899999999989
 20
152.102
 30
0.0
 11
112.53100000000001
 21
154.31399999999999
 31
0.0
  0
LINE
  5
1D5
  8
0
 62
     7
 10
112.53100000000001
 20
154.31399999999999
 30
0.0
 11
111.346
 21
154.31399999999999
 31
0.0
  0
LINE
  5
1D6
  8
0
 62
     7
 10
151.4129999999999
 20
149.89099999999991
 30
0.0
 11
150.81999999999991
 21
152.102
 31
0.0
  0
LINE
  5
1D7
  8
0
 62
     7
 10
150.81999999999991
 20
152.102
 30
0.0
 11
150.22799999999989
 21
149.89099999999991
 31
0.0
  0
LINE
  5
1D8
  8
0
 62
     7
 10
150.22799999999989
 20
149.89099999999991
 30
0.0
 11
151.4129999999999
 21
149.89099999999991
 31
0.0
  0
LINE
  5
1D9
  8
0
 62
     7
 10
150.24199999999999
 20
94.313199999999995
 30
0.0
 11
150.83500000000001
 21
92.101799999999983
 31
0.0
  0
LINE
  5
1DA
  8
0
 62
     7
 10
150.83500000000001
 20
92.101799999999983
 30
0.0
 11
151.42699999999999
 21
94.313199999999995
 31
0.0
  0
LINE
  5
1DB
  8
0
 62
     7
 10
151.42699999999999
 20
94.313199999999995
 30
0.0
 11
150.24199999999999
 21
94.313199999999995
 31
0.0
  0
LINE
  5
1DC
  8
0
 62
     7
 10
150.81999999999991
 20
152.102
 30
0.0
 11
150.81999999999991
 21
92.101799999999983
 31
0.0
  0
LINE
  5
1DD
  8
0
 62
     7
 10
112.53100000000001
 20
189.928
 30
0.0
 11
111.93899999999989
 21
192.13900000000001
 31
0.0
  0
LINE
  5
1DE
  8
0
 62
     7
 10
111.93899999999989
 20
192.13900000000001
 30
0.0
 11
111.346
 21
189.928
 31
0.0
  0
LINE
  5
1DF
  8
0
 62
     7
 10
111.346
 20
189.928
 30
0.0
 11
112.53100000000001
 21
189.928
 31
0.0
  0
LINE
  5
1E0
  8
0
 62
     7
 10
111.3609999999999
 20
73.560500000000005
 30
0.0
 11
111.9529999999999
 21
71.349100000000007
 31
0.0
  0
LINE
  5
1E1
  8
0
 62
     7
 10
111.9529999999999
 20
71.349100000000007
 30
0.0
 11
112.54600000000001
 21
73.560500000000005
 31
0.0
  0
LINE
  5
1E2
  8
0
 62
     7
 10
112.54600000000001
 20
73.560500000000005
 30
0.0
 11
111.3609999999999
 21
73.560500000000005
 31
0.0
  0
LINE
  5
1E3
  8
0
 62
     7
 10
111.93899999999989
 20
192.13900000000001
 30
0.0
 11
111.93899999999989
 21
71.349100000000007
 31
0.0
  0
LINE
  5
1E4
  8
0
 62
     7
 10
160.578
 20
222.05199999999999
 30
0.0
 11
159.9859999999999
 21
224.26400000000001
 31
0.0
  0
LINE
  5
1E5
  8
0
 62
     7
 10
159.9859999999999
 20
224.26400000000001
 30
0.0
 11
159.393
 21
222.05199999999999
 31
0.0
  0
LINE
  5
1E6
  8
0
 62
     7
 10
159.393
 20
222.05199999999999
 30
0.0
 11
160.578
 21
222.05199999999999
 31
0.0
  0
LINE
  5
1E7
  8
0
 62
     7
 10
159.4079999999999
 20
154.31399999999999
 30
0.0
 11
160.0
 21
152.102
 31
0.0
  0
LINE
  5
1E8
  8
0
 62
     7
 10
160.0
 20
152.102
 30
0.0
 11
160.5929999999999
 21
154.31399999999999
 31
0.0
  0
LINE
  5
1E9
  8
0
 62
     7
 10
160.5929999999999
 20
154.31399999999999
 30
0.0
 11
159.4079999999999
 21
154.31399999999999
 31
0.0
  0
LINE
  5
1EA
  8
0
 62
     7
 10
159.9859999999999
 20
224.26400000000001
 30
0.0
 11
159.9859999999999
 21
152.102
 31
0.0
  0
LINE
  5
1EB
  8
0
 62
     7
 10
151.4129999999999
 20
216.39099999999999
 30
0.0
 11
150.81999999999991
 21
218.60299999999989
 31
0.0
  0
LINE
  5
1EC
  8
0
 62
     7
 10
150.81999999999991
 20
218.60299999999989
 30
0.0
 11
150.22799999999989
 21
216.39099999999999
 31
0.0
  0
LINE
  5
1ED
  8
0
 62
     7
 10
150.22799999999989
 20
216.39099999999999
 30
0.0
 11
151.4129999999999
 21
216.39099999999999
 31
0.0
  0
LINE
  5
1EE
  8
0
 62
     7
 10
150.24199999999999
 20
154.31399999999999
 30
0.0
 11
150.83500000000001
 21
152.102
 31
0.0
  0
LINE
  5
1EF
  8
0
 62
     7
 10
150.83500000000001
 20
152.102
 30
0.0
 11
151.42699999999999
 21
154.31399999999999
 31
0.0
  0
LINE
  5
1F0
  8
0
 62
     7
 10
151.42699999999999
 20
154.31399999999999
 30
0.0
 11
150.24199999999999
 21
154.31399999999999
 31
0.0
  0
LINE
  5
1F1
  8
0
 62
     7
 10
150.81999999999991
 20
218.60299999999989
 30
0.0
 11
150.81999999999991
 21
152.102
 31
0.0
  0
LINE
  5
1F2
  8
0
 62
     7
 10
132.197
 20
103.79000000000001
 30
0.0
 11
134.4079999999999
 21
104.383
 31
0.0
  0
LINE
  5
1F3
  8
0
 62
     7
 10
134.4079999999999
 20
104.383
 30
0.0
 11
132.197
 21
104.97499999999989
 31
0.0
  0
LINE
  5
1F4
  8
0
 62
     7
 10
132.197
 20
104.97499999999989
 30
0.0
 11
132.197
 21
103.79000000000001
 31
0.0
  0
LINE
  5
1F5
  8
0
 62
     7
 10
137.86899999999989
 20
104.97499999999989
 30
0.0
 11
135.6579999999999
 21
104.383
 31
0.0
  0
LINE
  5
1F6
  8
0
 62
     7
 10
135.6579999999999
 20
104.383
 30
0.0
 11
137.86899999999989
 21
103.79000000000001
 31
0.0
  0
LINE
  5
1F7
  8
0
 62
     7
 10
137.86899999999989
 20
103.79000000000001
 30
0.0
 11
137.86899999999989
 21
104.97499999999989
 31
0.0
  0
LINE
  5
1F8
  8
0
 62
     7
 10
141.3839999999999
 20
104.383
 30
0.0
 11
130.82599999999991
 21
104.383
 31
0.0
  0
LINE
  5
1F9
  8
0
 62
     7
 10
94.954999999999984
 20
182.34399999999999
 30
0.0
 11
97.198099999999997
 21
181.88599999999991
 31
0.0
  0
LINE
  5
1FA
  8
0
 62
     7
 10
97.198099999999997
 20
181.88599999999991
 30
0.0
 11
95.484200000000001
 21
183.404
 31
0.0
  0
LINE
  5
1FB
  8
0
 62
     7
 10
95.484200000000001
 20
183.404
 30
0.0
 11
94.954999999999984
 21
182.34399999999999
 31
0.0
  0
LINE
  5
1FC
  8
0
 62
     7
 10
129.459
 20
180.12299999999991
 30
0.0
 11
131.6699999999999
 21
180.71599999999989
 31
0.0
  0
LINE
  5
1FD
  8
0
 62
     7
 10
131.6699999999999
 20
180.71599999999989
 30
0.0
 11
129.459
 21
181.30799999999999
 31
0.0
  0
LINE
  5
1FE
  8
0
 62
     7
 10
129.459
 20
181.30799999999999
 30
0.0
 11
129.459
 21
180.12299999999991
 31
0.0
  0
LINE
  5
1FF
  8
0
 62
     7
 10
104.75700000000001
 20
181.29400000000001
 30
0.0
 11
102.5449999999999
 21
180.70099999999999
 31
0.0
  0
LINE
  5
200
  8
0
 62
     7
 10
102.5449999999999
 20
180.70099999999999
 30
0.0
 11
104.75700000000001
 21
180.10900000000001
 31
0.0
  0
LINE
  5
201
  8
0
 62
     7
 10
104.75700000000001
 20
180.10900000000001
 30
0.0
 11
104.75700000000001
 21
181.29400000000001
 31
0.0
  0
LINE
  5
202
  8
0
 62
     7
 10
134.709
 20
169.74000000000001
 30
0.0
 11
136.92099999999999
 21
170.33199999999991
 31
0.0
  0
LINE
  5
203
  8
0
 62
     7
 10
136.92099999999999
 20
170.33199999999991
 30
0.0
 11
134.709
 21
170.92500000000001
 31
0.0
  0
LINE
  5
204
  8
0
 62
     7
 10
134.709
 20
170.92500000000001
 30
0.0
 11
134.709
 21
169.74000000000001
 31
0.0
  0
LINE
  5
205
  8
0
 62
     7
 10
128.631
 20
170.91
 30
0.0
 11
126.4199999999999
 21
170.3179999999999
 31
0.0
  0
LINE
  5
206
  8
0
 62
     7
 10
126.4199999999999
 20
170.3179999999999
 30
0.0
 11
128.631
 21
169.72499999999991
 31
0.0
  0
LINE
  5
207
  8
0
 62
     7
 10
128.631
 20
169.72499999999991
 30
0.0
 11
128.631
 21
170.91
 31
0.0
  0
LINE
  5
208
  8
0
 62
     7
 10
142.17699999999999
 20
170.3179999999999
 30
0.0
 11
126.4199999999999
 21
170.3179999999999
 31
0.0
  0
LINE
  5
209
  8
0
 62
     7
 10
131.6699999999999
 20
180.70099999999999
 30
0.0
 11
102.5449999999999
 21
180.70099999999999
 31
0.0
  0
LINE
  5
20A
  8
0
 62
     7
 10
127.53100000000001
 20
145.89500000000001
 30
0.0
 11
119.042
 21
145.89500000000001
 31
0.0
  0
LINE
  5
20B
  8
0
  6
AIGENLINE001
 62
     7
 10
117.117
 20
224.244
 30
0.0
 11
129.12
 21
218.64699999999999
 31
0.0
  0
ARC
  5
20C
  8
0
 62
     7
 10
71.612734000000003
 20
263.50311699999992
 30
0.0
 40
0.201734
 50
272.16931499999993
 51
357.88155599999988
  0
ARC
  5
20D
  8
0
 62
     7
 10
71.628226999999995
 20
263.50333699999987
 30
0.0
 40
0.201963
 50
182.1785679999999
 51
267.7706
  0
ARC
  5
20E
  8
0
 62
     7
 10
71.627831999999984
 20
263.48819800000001
 30
0.0
 40
0.20156
 50
92.121544000000014
 51
177.87842599999991
  0
ARC
  5
20F
  8
0
 62
     7
 10
71.612526000000003
 20
263.48781500000001
 30
0.0
 40
0.201957
 50
2.2260270000000002
 51
87.773962999999995
  0
ARC
  5
210
  8
0
 62
     7
 10
62.819417000000001
 20
263.50311699999992
 30
0.0
 40
0.201734
 50
272.16931499999993
 51
357.88155599999988
  0
ARC
  5
211
  8
0
 62
     7
 10
62.834910000000001
 20
263.50333699999987
 30
0.0
 40
0.201963
 50
182.1785679999999
 51
267.7706
  0
ARC
  5
212
  8
0
 62
     7
 10
62.834515000000003
 20
263.48819800000001
 30
0.0
 40
0.20156
 50
92.121544000000014
 51
177.87842599999991
  0
ARC
  5
213
  8
0
 62
     7
 10
62.819208999999987
 20
263.48781500000001
 30
0.0
 40
0.201957
 50
2.2260270000000002
 51
87.773962999999995
  0
LINE
  5
214
  8
0
 62
     7
 10
128.23099999999999
 20
145.89500000000001
 30
0.0
 11
128.23099999999999
 21
145.06700000000001
 31
0.0
  0
LINE
  5
215
  8
0
 62
     7
 10
128.23099999999999
 20
145.89500000000001
 30
0.0
 11
128.696
 21
145.89500000000001
 31
0.0
  0
LINE
  5
216
  8
0
 62
     7
 10
128.23099999999999
 20
145.06700000000001
 30
0.0
 11
128.696
 21
145.06700000000001
 31
0.0
  0
LINE
  5
217
  8
0
 62
     7
 10
135.67899999999989
 20
145.89500000000001
 30
0.0
 11
137.23099999999991
 21
145.89500000000001
 31
0.0
  0
LINE
  5
218
  8
0
 62
     7
 10
135.67899999999989
 20
145.06700000000001
 30
0.0
 11
137.23099999999991
 21
145.06700000000001
 31
0.0
  0
LINE
  5
219
  8
0
 62
     7
 10
137.23099999999991
 20
145.89500000000001
 30
0.0
 11
137.23099999999991
 21
145.06700000000001
 31
0.0
  0
LINE
  5
21A
  8
0
 62
     7
 10
128.696
 20
145.06700000000001
 30
0.0
 11
135.67899999999989
 21
145.06700000000001
 31
0.0
  0
LINE
  5
21B
  8
0
 62
     7
 10
128.696
 20
145.89500000000001
 30
0.0
 11
135.67899999999989
 21
145.89500000000001
 31
0.0
  0
LINE
  5
21C
  8
0
 62
     7
 10
60.439799999999998
 20
145.11899999999989
 30
0.0
 11
60.439799999999998
 21
145.89500000000001
 31
0.0
  0
LINE
  5
21D
  8
0
 62
     7
 10
63.913299999999992
 20
145.89500000000001
 30
0.0
 11
63.672499999999999
 21
145.89500000000001
 31
0.0
  0
LINE
  5
21E
  8
0
 62
     7
 10
63.913299999999992
 20
145.11899999999989
 30
0.0
 11
63.672499999999999
 21
145.11899999999989
 31
0.0
  0
LINE
  5
21F
  8
0
 62
     7
 10
61.42369999999999
 20
145.89500000000001
 30
0.0
 11
61.42369999999999
 21
145.11899999999989
 31
0.0
  0
LINE
  5
220
  8
0
 62
     7
 10
62.379399999999997
 20
145.89500000000001
 30
0.0
 11
61.42369999999999
 21
145.89500000000001
 31
0.0
  0
LINE
  5
221
  8
0
 62
     7
 10
61.42369999999999
 20
145.11899999999989
 30
0.0
 11
62.379399999999997
 21
145.11899999999989
 31
0.0
  0
LINE
  5
222
  8
0
 62
     7
 10
61.344799999999992
 20
144.8609999999999
 30
0.0
 11
62.1113
 21
144.8609999999999
 31
0.0
  0
LINE
  5
223
  8
0
 62
     7
 10
63.672499999999999
 20
145.89500000000001
 30
0.0
 11
62.379399999999997
 21
145.89500000000001
 31
0.0
  0
LINE
  5
224
  8
0
 62
     7
 10
62.930100000000003
 20
144.8609999999999
 30
0.0
 11
62.1113
 21
144.8609999999999
 31
0.0
  0
LINE
  5
225
  8
0
 62
     7
 10
62.379399999999997
 20
145.11899999999989
 30
0.0
 11
63.672499999999999
 21
145.11899999999989
 31
0.0
  0
LINE
  5
226
  8
0
 62
     7
 10
62.379399999999997
 20
145.11899999999989
 30
0.0
 11
62.379399999999997
 21
145.89500000000001
 31
0.0
  0
LINE
  5
227
  8
0
 62
     7
 10
62.1113
 20
144.8609999999999
 30
0.0
 11
62.1113
 21
145.11899999999989
 31
0.0
  0
LINE
  5
228
  8
0
 62
     7
 10
63.672499999999999
 20
145.11899999999989
 30
0.0
 11
63.672499999999999
 21
145.89500000000001
 31
0.0
  0
LINE
  5
229
  8
0
 62
     7
 10
61.344799999999992
 20
144.8609999999999
 30
0.0
 11
61.344799999999992
 21
145.11899999999989
 31
0.0
  0
ARC
  5
22A
  8
0
 62
     7
 10
81.708113999999995
 20
162.84075999999999
 30
0.0
 40
25.740117000000001
 50
223.51049299999991
 51
223.86576199999999
  0
ARC
  5
22B
  8
0
 62
     7
 10
63.038968999999987
 20
145.08651299999991
 30
0.0
 40
0.032527
 50
87.947116000000008
 51
101.9923439999999
  0
ARC
  5
22C
  8
0
 62
     7
 10
63.038947999999998
 20
145.07373499999991
 30
0.0
 40
0.045101
 50
98.591693999999976
 51
123.94640099999999
  0
ARC
  5
22D
  8
0
 62
     7
 10
63.081853000000002
 20
145.00880799999999
 30
0.0
 40
0.122923
 50
123.637186
 51
141.39566199999999
  0
ARC
  5
22E
  8
0
 62
     7
 10
63.468067000000012
 20
144.69740999999999
 30
0.0
 40
0.619036
 50
141.175782
 51
150.35426499999991
  0
ARC
  5
22F
  8
0
 62
     7
 10
63.950956999999988
 20
140.3793969999999
 30
0.0
 40
4.7408089999999987
 50
91.281700999999998
 51
93.123474999999985
  0
ARC
  5
230
  8
0
 62
     7
 10
63.822818000000012
 20
143.35618299999999
 30
0.0
 40
1.761795
 50
94.237429999999989
 51
103.068512
  0
ARC
  5
231
  8
0
 62
     7
 10
64.581507999999999
 20
139.87842000000001
 30
0.0
 40
5.3212479999999998
 50
102.55879299999999
 51
105.6015639999999
  0
LINE
  5
232
  8
0
 62
     7
 10
63.396000000000001
 20
138.67899999999989
 30
0.0
 11
63.913299999999992
 21
138.67899999999989
 31
0.0
  0
LINE
  5
233
  8
0
 62
     7
 10
63.137300000000003
 20
139.1279999999999
 30
0.0
 11
63.913299999999992
 21
139.1279999999999
 31
0.0
  0
LINE
  5
234
  8
0
 62
     7
 10
63.396000000000001
 20
138.67899999999989
 30
0.0
 11
63.137300000000003
 21
139.1279999999999
 31
0.0
  0
LINE
  5
235
  8
0
 62
     7
 10
63.137300000000003
 20
139.94599999999991
 30
0.0
 11
63.137300000000003
 21
139.1279999999999
 31
0.0
  0
LINE
  5
236
  8
0
 62
     7
 10
63.221299999999999
 20
138.982
 30
0.0
 11
63.221299999999999
 21
139.94599999999991
 31
0.0
  0
LINE
  5
237
  8
0
 62
     7
 10
63.913299999999992
 20
139.94699999999989
 30
0.0
 11
63.040100000000002
 21
139.94699999999989
 31
0.0
  0
LINE
  5
238
  8
0
 62
     7
 10
63.040100000000002
 20
139.94699999999989
 30
0.0
 11
63.048099999999991
 21
139.94699999999989
 31
0.0
  0
ARC
  5
239
  8
0
 62
     7
 10
63.038255000000007
 20
139.999731
 30
0.0
 40
0.053429
 50
280.57199100000003
 51
308.33982400000002
  0
ARC
  5
23A
  8
0
 62
     7
 10
62.969430000000003
 20
140.0873389999999
 30
0.0
 40
0.164838
 50
308.2135889999999
 51
323.89153999999991
  0
ARC
  5
23B
  8
0
 62
     7
 10
62.424271999999988
 20
140.49167299999991
 30
0.0
 40
0.84357
 50
323.52531699999997
 51
329.40121399999998
  0
LINE
  5
23C
  8
0
 62
     7
 10
62.930100000000003
 20
140.06200000000001
 30
0.0
 11
63.040100000000002
 21
139.94699999999989
 31
0.0
  0
ARC
  5
23D
  8
0
 62
     7
 10
65.856380999999999
 20
150.22734800000001
 30
0.0
 40
10.519085
 50
255.09323900000001
 51
256.51431600000001
  0
ARC
  5
23E
  8
0
 62
     7
 10
63.880481000000003
 20
142.07057499999991
 30
0.0
 40
2.1265109999999998
 50
257.03272599999991
 51
264.93228199999999
  0
ARC
  5
23F
  8
0
 62
     7
 10
63.907138000000003
 20
143.5468469999999
 30
0.0
 40
3.6008650000000002
 50
266.58495699999992
 51
269.00986699999987
  0
LINE
  5
240
  8
0
 62
     7
 10
63.150399999999991
 20
145.00399999999991
 30
0.0
 11
63.150399999999991
 21
140.06200000000001
 31
0.0
  0
LINE
  5
241
  8
0
 62
     7
 10
62.930100000000003
 20
145.00399999999991
 30
0.0
 11
62.930100000000003
 21
140.06200000000001
 31
0.0
  0
LINE
  5
242
  8
0
 62
     7
 10
60.439799999999998
 20
145.89500000000001
 30
0.0
 11
61.42369999999999
 21
145.89500000000001
 31
0.0
  0
LINE
  5
243
  8
0
 62
     7
 10
60.439799999999998
 20
145.11899999999989
 30
0.0
 11
61.42369999999999
 21
145.11899999999989
 31
0.0
  0
LINE
  5
244
  8
0
 62
     7
 10
72.947100000000006
 20
144.8609999999999
 30
0.0
 11
72.180499999999995
 21
144.8609999999999
 31
0.0
  0
LINE
  5
245
  8
0
 62
     7
 10
72.868399999999994
 20
145.11899999999989
 30
0.0
 11
71.912700000000001
 21
145.11899999999989
 31
0.0
  0
LINE
  5
246
  8
0
 62
     7
 10
71.912700000000001
 20
145.89500000000001
 30
0.0
 11
72.868399999999994
 21
145.89500000000001
 31
0.0
  0
LINE
  5
247
  8
0
 62
     7
 10
72.868399999999994
 20
145.89500000000001
 30
0.0
 11
72.868399999999994
 21
145.11899999999989
 31
0.0
  0
LINE
  5
248
  8
0
 62
     7
 10
72.947100000000006
 20
144.8609999999999
 30
0.0
 11
72.947100000000006
 21
145.11899999999989
 31
0.0
  0
LINE
  5
249
  8
0
 62
     7
 10
70.534300000000002
 20
145.11899999999989
 30
0.0
 11
70.619399999999985
 21
145.11899999999989
 31
0.0
  0
LINE
  5
24A
  8
0
 62
     7
 10
70.534300000000002
 20
145.89500000000001
 30
0.0
 11
70.619399999999985
 21
145.89500000000001
 31
0.0
  0
LINE
  5
24B
  8
0
 62
     7
 10
70.619399999999985
 20
145.11899999999989
 30
0.0
 11
70.619399999999985
 21
145.89500000000001
 31
0.0
  0
ARC
  5
24C
  8
0
 62
     7
 10
70.60612900000001
 20
145.1129489999999
 30
0.0
 40
0.007066
 50
120.797279
 51
178.27159800000001
  0
ARC
  5
24D
  8
0
 62
     7
 10
70.468761999999984
 20
143.35452000000001
 30
0.0
 40
1.763463999999999
 50
76.937002000000007
 51
85.762488000000005
  0
ARC
  5
24E
  8
0
 62
     7
 10
69.712869999999995
 20
139.886942
 30
0.0
 40
5.3123670000000001
 50
74.399668999999989
 51
77.448430000000002
  0
ARC
  5
24F
  8
0
 62
     7
 10
63.187857999999999
 20
199.238372
 30
0.0
 40
54.624915000000001
 50
277.72906999999998
 51
277.80127999999991
  0
LINE
  5
250
  8
0
 62
     7
 10
71.2517
 20
145.11899999999989
 30
0.0
 11
71.259500000000003
 21
145.11799999999991
 31
0.0
  0
ARC
  5
251
  8
0
 62
     7
 10
71.250287999999983
 20
145.066101
 30
0.0
 40
0.053034
 50
52.009015999999988
 51
80.002516999999983
  0
ARC
  5
252
  8
0
 62
     7
 10
71.183070000000001
 20
144.97979099999989
 30
0.0
 40
0.162431
 50
36.169507000000003
 51
52.062894999999997
  0
ARC
  5
253
  8
0
 62
     7
 10
70.641071999999994
 20
144.57727700000001
 30
0.0
 40
0.837541
 50
30.598981999999999
 51
36.515978999999987
  0
LINE
  5
254
  8
0
 62
     7
 10
71.141499999999994
 20
145.00399999999991
 30
0.0
 11
71.2517
 21
145.11899999999989
 31
0.0
  0
LINE
  5
255
  8
0
 62
     7
 10
72.180499999999995
 20
144.8609999999999
 30
0.0
 11
72.180499999999995
 21
145.11899999999989
 31
0.0
  0
LINE
  5
256
  8
0
 62
     7
 10
71.912700000000001
 20
145.11899999999989
 30
0.0
 11
71.912700000000001
 21
145.89500000000001
 31
0.0
  0
LINE
  5
257
  8
0
 62
     7
 10
71.912700000000001
 20
145.11899999999989
 30
0.0
 11
70.619399999999985
 21
145.11899999999989
 31
0.0
  0
LINE
  5
258
  8
0
 62
     7
 10
71.361999999999995
 20
144.8609999999999
 30
0.0
 11
72.180499999999995
 21
144.8609999999999
 31
0.0
  0
LINE
  5
259
  8
0
 62
     7
 10
70.619399999999985
 20
145.89500000000001
 30
0.0
 11
71.912700000000001
 21
145.89500000000001
 31
0.0
  0
LINE
  5
25A
  8
0
 62
     7
 10
70.602500000000006
 20
139.94699999999989
 30
0.0
 11
71.2517
 21
139.94699999999989
 31
0.0
  0
LINE
  5
25B
  8
0
 62
     7
 10
70.534300000000002
 20
139.94699999999989
 30
0.0
 11
70.602500000000006
 21
139.94699999999989
 31
0.0
  0
ARC
  5
25C
  8
0
 62
     7
 10
68.451396000000003
 20
150.16757200000001
 30
0.0
 40
10.457229999999999
 50
283.47693900000002
 51
284.9068509999999
  0
ARC
  5
25D
  8
0
 62
     7
 10
70.411066000000005
 20
142.07252099999999
 30
0.0
 40
2.1284640000000001
 50
275.06734399999999
 51
282.96207900000002
  0
ARC
  5
25E
  8
0
 62
     7
 10
70.598191
 20
139.95060000000001
 30
0.0
 40
0.00198
 50
63.797100999999998
 51
238.0482419999999
  0
ARC
  5
25F
  8
0
 62
     7
 10
70.59870500000001
 20
139.945212
 30
0.0
 40
0.004024
 50
18.967732999999988
 51
112.830304
  0
ARC
  5
260
  8
0
 62
     7
 10
70.103564000000006
 20
136.66426200000001
 30
0.0
 40
3.3199649999999998
 50
81.356451000000007
 51
82.545406999999983
  0
ARC
  5
261
  8
0
 62
     7
 10
107.87079900000001
 20
105.181603
 30
0.0
 40
50.493115000000003
 50
136.3064709999999
 51
136.48786100000001
  0
ARC
  5
262
  8
0
 62
     7
 10
71.25303199999999
 20
140.0049699999999
 30
0.0
 40
0.058464
 50
261.10430700000001
 51
268.73649799999993
  0
ARC
  5
263
  8
0
 62
     7
 10
71.251019999999997
 20
139.99231299999991
 30
0.0
 40
0.045648
 50
235.83897799999991
 51
261.14252199999999
  0
ARC
  5
264
  8
0
 62
     7
 10
71.294535999999994
 20
140.05811999999989
 30
0.0
 40
0.12454
 50
218.65707699999999
 51
236.27337700000001
  0
ARC
  5
265
  8
0
 62
     7
 10
71.679827000000003
 20
140.36875499999991
 30
0.0
 40
0.6194569999999999
 50
209.653605
 51
218.83278399999989
  0
LINE
  5
266
  8
0
 62
     7
 10
71.070499999999996
 20
138.982
 30
0.0
 11
71.070499999999996
 21
139.94599999999991
 31
0.0
  0
LINE
  5
267
  8
0
 62
     7
 10
71.154600000000002
 20
139.94599999999991
 30
0.0
 11
71.154600000000002
 21
139.1279999999999
 31
0.0
  0
LINE
  5
268
  8
0
 62
     7
 10
70.896000000000001
 20
138.67899999999989
 30
0.0
 11
71.154600000000002
 21
139.1279999999999
 31
0.0
  0
LINE
  5
269
  8
0
 62
     7
 10
71.154600000000002
 20
139.1279999999999
 30
0.0
 11
70.534300000000002
 21
139.1279999999999
 31
0.0
  0
LINE
  5
26A
  8
0
 62
     7
 10
70.896000000000001
 20
138.67899999999989
 30
0.0
 11
70.534300000000002
 21
138.67899999999989
 31
0.0
  0
LINE
  5
26B
  8
0
 62
     7
 10
71.361999999999995
 20
145.00399999999991
 30
0.0
 11
71.361999999999995
 21
140.06200000000001
 31
0.0
  0
LINE
  5
26C
  8
0
 62
     7
 10
71.141499999999994
 20
145.00399999999991
 30
0.0
 11
71.141499999999994
 21
140.06200000000001
 31
0.0
  0
LINE
  5
26D
  8
0
 62
     7
 10
73.852299999999985
 20
145.11899999999989
 30
0.0
 11
73.852299999999985
 21
145.89500000000001
 31
0.0
  0
LINE
  5
26E
  8
0
 62
     7
 10
73.852299999999985
 20
145.11899999999989
 30
0.0
 11
72.868399999999994
 21
145.11899999999989
 31
0.0
  0
LINE
  5
26F
  8
0
 62
     7
 10
73.852299999999985
 20
145.89500000000001
 30
0.0
 11
72.868399999999994
 21
145.89500000000001
 31
0.0
  0
LINE
  5
270
  8
0
 62
     7
 10
66.758099999999999
 20
145.89500000000001
 30
0.0
 11
67.689300000000003
 21
145.89500000000001
 31
0.0
  0
LINE
  5
271
  8
0
 62
     7
 10
66.758099999999999
 20
145.11899999999989
 30
0.0
 11
67.689300000000003
 21
145.11899999999989
 31
0.0
  0
LINE
  5
272
  8
0
 62
     7
 10
63.913299999999992
 20
137.386
 30
0.0
 11
63.51659999999999
 21
137.386
 31
0.0
  0
LINE
  5
273
  8
0
 62
     7
 10
63.913299999999992
 20
137.64599999999999
 30
0.0
 11
63.396000000000001
 21
137.64599999999999
 31
0.0
  0
LINE
  5
274
  8
0
 62
     7
 10
63.396000000000001
 20
137.64599999999999
 30
0.0
 11
63.51659999999999
 21
137.386
 31
0.0
  0
LINE
  5
275
  8
0
 62
     7
 10
70.896000000000001
 20
137.64599999999999
 30
0.0
 11
70.775499999999994
 21
137.386
 31
0.0
  0
LINE
  5
276
  8
0
 62
     7
 10
70.534300000000002
 20
137.64599999999999
 30
0.0
 11
70.896000000000001
 21
137.64599999999999
 31
0.0
  0
LINE
  5
277
  8
0
 62
     7
 10
70.534300000000002
 20
137.386
 30
0.0
 11
70.775499999999994
 21
137.386
 31
0.0
  0
LINE
  5
278
  8
0
 62
     7
 10
70.896000000000001
 20
137.64599999999999
 30
0.0
 11
70.896000000000001
 21
138.67899999999989
 31
0.0
  0
LINE
  5
279
  8
0
 62
     7
 10
63.396000000000001
 20
137.64599999999999
 30
0.0
 11
63.396000000000001
 21
138.67899999999989
 31
0.0
  0
ARC
  5
27A
  8
0
 62
     7
 10
66.359281999999993
 20
195.90373399999999
 30
0.0
 40
2.7741349999999989
 50
176.68021899999991
 51
180.90869900000001
  0
ARC
  5
27B
  8
0
 62
     7
 10
64.670810000000003
 20
195.91018799999989
 30
0.0
 40
1.0864860000000001
 50
182.66135099999991
 51
193.751778
  0
ARC
  5
27C
  8
0
 62
     7
 10
65.191003000000009
 20
196.02326999999991
 30
0.0
 40
1.6187079999999989
 50
193.26268300000001
 51
198.7676669999999
  0
ARC
  5
27D
  8
0
 62
     7
 10
65.690593000000007
 20
196.190597
 30
0.0
 40
2.145570999999999
 50
198.70616799999999
 51
208.601485
  0
ARC
  5
27E
  8
0
 62
     7
 10
65.417542999999995
 20
196.0237929999999
 30
0.0
 40
1.826057
 50
208.10774499999999
 51
216.374967
  0
ARC
  5
27F
  8
0
 62
     7
 10
64.890517000000003
 20
195.65766499999989
 30
0.0
 40
1.1847149999999991
 50
217.23451900000001
 51
223.25511299999999
  0
ARC
  5
280
  8
0
 62
     7
 10
65.351387000000003
 20
196.0981679999999
 30
0.0
 40
1.822231999999999
 50
223.41271099999989
 51
226.44245000000001
  0
LINE
  5
281
  8
0
 62
     7
 10
64.095699999999994
 20
195.45799999999991
 30
0.0
 11
64.095699999999994
 21
193.46599999999989
 31
0.0
  0
LINE
  5
282
  8
0
 62
     7
 10
64.156899999999993
 20
195.7169999999999
 30
0.0
 11
64.096599999999995
 21
195.49000000000001
 31
0.0
  0
LINE
  5
283
  8
0
 62
     7
 10
64.096599999999995
 20
195.49000000000001
 30
0.0
 11
64.095699999999994
 21
195.45799999999991
 31
0.0
  0
ARC
  5
284
  8
0
 62
     7
 10
67.293136000000004
 20
194.24152100000001
 30
0.0
 40
3.5451529999999991
 50
152.54032699999991
 51
155.0534199999999
  0
ARC
  5
285
  8
0
 62
     7
 10
64.673961000000006
 20
195.468242
 30
0.0
 40
0.65299
 50
155.71793199999999
 51
171.68981999999991
  0
ARC
  5
286
  8
0
 62
     7
 10
64.361660999999998
 20
195.52524699999989
 30
0.0
 40
0.335919
 50
173.612269
 51
194.86125499999989
  0
ARC
  5
287
  8
0
 62
     7
 10
64.401235999999983
 20
195.54032000000001
 30
0.0
 40
0.378062
 50
195.53088600000001
 51
203.649665
  0
ARC
  5
288
  8
0
 62
     7
 10
65.268485999999996
 20
195.92153099999999
 30
0.0
 40
1.325397999999999
 50
203.70603099999991
 51
207.7678149999999
  0
ARC
  5
289
  8
0
 62
     7
 10
65.225752999999983
 20
196.00365699999989
 30
0.0
 40
1.6473269999999991
 50
178.13927599999991
 51
179.82913199999999
  0
ARC
  5
28A
  8
0
 62
     7
 10
64.997669999999999
 20
199.3391399999999
 30
0.0
 40
6.9983420000000001
 50
319.29287900000003
 51
321.19459499999999
  0
ARC
  5
28B
  8
0
 62
     7
 10
69.046095999999991
 20
196.0586679999999
 30
0.0
 40
1.7877959999999991
 50
321.81457499999999
 51
325.91251499999998
  0
ARC
  5
28C
  8
0
 62
     7
 10
69.166452000000007
 20
195.97705099999999
 30
0.0
 40
1.6423759999999989
 50
325.91737599999988
 51
339.98701399999987
  0
ARC
  5
28D
  8
0
 62
     7
 10
68.985831999999988
 20
196.07276999999991
 30
0.0
 40
1.8450629999999999
 50
339.11358599999988
 51
347.286158
  0
ARC
  5
28E
  8
0
 62
     7
 10
69.631422999999998
 20
195.91273699999999
 30
0.0
 40
1.180162999999999
 50
347.967151
 51
353.90313300000003
  0
ARC
  5
28F
  8
0
 62
     7
 10
69.659705000000002
 20
195.90845999999999
 30
0.0
 40
1.1515879999999989
 50
353.96527300000002
 51
358.57106599999997
  0
ARC
  5
290
  8
0
 62
     7
 10
67.636589999999998
 20
195.955905
 30
0.0
 40
3.1752590000000001
 50
358.62557299999992
 51
1.609459
  0
ARC
  5
291
  8
0
 62
     7
 10
69.296444999999991
 20
196.00785899999991
 30
0.0
 40
1.5234529999999999
 50
0.026697
 51
1.218813999999999
  0
LINE
  5
292
  8
0
 62
     7
 10
70.302800000000005
 20
193.46599999999989
 30
0.0
 11
70.302800000000005
 21
195.45799999999991
 31
0.0
  0
ARC
  5
293
  8
0
 62
     7
 10
67.203839000000002
 20
194.29262700000001
 30
0.0
 40
3.4342099999999989
 50
24.867228000000001
 51
27.460649
  0
ARC
  5
294
  8
0
 62
     7
 10
69.723573999999985
 20
195.46819400000001
 30
0.0
 40
0.653784
 50
8.3042679999999987
 51
24.255306000000001
  0
ARC
  5
295
  8
0
 62
     7
 10
70.036670000000001
 20
195.52524699999989
 30
0.0
 40
0.335919
 50
345.13878399999987
 51
6.3876910000000002
  0
ARC
  5
296
  8
0
 62
     7
 10
70.003531000000009
 20
195.53727900000001
 30
0.0
 40
0.371048
 50
336.56643199999991
 51
344.655483
  0
ARC
  5
297
  8
0
 62
     7
 10
69.178648999999993
 20
195.8972379999999
 30
0.0
 40
1.2710479999999991
 50
332.17985399999992
 51
336.46606999999989
  0
LINE
  5
298
  8
0
 62
     7
 10
70.251099999999994
 20
195.87599999999989
 30
0.0
 11
70.073499999999996
 21
196.08000000000001
 31
0.0
  0
LINE
  5
299
  8
0
 62
     7
 10
70.073499999999996
 20
196.08000000000001
 30
0.0
 11
69.820499999999996
 21
196.26900000000001
 31
0.0
  0
LINE
  5
29A
  8
0
 62
     7
 10
69.820499999999996
 20
196.26900000000001
 30
0.0
 11
69.498000000000005
 21
196.43899999999999
 31
0.0
  0
LINE
  5
29B
  8
0
 62
     7
 10
69.498000000000005
 20
196.43899999999999
 30
0.0
 11
69.115399999999994
 21
196.584
 31
0.0
  0
LINE
  5
29C
  8
0
 62
     7
 10
69.115399999999994
 20
196.584
 30
0.0
 11
68.682199999999995
 21
196.6999999999999
 31
0.0
  0
LINE
  5
29D
  8
0
 62
     7
 10
68.682199999999995
 20
196.6999999999999
 30
0.0
 11
68.2102
 21
196.78599999999989
 31
0.0
  0
LINE
  5
29E
  8
0
 62
     7
 10
68.2102
 20
196.78599999999989
 30
0.0
 11
67.711399999999983
 21
196.83799999999991
 31
0.0
  0
LINE
  5
29F
  8
0
 62
     7
 10
67.711399999999983
 20
196.83799999999991
 30
0.0
 11
67.199299999999994
 21
196.85599999999999
 31
0.0
  0
ARC
  5
2A0
  8
0
 62
     7
 10
68.965682000000001
 20
195.477304
 30
0.0
 40
1.34592
 50
17.243351000000001
 51
39.024475000000002
  0
ARC
  5
2A1
  8
0
 62
     7
 10
68.511848999999984
 20
195.1480959999999
 30
0.0
 40
1.906015999999999
 50
38.122547999999988
 51
52.008071000000008
  0
ARC
  5
2A2
  8
0
 62
     7
 10
68.022914
 20
194.56181599999999
 30
0.0
 40
2.6691370000000001
 50
51.483350000000002
 51
63.595923999999997
  0
ARC
  5
2A3
  8
0
 62
     7
 10
67.508647999999994
 20
193.58772400000001
 30
0.0
 40
3.7704049999999998
 50
63.178930000000008
 51
77.873926999999995
  0
ARC
  5
2A4
  8
0
 62
     7
 10
67.220344999999995
 20
192.49479899999989
 30
0.0
 40
4.8997859999999989
 50
77.262496999999996
 51
90.246642999999992
  0
ARC
  5
2A5
  8
0
 62
     7
 10
69.211118999999997
 20
196.00357700000001
 30
0.0
 40
1.6088519999999991
 50
1.3066379999999991
 51
32.281362000000001
  0
ARC
  5
2A6
  8
0
 62
     7
 10
68.687969999999993
 20
195.71590399999999
 30
0.0
 40
2.205077999999999
 50
31.340884999999989
 51
49.868668999999997
  0
ARC
  5
2A7
  8
0
 62
     7
 10
68.015928000000002
 20
194.98898500000001
 30
0.0
 40
3.1943380000000001
 50
49.056239999999988
 51
64.642698999999993
  0
ARC
  5
2A8
  8
0
 62
     7
 10
67.440196999999984
 20
193.8897739999999
 30
0.0
 40
4.4344859999999988
 50
64.002964000000006
 51
79.816239999999993
  0
ARC
  5
2A9
  8
0
 62
     7
 10
67.212494999999976
 20
192.92264899999989
 30
0.0
 40
5.4268929999999989
 50
79.255390000000006
 51
90.139809999999997
  0
ARC
  5
2AA
  8
0
 62
     7
 10
67.198413999999985
 20
192.403626
 30
0.0
 40
4.9909140000000001
 50
89.990369999999984
 51
107.0572599999999
  0
ARC
  5
2AB
  8
0
 62
     7
 10
66.831378000000001
 20
193.73187899999991
 30
0.0
 40
3.6136330000000001
 50
107.671235
 51
121.82337200000001
  0
ARC
  5
2AC
  8
0
 62
     7
 10
66.177141000000006
 20
194.84258399999999
 30
0.0
 40
2.325102999999999
 50
122.557402
 51
139.224119
  0
ARC
  5
2AD
  8
0
 62
     7
 10
65.568414000000004
 20
195.40486200000001
 30
0.0
 40
1.497174
 50
140.3047709999999
 51
161.64703899999989
  0
LINE
  5
2AE
  8
0
 62
     7
 10
64.147400000000005
 20
195.87599999999989
 30
0.0
 11
64.325000000000003
 21
196.08000000000001
 31
0.0
  0
LINE
  5
2AF
  8
0
 62
     7
 10
64.325000000000003
 20
196.08000000000001
 30
0.0
 11
64.578199999999995
 21
196.26900000000001
 31
0.0
  0
LINE
  5
2B0
  8
0
 62
     7
 10
64.578199999999995
 20
196.26900000000001
 30
0.0
 11
64.900300000000001
 21
196.43899999999999
 31
0.0
  0
LINE
  5
2B1
  8
0
 62
     7
 10
64.900300000000001
 20
196.43899999999999
 30
0.0
 11
65.283100000000005
 21
196.584
 31
0.0
  0
LINE
  5
2B2
  8
0
 62
     7
 10
65.283100000000005
 20
196.584
 30
0.0
 11
65.716099999999983
 21
196.6999999999999
 31
0.0
  0
LINE
  5
2B3
  8
0
 62
     7
 10
65.716099999999983
 20
196.6999999999999
 30
0.0
 11
66.188299999999984
 21
196.78599999999989
 31
0.0
  0
LINE
  5
2B4
  8
0
 62
     7
 10
66.188299999999984
 20
196.78599999999989
 30
0.0
 11
66.686999999999998
 21
196.83799999999991
 31
0.0
  0
LINE
  5
2B5
  8
0
 62
     7
 10
66.686999999999998
 20
196.83799999999991
 30
0.0
 11
67.199299999999994
 21
196.85599999999999
 31
0.0
  0
ARC
  5
2B6
  8
0
 62
     7
 10
67.20089200000001
 20
192.932805
 30
0.0
 40
5.416720999999999
 50
90.017347000000001
 51
108.78285200000001
  0
ARC
  5
2B7
  8
0
 62
     7
 10
66.819513000000001
 20
194.21533500000001
 30
0.0
 40
4.080023999999999
 50
109.511461
 51
122.367558
  0
ARC
  5
2B8
  8
0
 62
     7
 10
66.223512999999997
 20
195.202156
 30
0.0
 40
2.9275619999999991
 50
122.8547669999999
 51
138.84579999999991
  0
ARC
  5
2B9
  8
0
 62
     7
 10
65.525004999999993
 20
195.851191
 30
0.0
 40
1.9747169999999989
 50
139.68742
 51
162.75789
  0
ARC
  5
2BA
  8
0
 62
     7
 10
65.149826000000004
 20
196.00424099999989
 30
0.0
 40
1.571421999999999
 50
164.0328669999999
 51
178.07069000000001
  0
LINE
  5
2BB
  8
0
 62
     7
 10
70.302800000000005
 20
195.45799999999991
 30
0.0
 11
70.267799999999994
 21
195.655
 31
0.0
  0
LINE
  5
2BC
  8
0
 62
     7
 10
70.267799999999994
 20
195.655
 30
0.0
 11
70.140199999999993
 21
195.87700000000001
 31
0.0
  0
LINE
  5
2BD
  8
0
 62
     7
 10
70.140199999999993
 20
195.87700000000001
 30
0.0
 11
69.9238
 21
196.08699999999999
 31
0.0
  0
LINE
  5
2BE
  8
0
 62
     7
 10
69.9238
 20
196.08699999999999
 30
0.0
 11
69.624099999999999
 21
196.27699999999999
 31
0.0
  0
LINE
  5
2BF
  8
0
 62
     7
 10
69.624099999999999
 20
196.27699999999999
 30
0.0
 11
69.251000000000005
 21
196.4429999999999
 31
0.0
  0
LINE
  5
2C0
  8
0
 62
     7
 10
69.251000000000005
 20
196.4429999999999
 30
0.0
 11
68.815399999999997
 21
196.578
 31
0.0
  0
LINE
  5
2C1
  8
0
 62
     7
 10
68.815399999999997
 20
196.578
 30
0.0
 11
68.330799999999996
 21
196.68000000000001
 31
0.0
  0
LINE
  5
2C2
  8
0
 62
     7
 10
68.330799999999996
 20
196.68000000000001
 30
0.0
 11
67.811800000000005
 21
196.744
 31
0.0
  0
LINE
  5
2C3
  8
0
 62
     7
 10
67.811800000000005
 20
196.744
 30
0.0
 11
67.2744
 21
196.77000000000001
 31
0.0
  0
LINE
  5
2C4
  8
0
 62
     7
 10
67.2744
 20
196.77000000000001
 30
0.0
 11
66.734300000000005
 21
196.75499999999991
 31
0.0
  0
LINE
  5
2C5
  8
0
 62
     7
 10
66.734300000000005
 20
196.75499999999991
 30
0.0
 11
66.208600000000004
 21
196.70099999999991
 31
0.0
  0
LINE
  5
2C6
  8
0
 62
     7
 10
66.208600000000004
 20
196.70099999999991
 30
0.0
 11
65.712999999999994
 21
196.61000000000001
 31
0.0
  0
LINE
  5
2C7
  8
0
 62
     7
 10
65.712999999999994
 20
196.61000000000001
 30
0.0
 11
65.2624
 21
196.48400000000001
 31
0.0
  0
LINE
  5
2C8
  8
0
 62
     7
 10
65.2624
 20
196.48400000000001
 30
0.0
 11
64.870900000000006
 21
196.32599999999999
 31
0.0
  0
LINE
  5
2C9
  8
0
 62
     7
 10
64.870900000000006
 20
196.32599999999999
 30
0.0
 11
64.549999999999997
 21
196.142
 31
0.0
  0
LINE
  5
2CA
  8
0
 62
     7
 10
64.549999999999997
 20
196.142
 30
0.0
 11
64.3095
 21
195.93700000000001
 31
0.0
  0
LINE
  5
2CB
  8
0
 62
     7
 10
64.3095
 20
195.93700000000001
 30
0.0
 11
64.156899999999993
 21
195.7169999999999
 31
0.0
  0
LINE
  5
2CC
  8
0
 62
     7
 10
64.156899999999993
 20
193.72499999999991
 30
0.0
 11
64.096599999999995
 21
193.49799999999991
 31
0.0
  0
LINE
  5
2CD
  8
0
 62
     7
 10
64.096599999999995
 20
193.49799999999991
 30
0.0
 11
64.130700000000004
 21
193.27000000000001
 31
0.0
  0
LINE
  5
2CE
  8
0
 62
     7
 10
64.130700000000004
 20
193.27000000000001
 30
0.0
 11
64.258200000000002
 21
193.04699999999991
 31
0.0
  0
LINE
  5
2CF
  8
0
 62
     7
 10
64.258200000000002
 20
193.04699999999991
 30
0.0
 11
64.474699999999999
 21
192.83799999999991
 31
0.0
  0
LINE
  5
2D0
  8
0
 62
     7
 10
64.474699999999999
 20
192.83799999999991
 30
0.0
 11
64.774199999999993
 21
192.64799999999991
 31
0.0
  0
LINE
  5
2D1
  8
0
 62
     7
 10
64.774199999999993
 20
192.64799999999991
 30
0.0
 11
65.147499999999994
 21
192.482
 31
0.0
  0
LINE
  5
2D2
  8
0
 62
     7
 10
65.147499999999994
 20
192.482
 30
0.0
 11
65.582999999999998
 21
192.34700000000001
 31
0.0
  0
LINE
  5
2D3
  8
0
 62
     7
 10
65.582999999999998
 20
192.34700000000001
 30
0.0
 11
66.067499999999995
 21
192.24499999999989
 31
0.0
  0
LINE
  5
2D4
  8
0
 62
     7
 10
66.067499999999995
 20
192.24499999999989
 30
0.0
 11
66.586500000000001
 21
192.18000000000001
 31
0.0
  0
LINE
  5
2D5
  8
0
 62
     7
 10
66.586500000000001
 20
192.18000000000001
 30
0.0
 11
67.124099999999999
 21
192.155
 31
0.0
  0
LINE
  5
2D6
  8
0
 62
     7
 10
67.124099999999999
 20
192.155
 30
0.0
 11
67.664000000000001
 21
192.16900000000001
 31
0.0
  0
LINE
  5
2D7
  8
0
 62
     7
 10
67.664000000000001
 20
192.16900000000001
 30
0.0
 11
68.189899999999994
 21
192.2229999999999
 31
0.0
  0
LINE
  5
2D8
  8
0
 62
     7
 10
68.189899999999994
 20
192.2229999999999
 30
0.0
 11
68.685500000000005
 21
192.31499999999991
 31
0.0
  0
LINE
  5
2D9
  8
0
 62
     7
 10
68.685500000000005
 20
192.31499999999991
 30
0.0
 11
69.136099999999999
 21
192.44099999999989
 31
0.0
  0
LINE
  5
2DA
  8
0
 62
     7
 10
69.136099999999999
 20
192.44099999999989
 30
0.0
 11
69.527600000000007
 21
192.59899999999999
 31
0.0
  0
LINE
  5
2DB
  8
0
 62
     7
 10
69.527600000000007
 20
192.59899999999999
 30
0.0
 11
69.848699999999994
 21
192.7829999999999
 31
0.0
  0
LINE
  5
2DC
  8
0
 62
     7
 10
69.848699999999994
 20
192.7829999999999
 30
0.0
 11
70.088999999999999
 21
192.98799999999989
 31
0.0
  0
LINE
  5
2DD
  8
0
 62
     7
 10
70.088999999999999
 20
192.98799999999989
 30
0.0
 11
70.241600000000005
 21
193.20699999999991
 31
0.0
  0
LINE
  5
2DE
  8
0
 62
     7
 10
70.241600000000005
 20
193.20699999999991
 30
0.0
 11
70.301900000000003
 21
193.435
 31
0.0
  0
LINE
  5
2DF
  8
0
 62
     7
 10
70.301900000000003
 20
193.435
 30
0.0
 11
70.267799999999994
 21
193.66199999999989
 31
0.0
  0
LINE
  5
2E0
  8
0
 62
     7
 10
70.267799999999994
 20
193.66199999999989
 30
0.0
 11
70.140199999999993
 21
193.88499999999999
 31
0.0
  0
LINE
  5
2E1
  8
0
 62
     7
 10
70.140199999999993
 20
193.88499999999999
 30
0.0
 11
69.9238
 21
194.09399999999999
 31
0.0
  0
LINE
  5
2E2
  8
0
 62
     7
 10
69.9238
 20
194.09399999999999
 30
0.0
 11
69.624099999999999
 21
194.28499999999991
 31
0.0
  0
LINE
  5
2E3
  8
0
 62
     7
 10
69.624099999999999
 20
194.28499999999991
 30
0.0
 11
69.251000000000005
 21
194.4499999999999
 31
0.0
  0
LINE
  5
2E4
  8
0
 62
     7
 10
69.251000000000005
 20
194.4499999999999
 30
0.0
 11
68.815399999999997
 21
194.5859999999999
 31
0.0
  0
LINE
  5
2E5
  8
0
 62
     7
 10
68.815399999999997
 20
194.5859999999999
 30
0.0
 11
68.330799999999996
 21
194.6879999999999
 31
0.0
  0
LINE
  5
2E6
  8
0
 62
     7
 10
68.330799999999996
 20
194.6879999999999
 30
0.0
 11
67.811800000000005
 21
194.75200000000001
 31
0.0
  0
LINE
  5
2E7
  8
0
 62
     7
 10
67.811800000000005
 20
194.75200000000001
 30
0.0
 11
67.2744
 21
194.77799999999999
 31
0.0
  0
LINE
  5
2E8
  8
0
 62
     7
 10
67.2744
 20
194.77799999999999
 30
0.0
 11
66.734300000000005
 21
194.76300000000001
 31
0.0
  0
LINE
  5
2E9
  8
0
 62
     7
 10
66.734300000000005
 20
194.76300000000001
 30
0.0
 11
66.208600000000004
 21
194.709
 31
0.0
  0
LINE
  5
2EA
  8
0
 62
     7
 10
66.208600000000004
 20
194.709
 30
0.0
 11
65.712999999999994
 21
194.61699999999999
 31
0.0
  0
LINE
  5
2EB
  8
0
 62
     7
 10
65.712999999999994
 20
194.61699999999999
 30
0.0
 11
65.2624
 21
194.4909999999999
 31
0.0
  0
LINE
  5
2EC
  8
0
 62
     7
 10
65.2624
 20
194.4909999999999
 30
0.0
 11
64.870900000000006
 21
194.33299999999991
 31
0.0
  0
LINE
  5
2ED
  8
0
 62
     7
 10
64.870900000000006
 20
194.33299999999991
 30
0.0
 11
64.549999999999997
 21
194.14999999999989
 31
0.0
  0
LINE
  5
2EE
  8
0
 62
     7
 10
64.549999999999997
 20
194.14999999999989
 30
0.0
 11
64.3095
 21
193.94399999999999
 31
0.0
  0
LINE
  5
2EF
  8
0
 62
     7
 10
64.3095
 20
193.94399999999999
 30
0.0
 11
64.156899999999993
 21
193.72499999999991
 31
0.0
  0
ARC
  5
2F0
  8
0
 62
     7
 10
61.670817999999997
 20
218.15486999999999
 30
0.0
 40
0.268849
 50
92.118206000000015
 51
177.88176399999989
  0
ARC
  5
2F1
  8
0
 62
     7
 10
72.774005999999986
 20
218.15484699999999
 30
0.0
 40
0.268866
 50
2.1228579999999999
 51
87.915266000000003
  0
LINE
  5
2F2
  8
0
 62
     7
 10
61.6631
 20
218.42399999999989
 30
0.0
 11
72.783799999999999
 21
218.42399999999989
 31
0.0
  0
LINE
  5
2F3
  8
0
 62
     7
 10
61.999200000000002
 20
211.43899999999999
 30
0.0
 11
67.223399999999984
 21
211.43899999999999
 31
0.0
  0
LINE
  5
2F4
  8
0
 62
     7
 10
61.973199999999999
 20
211.43899999999999
 30
0.0
 11
67.223399999999984
 21
211.43899999999999
 31
0.0
  0
ARC
  5
2F5
  8
0
 62
     7
 10
61.485093999999997
 20
212.038614
 30
0.0
 40
0.080586
 50
182.14409499999991
 51
267.85593499999999
  0
LINE
  5
2F6
  8
0
 62
     7
 10
61.973199999999999
 20
211.43899999999999
 30
0.0
 11
62.568199999999997
 21
211.43899999999999
 31
0.0
  0
ARC
  5
2F7
  8
0
 62
     7
 10
69.343306000000013
 20
209.411227
 30
0.0
 40
7.6188909999999996
 50
160.48760100000001
 51
164.56538699999999
  0
ARC
  5
2F8
  8
0
 62
     7
 10
67.450693999999999
 20
195.42784800000001
 30
0.0
 40
11.237735000000001
 50
91.159098
 51
93.225487000000001
  0
ARC
  5
2F9
  8
0
 62
     7
 10
67.131200000000007
 20
202.100641
 30
0.0
 40
4.5578849999999989
 50
93.935268999999991
 51
101.3600749999999
  0
ARC
  5
2FA
  8
0
 62
     7
 10
67.124988000000002
 20
201.99875899999989
 30
0.0
 40
4.6566219999999996
 50
101.0382139999999
 51
108.265756
  0
ARC
  5
2FB
  8
0
 62
     7
 10
66.669004999999999
 20
203.36521699999989
 30
0.0
 40
3.2161019999999998
 50
108.18157600000001
 51
109.065656
  0
ARC
  5
2FC
  8
0
 62
     7
 10
66.896321
 20
202.71022699999989
 30
0.0
 40
3.9094159999999998
 50
109.078748
 51
117.0166879999999
  0
ARC
  5
2FD
  8
0
 62
     7
 10
66.624320999999995
 20
203.27291999999991
 30
0.0
 40
3.2845979999999999
 50
117.248452
 51
126.48947
  0
ARC
  5
2FE
  8
0
 62
     7
 10
66.317666000000003
 20
203.71518699999999
 30
0.0
 40
2.7467199999999998
 50
126.8329189999999
 51
137.13850400000001
  0
ARC
  5
2FF
  8
0
 62
     7
 10
66.125512999999984
 20
203.90731600000001
 30
0.0
 40
2.4752000000000001
 50
137.37282799999991
 51
149.43388200000001
  0
ARC
  5
300
  8
0
 62
     7
 10
66.224626000000001
 20
203.85681099999999
 30
0.0
 40
2.5862340000000001
 50
149.587074
 51
163.626182
  0
ARC
  5
301
  8
0
 62
     7
 10
66.387268999999989
 20
203.78916199999989
 30
0.0
 40
2.7614169999999989
 50
163.23079899999991
 51
166.30566099999999
  0
ARC
  5
302
  8
0
 62
     7
 10
67.019442999999995
 20
203.62945400000001
 30
0.0
 40
3.4134329999999999
 50
166.21324699999991
 51
177.56372500000001
  0
ARC
  5
303
  8
0
 62
     7
 10
67.929929000000001
 20
203.591542
 30
0.0
 40
4.3247080000000002
 50
177.57464999999991
 51
180.80693299999999
  0
ARC
  5
304
  8
0
 62
     7
 10
81.983838000000006
 20
206.220732
 30
0.0
 40
19.459472999999999
 50
197.33342300000001
 51
199.16527500000001
  0
ARC
  5
305
  8
0
 62
     7
 10
70.364491000000001
 20
202.473311
 30
0.0
 40
7.2522380000000002
 50
192.12593299999989
 51
196.4211169999999
  0
ARC
  5
306
  8
0
 62
     7
 10
74.534762999999998
 20
203.39505500000001
 30
0.0
 40
11.523114
 50
188.386706
 51
192.25107
  0
ARC
  5
307
  8
0
 62
     7
 10
78.304152000000002
 20
204.02143799999999
 30
0.0
 40
15.343712999999999
 50
185.59035299999991
 51
188.64775499999999
  0
ARC
  5
308
  8
0
 62
     7
 10
74.251852999999997
 20
203.54976499999989
 30
0.0
 40
11.264986999999991
 50
181.01378199999999
 51
185.21053599999999
  0
ARC
  5
309
  8
0
 62
     7
 10
73.004567000000009
 20
203.52664599999989
 30
0.0
 40
10.017488
 50
176.21278000000001
 51
181.007789
  0
ARC
  5
30A
  8
0
 62
     7
 10
71.330581999999993
 20
203.62848600000001
 30
0.0
 40
8.3404360000000004
 50
170.434539
 51
176.15129400000001
  0
ARC
  5
30B
  8
0
 62
     7
 10
69.780313000000007
 20
203.87735199999989
 30
0.0
 40
6.7703769999999999
 50
159.34957600000001
 51
170.33122299999991
  0
ARC
  5
30C
  8
0
 62
     7
 10
68.445768999999984
 20
204.32902999999999
 30
0.0
 40
5.3625009999999991
 50
150.28527199999991
 51
158.83682400000001
  0
ARC
  5
30D
  8
0
 62
     7
 10
67.896563
 20
204.63236000000001
 30
0.0
 40
4.7351669999999988
 50
140.61090999999999
 51
150.1789409999999
  0
ARC
  5
30E
  8
0
 62
     7
 10
67.598526000000007
 20
204.849029
 30
0.0
 40
4.367386999999999
 50
130.788173
 51
140.32654099999991
  0
ARC
  5
30F
  8
0
 62
     7
 10
67.370093000000011
 20
205.106482
 30
0.0
 40
4.0232380000000001
 50
120.21181799999999
 51
130.7202629999999
  0
ARC
  5
310
  8
0
 62
     7
 10
67.190252999999998
 20
205.42892800000001
 30
0.0
 40
3.6541000000000001
 50
111.7733909999999
 51
120.31910000000001
  0
ARC
  5
311
  8
0
 62
     7
 10
67.294684000000004
 20
205.1781269999999
 30
0.0
 40
3.9257469999999999
 50
103.74248900000001
 51
111.8310279999999
  0
ARC
  5
312
  8
0
 62
     7
 10
67.157424000000006
 20
205.75786599999989
 30
0.0
 40
3.3300010000000002
 50
97.033542000000011
 51
103.81805299999991
  0
ARC
  5
313
  8
0
 62
     7
 10
67.095243999999994
 20
206.27211999999989
 30
0.0
 40
2.8120029999999989
 50
94.042715999999984
 51
97.059173000000015
  0
ARC
  5
314
  8
0
 62
     7
 10
67.433150999999995
 20
201.63697999999999
 30
0.0
 40
7.4594389999999988
 50
91.611542
 51
94.121731999999994
  0
LINE
  5
315
  8
0
 62
     7
 10
63.602899999999991
 20
258.94099999999992
 30
0.0
 11
63.602899999999991
 21
234.79400000000001
 31
0.0
  0
LINE
  5
316
  8
0
 62
     7
 10
70.844399999999993
 20
234.79400000000001
 30
0.0
 11
70.844399999999993
 21
258.94099999999992
 31
0.0
  0
LINE
  5
317
  8
0
 62
     7
 10
63.602899999999991
 20
203.53099999999989
 30
0.0
 11
63.602899999999991
 21
195.714
 31
0.0
  0
LINE
  5
318
  8
0
 62
     7
 10
61.973199999999999
 20
211.43899999999999
 30
0.0
 11
61.973199999999999
 21
177.30099999999999
 31
0.0
  0
ARC
  5
319
  8
0
 62
     7
 10
72.962114
 20
212.03866300000001
 30
0.0
 40
0.080631
 50
272.05090200000001
 51
357.82192500000002
  0
ARC
  5
31A
  8
0
 62
     7
 10
64.924852999999999
 20
209.35239799999999
 30
0.0
 40
7.8071859999999988
 50
15.500961
 51
19.480737999999992
  0
LINE
  5
31B
  8
0
 62
     7
 10
70.844399999999993
 20
195.714
 30
0.0
 11
70.844399999999993
 21
203.53099999999989
 31
0.0
  0
LINE
  5
31C
  8
0
 62
     7
 10
72.473699999999994
 20
177.30099999999999
 30
0.0
 11
72.473699999999994
 21
211.43899999999999
 31
0.0
  0
LINE
  5
31D
  8
0
 62
     7
 10
61.479799999999997
 20
211.958
 30
0.0
 11
72.965000000000003
 21
211.958
 31
0.0
  0
LINE
  5
31E
  8
0
 62
     7
 10
67.223399999999984
 20
211.43899999999999
 30
0.0
 11
72.473699999999994
 21
211.43899999999999
 31
0.0
  0
LINE
  5
31F
  8
0
 62
     7
 10
72.473699999999994
 20
211.43899999999999
 30
0.0
 11
67.223399999999984
 21
211.43899999999999
 31
0.0
  0
ARC
  5
320
  8
0
 62
     7
 10
66.997398000000004
 20
195.45630499999999
 30
0.0
 40
11.209256
 50
86.772358999999994
 51
88.844877999999994
  0
ARC
  5
321
  8
0
 62
     7
 10
67.316181
 20
202.102203
 30
0.0
 40
4.5562940000000003
 50
78.639756000000006
 51
86.069310000000016
  0
ARC
  5
322
  8
0
 62
     7
 10
67.320777000000007
 20
201.99203499999999
 30
0.0
 40
4.6634719999999996
 50
71.742766000000003
 51
78.961726999999996
  0
ARC
  5
323
  8
0
 62
     7
 10
67.952664999999996
 20
203.901825
 30
0.0
 40
2.6518630000000001
 50
70.715924999999999
 51
71.781066000000024
  0
ARC
  5
324
  8
0
 62
     7
 10
67.556910999999985
 20
202.72365500000001
 30
0.0
 40
3.8946580000000002
 50
62.97419699999999
 51
70.944602000000003
  0
ARC
  5
325
  8
0
 62
     7
 10
67.809989999999999
 20
203.25238200000001
 30
0.0
 40
3.3087029999999991
 50
53.544244999999997
 51
62.717793000000007
  0
ARC
  5
326
  8
0
 62
     7
 10
68.112067999999994
 20
203.69591299999999
 30
0.0
 40
2.772545
 50
42.909601000000002
 51
53.118937000000003
  0
ARC
  5
327
  8
0
 62
     7
 10
68.321566000000004
 20
203.90731600000001
 30
0.0
 40
2.4752000000000001
 50
30.56609799999999
 51
42.627152000000002
  0
ARC
  5
328
  8
0
 62
     7
 10
68.222453000000002
 20
203.85681099999999
 30
0.0
 40
2.5862340000000001
 50
16.373798000000001
 51
30.412905999999989
  0
ARC
  5
329
  8
0
 62
     7
 10
67.715428000000003
 20
203.69538999999989
 30
0.0
 40
3.1182229999999991
 50
13.870276999999991
 51
16.593222999999998
  0
ARC
  5
32A
  8
0
 62
     7
 10
67.427637000000004
 20
203.62945400000001
 30
0.0
 40
3.4134329999999999
 50
2.4362550000000001
 51
13.786732999999989
  0
ARC
  5
32B
  8
0
 62
     7
 10
65.433149
 20
203.57623099999989
 30
0.0
 40
5.4084719999999988
 50
359.51699200000002
 51
2.101424999999999
  0
ARC
  5
32C
  8
0
 62
     7
 10
50.673470999999999
 20
206.7989279999999
 30
0.0
 40
21.33995599999999
 50
340.94698
 51
342.59092399999997
  0
ARC
  5
32D
  8
0
 62
     7
 10
63.953741999999998
 20
202.507048
 30
0.0
 40
7.3849259999999992
 50
343.53696799999989
 51
347.78362199999998
  0
ARC
  5
32E
  8
0
 62
     7
 10
59.933253000000001
 20
203.39924400000001
 30
0.0
 40
11.503185
 50
347.67782599999992
 51
351.57758299999989
  0
ARC
  5
32F
  8
0
 62
     7
 10
56.556075
 20
203.96141999999989
 30
0.0
 40
14.926409
 50
351.34167599999989
 51
354.468414
  0
ARC
  5
330
  8
0
 62
     7
 10
60.290897000000001
 20
203.5487269999999
 30
0.0
 40
11.169313000000001
 50
354.72877599999993
 51
358.98287799999991
  0
ARC
  5
331
  8
0
 62
     7
 10
61.207320999999993
 20
203.52337299999991
 30
0.0
 40
10.252587999999999
 50
359.03363400000001
 51
3.6761180000000002
  0
ARC
  5
332
  8
0
 62
     7
 10
62.939197999999998
 20
203.60759200000001
 30
0.0
 40
8.5189170000000001
 50
3.8576830000000002
 51
9.5056649999999987
  0
ARC
  5
333
  8
0
 62
     7
 10
64.649004000000005
 20
203.870743
 30
0.0
 40
6.7891669999999991
 50
9.6983219999999992
 51
20.650245999999999
  0
ARC
  5
334
  8
0
 62
     7
 10
66.035803000000001
 20
204.34860599999999
 30
0.0
 40
5.3231099999999989
 50
21.101364
 51
29.615928999999991
  0
ARC
  5
335
  8
0
 62
     7
 10
66.505432999999996
 20
204.59947600000001
 30
0.0
 40
4.7908790000000003
 50
29.783214000000001
 51
39.350869000000003
  0
ARC
  5
336
  8
0
 62
     7
 10
66.909553000000002
 20
204.91348400000001
 30
0.0
 40
4.2793000000000001
 50
39.530609999999989
 51
49.123601000000001
  0
ARC
  5
337
  8
0
 62
     7
 10
67.091969999999989
 20
205.12230299999999
 30
0.0
 40
4.0020290000000003
 50
49.141810999999997
 51
59.859561999999997
  0
ARC
  5
338
  8
0
 62
     7
 10
67.16051800000001
 20
205.2355399999999
 30
0.0
 40
3.8696830000000002
 50
59.895417000000002
 51
67.861227999999997
  0
ARC
  5
339
  8
0
 62
     7
 10
67.219493999999983
 20
205.38228599999999
 30
0.0
 40
3.711530999999999
 50
67.850836999999999
 51
76.514960000000002
  0
ARC
  5
33A
  8
0
 62
     7
 10
67.288931000000005
 20
205.7549149999999
 30
0.0
 40
3.333038999999999
 50
76.181946999999994
 51
82.957350000000005
  0
ARC
  5
33B
  8
0
 62
     7
 10
67.350921
 20
206.25920799999989
 30
0.0
 40
2.824949999999999
 50
82.951103000000003
 51
85.956232
  0
ARC
  5
33C
  8
0
 62
     7
 10
67.013962000000006
 20
201.63164399999991
 30
0.0
 40
7.4647619999999986
 50
85.881079
 51
88.392491000000007
  0
LINE
  5
33D
  8
0
  6
AIGENLINE002
 62
     7
 10
67.223699999999994
 20
220.78599999999989
 30
0.0
 11
67.223699999999994
 21
90.432599999999994
 31
0.0
  0
LINE
  5
33E
  8
0
 62
     7
 10
73.042699999999996
 20
212.03599999999989
 30
0.0
 11
73.042699999999996
 21
218.16499999999991
 31
0.0
  0
ARC
  5
33F
  8
0
 62
     7
 10
67.219577999999998
 20
215.47175799999991
 30
0.0
 40
1.293296999999999
 50
90.0
 51
179.99996999999991
  0
ARC
  5
340
  8
0
 62
     7
 10
67.268929
 20
215.521468
 30
0.0
 40
1.3435680000000001
 50
182.12032899999991
 51
267.89496600000001
  0
ARC
  5
341
  8
0
 62
     7
 10
67.169898000000003
 20
215.52143899999999
 30
0.0
 40
1.3435520000000001
 50
272.11910799999998
 51
357.88090199999999
  0
ARC
  5
342
  8
0
 62
     7
 10
67.219405000000009
 20
215.47193100000001
 30
0.0
 40
1.2931250000000001
 50
359.99237799999992
 51
89.992347999999993
  0
LINE
  5
343
  8
0
 62
     7
 10
61.404600000000002
 20
218.16499999999991
 30
0.0
 11
61.404600000000002
 21
212.03399999999999
 31
0.0
  0
LINE
  5
344
  8
0
 62
     7
 10
72.473699999999994
 20
153.654
 30
0.0
 11
72.473699999999994
 21
177.30099999999999
 31
0.0
  0
LINE
  5
345
  8
0
 62
     7
 10
61.973199999999999
 20
177.30099999999999
 30
0.0
 11
61.973199999999999
 21
153.654
 31
0.0
  0
ARC
  5
346
  8
0
 62
     7
 10
61.818863
 20
153.38762199999991
 30
0.0
 40
0.266047
 50
91.229269000000016
 51
164.75443000000001
  0
LINE
  5
347
  8
0
 62
     7
 10
61.352699999999999
 20
152.102
 30
0.0
 11
61.352699999999999
 21
151.06700000000001
 31
0.0
  0
LINE
  5
348
  8
0
 62
     7
 10
61.562199999999997
 20
153.458
 30
0.0
 11
61.223500000000001
 21
152.102
 31
0.0
  0
LINE
  5
349
  8
0
 62
     7
 10
72.884699999999995
 20
153.458
 30
0.0
 11
73.223600000000005
 21
152.102
 31
0.0
  0
LINE
  5
34A
  8
0
 62
     7
 10
73.094399999999993
 20
152.102
 30
0.0
 11
73.094399999999993
 21
151.06700000000001
 31
0.0
  0
LINE
  5
34B
  8
0
 62
     7
 10
72.633899999999997
 20
153.654
 30
0.0
 11
61.813200000000002
 21
153.654
 31
0.0
  0
ARC
  5
34C
  8
0
 62
     7
 10
72.627300000000005
 20
153.386675
 30
0.0
 40
0.267015
 50
15.39959599999999
 51
88.578494999999975
  0
LINE
  5
34D
  8
0
 62
     7
 10
73.223600000000005
 20
152.102
 30
0.0
 11
61.223500000000001
 21
152.102
 31
0.0
  0
LINE
  5
34E
  8
0
 62
     7
 10
61.352699999999999
 20
151.06700000000001
 30
0.0
 11
73.094399999999993
 21
151.06700000000001
 31
0.0
  0
LINE
  5
34F
  8
0
 62
     7
 10
61.973199999999999
 20
177.30099999999999
 30
0.0
 11
72.473699999999994
 21
177.30099999999999
 31
0.0
  0
LINE
  5
350
  8
0
 62
     7
 10
134.5149999999999
 20
151.06700000000001
 30
0.0
 11
134.5149999999999
 21
145.89500000000001
 31
0.0
  0
LINE
  5
351
  8
0
 62
     7
 10
134.43100000000001
 20
151.06700000000001
 30
0.0
 11
134.43100000000001
 21
145.89500000000001
 31
0.0
  0
LINE
  5
352
  8
0
 62
     7
 10
134.43100000000001
 20
138.816
 30
0.0
 11
134.43100000000001
 21
139.779
 31
0.0
  0
LINE
  5
353
  8
0
 62
     7
 10
134.5149999999999
 20
139.779
 30
0.0
 11
134.5149999999999
 21
138.96199999999999
 31
0.0
  0
LINE
  5
354
  8
0
 62
     7
 10
135.0329999999999
 20
139.779
 30
0.0
 11
135.233
 21
139.89500000000001
 31
0.0
  0
LINE
  5
355
  8
0
 62
     7
 10
134.386
 20
139.779
 30
0.0
 11
135.0329999999999
 21
139.779
 31
0.0
  0
LINE
  5
356
  8
0
 62
     7
 10
134.68600000000001
 20
139.779
 30
0.0
 11
134.4859999999999
 21
139.89500000000001
 31
0.0
  0
LINE
  5
357
  8
0
 62
     7
 10
134.28599999999989
 20
139.779
 30
0.0
 11
134.4859999999999
 21
139.89500000000001
 31
0.0
  0
LINE
  5
358
  8
0
 62
     7
 10
135.233
 20
139.89500000000001
 30
0.0
 11
135.233
 21
145.06700000000001
 31
0.0
  0
LINE
  5
359
  8
0
 62
     7
 10
134.4859999999999
 20
139.89500000000001
 30
0.0
 11
134.4859999999999
 21
145.06700000000001
 31
0.0
  0
LINE
  5
35A
  8
0
 62
     7
 10
126.4199999999999
 20
177.30099999999999
 30
0.0
 11
136.92099999999999
 21
177.30099999999999
 31
0.0
  0
ARC
  5
35B
  8
0
 62
     7
 10
66.145681999999994
 20
244.44306199999991
 30
0.0
 40
0.215066
 50
182.09390200000001
 51
267.81071400000002
  0
LINE
  5
35C
  8
0
 62
     7
 10
68.309600000000003
 20
244.22799999999989
 30
0.0
 11
66.137500000000003
 21
244.22799999999989
 31
0.0
  0
ARC
  5
35D
  8
0
 62
     7
 10
68.301362999999995
 20
244.44381299999989
 30
0.0
 40
0.215818
 50
272.19085899999988
 51
357.71389599999992
  0
ARC
  5
35E
  8
0
 62
     7
 10
112.61846899999991
 20
214.42132599999991
 30
0.0
 40
0.215475
 50
182.194692
 51
267.70992399999989
  0
ARC
  5
35F
  8
0
 62
     7
 10
112.618156
 20
216.57763899999989
 30
0.0
 40
0.215138
 50
92.210250999999985
 51
177.98038700000001
  0
LINE
  5
360
  8
0
 62
     7
 10
112.40299999999991
 20
214.41300000000001
 30
0.0
 11
112.40299999999991
 21
216.58500000000001
 31
0.0
  0
ARC
  5
361
  8
0
 62
     7
 10
99.666966000000002
 20
197.62217799999991
 30
0.0
 40
0.537431
 50
112.11168000000001
 51
197.8724729999999
  0
ARC
  5
362
  8
0
 62
     7
 10
99.646523000000002
 20
197.6388959999999
 30
0.0
 40
0.5235760000000002
 50
200.30101999999991
 51
244.72602999999989
  0
LINE
  5
363
  8
0
 62
     7
 10
100.0179999999999
 20
194.6049999999999
 30
0.0
 11
102.57299999999999
 21
193.4129999999999
 31
0.0
  0
LINE
  5
364
  8
0
 62
     7
 10
99.847899999999996
 20
194.9129999999999
 30
0.0
 11
101.465
 21
194.15899999999999
 31
0.0
  0
LINE
  5
365
  8
0
 62
     7
 10
101.84399999999999
 20
194.96999999999991
 30
0.0
 11
101.465
 21
194.15899999999999
 31
0.0
  0
LINE
  5
366
  8
0
 62
     7
 10
100.4639999999999
 20
194.39699999999999
 30
0.0
 11
100.449
 21
194.3659999999999
 31
0.0
  0
ARC
  5
367
  8
0
 62
     7
 10
100.4802149999999
 20
194.3525909999999
 30
0.0
 40
0.033869
 50
157.42761100000001
 51
242.5753959999999
  0
ARC
  5
368
  8
0
 62
     7
 10
104.9547389999999
 20
198.51311499999991
 30
0.0
 40
5.5801119999999997
 50
231.294836
 51
244.96846099999991
  0
LINE
  5
369
  8
0
 62
     7
 10
100.0179999999999
 20
194.6049999999999
 30
0.0
 11
99.847899999999996
 21
194.9129999999999
 31
0.0
  0
LINE
  5
36A
  8
0
 62
     7
 10
100.63500000000001
 20
196.59999999999999
 30
0.0
 11
99.847899999999996
 21
194.9129999999999
 31
0.0
  0
ARC
  5
36B
  8
0
 62
     7
 10
107.597256
 20
193.92624499999999
 30
0.0
 40
0.5187530000000001
 50
245.093942
 51
289.91396700000001
  0
ARC
  5
36C
  8
0
 62
     7
 10
100.7449439999999
 20
189.50010700000001
 30
0.0
 40
5.5801119999999997
 50
51.294815999999997
 51
64.96844200000001
  0
LINE
  5
36D
  8
0
 62
     7
 10
104.23399999999999
 20
193.85499999999999
 30
0.0
 11
103.85599999999999
 21
193.04400000000001
 31
0.0
  0
LINE
  5
36E
  8
0
 62
     7
 10
107.379
 20
193.4559999999999
 30
0.0
 11
103.44799999999989
 21
195.28899999999999
 31
0.0
  0
LINE
  5
36F
  8
0
 62
     7
 10
105.1279999999999
 20
192.22200000000001
 30
0.0
 11
105.4729999999999
 21
192.28999999999999
 31
0.0
  0
LINE
  5
370
  8
0
 62
     7
 10
104.68299999999989
 20
192.43000000000001
 30
0.0
 11
105.1279999999999
 21
192.22200000000001
 31
0.0
  0
ARC
  5
371
  8
0
 62
     7
 10
104.63807299999991
 20
192.413804
 30
0.0
 40
0.033805
 50
247.45234300000001
 51
332.29202400000008
  0
LINE
  5
372
  8
0
 62
     7
 10
105.1279999999999
 20
192.22200000000001
 30
0.0
 11
105.4729999999999
 21
192.28999999999999
 31
0.0
  0
ARC
  5
373
  8
0
 62
     7
 10
104.63807299999991
 20
192.413804
 30
0.0
 40
0.033805
 50
247.45234300000001
 51
332.29202400000008
  0
LINE
  5
374
  8
0
 62
     7
 10
104.68299999999989
 20
192.43000000000001
 30
0.0
 11
104.66799999999991
 21
192.398
 31
0.0
  0
LINE
  5
375
  8
0
 62
     7
 10
105.4729999999999
 20
192.28999999999999
 30
0.0
 11
103.85599999999999
 21
193.04400000000001
 31
0.0
  0
LINE
  5
376
  8
0
 62
     7
 10
106.261
 20
193.977
 30
0.0
 11
105.4729999999999
 21
192.28999999999999
 31
0.0
  0
LINE
  5
377
  8
0
 62
     7
 10
106.261
 20
193.977
 30
0.0
 11
105.4729999999999
 21
192.28999999999999
 31
0.0
  0
LINE
  5
378
  8
0
 62
     7
 10
100.5409999999999
 20
194.28700000000001
 30
0.0
 11
104.625
 21
192.3829999999999
 31
0.0
  0
LINE
  5
379
  8
0
 62
     7
 10
100.465
 20
194.32299999999989
 30
0.0
 11
104.625
 21
192.3829999999999
 31
0.0
  0
ARC
  5
37A
  8
0
 62
     7
 10
100.7572029999999
 20
189.517842
 30
0.0
 40
5.558857999999999
 50
65.005585999999994
 51
78.730649999999997
  0
ARC
  5
37B
  8
0
 62
     7
 10
104.94248
 20
198.49538000000001
 30
0.0
 40
5.558857999999999
 50
245.005606
 51
258.73066999999998
  0
LINE
  5
37C
  8
0
 62
     7
 10
105.1279999999999
 20
192.22200000000001
 30
0.0
 11
102.57299999999999
 21
193.4129999999999
 31
0.0
  0
LINE
  5
37D
  8
0
 62
     7
 10
103.44799999999989
 20
195.28899999999999
 30
0.0
 11
99.422999999999988
 21
197.16499999999991
 31
0.0
  0
LINE
  5
37E
  8
0
 62
     7
 10
125.852
 20
218.34399999999999
 30
0.0
 11
125.852
 21
218.3959999999999
 31
0.0
  0
ARC
  5
37F
  8
0
 62
     7
 10
126.0664919999999
 20
218.3877149999999
 30
0.0
 40
0.215126
 50
92.20389200000001
 51
177.891492
  0
ARC
  5
380
  8
0
 62
     7
 10
120.1980139999999
 20
215.49595599999989
 30
0.0
 40
5.8016389999999989
 50
347.02437200000003
 51
0.03322
  0
ARC
  5
381
  8
0
 62
     7
 10
120.1537059999999
 20
215.497658
 30
0.0
 40
5.8459459999999988
 50
0.016288
 51
12.926119
  0
LINE
  5
382
  8
0
 62
     7
 10
125.852
 20
218.34399999999999
 30
0.0
 11
125.852
 21
216.80500000000001
 31
0.0
  0
ARC
  5
383
  8
0
 62
     7
 10
137.27380099999991
 20
218.3873779999999
 30
0.0
 40
0.215475
 50
2.1946720000000002
 51
87.709903999999995
  0
LINE
  5
384
  8
0
 62
     7
 10
137.489
 20
218.137
 30
0.0
 11
137.489
 21
218.3959999999999
 31
0.0
  0
LINE
  5
385
  8
0
 62
     7
 10
126.05800000000001
 20
218.60299999999989
 30
0.0
 11
137.28200000000001
 21
218.60299999999989
 31
0.0
  0
LINE
  5
386
  8
0
 62
     7
 10
126.4199999999999
 20
211.43899999999999
 30
0.0
 11
127.015
 21
211.43899999999999
 31
0.0
  0
ARC
  5
387
  8
0
 62
     7
 10
125.932233
 20
212.03670899999989
 30
0.0
 40
0.080771
 50
182.009997
 51
267.48073999999991
  0
LINE
  5
388
  8
0
 62
     7
 10
125.98
 20
211.9559999999999
 30
0.0
 11
125.929
 21
211.9559999999999
 31
0.0
  0
LINE
  5
389
  8
0
 62
     7
 10
126.44499999999989
 20
211.43899999999999
 30
0.0
 11
131.6699999999999
 21
211.43899999999999
 31
0.0
  0
LINE
  5
38A
  8
0
 62
     7
 10
125.98
 20
211.9559999999999
 30
0.0
 11
131.6699999999999
 21
211.9559999999999
 31
0.0
  0
ARC
  5
38B
  8
0
 62
     7
 10
133.49543700000001
 20
209.49693300000001
 30
0.0
 40
7.3125629999999999
 50
160.3494629999999
 51
164.59936499999989
  0
LINE
  5
38C
  8
0
 62
     7
 10
126.4199999999999
 20
211.43899999999999
 30
0.0
 11
126.4199999999999
 21
208.73099999999991
 31
0.0
  0
ARC
  5
38D
  8
0
 62
     7
 10
137.40855400000001
 20
212.03657999999999
 30
0.0
 40
0.080609
 50
271.92223200000001
 51
358.07777799999991
  0
LINE
  5
38E
  8
0
 62
     7
 10
137.36000000000001
 20
211.9559999999999
 30
0.0
 11
137.41099999999989
 21
211.9559999999999
 31
0.0
  0
ARC
  5
38F
  8
0
 62
     7
 10
129.50218699999999
 20
209.3984649999999
 30
0.0
 40
7.6687380000000003
 50
15.430678
 51
19.481560000000002
  0
LINE
  5
390
  8
0
 62
     7
 10
131.6699999999999
 20
211.43899999999999
 30
0.0
 11
136.92099999999999
 21
211.43899999999999
 31
0.0
  0
LINE
  5
391
  8
0
 62
     7
 10
131.6699999999999
 20
211.9559999999999
 30
0.0
 11
137.36000000000001
 21
211.9559999999999
 31
0.0
  0
ARC
  5
392
  8
0
 62
     7
 10
122.4557759999999
 20
203.27885399999991
 30
0.0
 40
5.2600800000000003
 50
315.46040499999992
 51
33.126151
  0
ARC
  5
393
  8
0
 62
     7
 10
124.29555999999999
 20
208.77038200000001
 30
0.0
 40
2.1247539999999998
 50
291.04166400000003
 51
358.94841300000002
  0
ARC
  5
394
  8
0
 62
     7
 10
124.27166099999999
 20
196.542284
 30
0.0
 40
2.1497669999999989
 50
2.1197469999999998
 51
87.889783999999992
  0
ARC
  5
395
  8
0
 62
     7
 10
124.34891399999989
 20
196.63149199999989
 30
0.0
 40
2.0591009999999992
 50
89.946995999999999
 51
110.0434799999999
  0
LINE
  5
396
  8
0
 62
     7
 10
137.489
 20
218.34399999999999
 30
0.0
 11
137.489
 21
212.03399999999999
 31
0.0
  0
LINE
  5
397
  8
0
 62
     7
 10
125.852
 20
214.1929999999999
 30
0.0
 11
125.852
 21
212.03399999999999
 31
0.0
  0
ARC
  5
398
  8
0
  6
AIGENLINE001
 62
     7
 10
140.14465100000001
 20
215.26633100000001
 30
0.0
 40
0.215169
 50
337.23122199999989
 51
62.758073000000003
  0
LINE
  5
399
  8
0
  6
AIGENLINE001
 62
     7
 10
140.23400000000001
 20
214.94800000000001
 30
0.0
 11
140.3429999999999
 21
215.18299999999991
 31
0.0
  0
LINE
  5
39A
  8
0
  6
AIGENLINE001
 62
     7
 10
129.773
 20
220.054
 30
0.0
 11
129.12299999999991
 21
218.65999999999991
 31
0.0
  0
LINE
  5
39B
  8
0
  6
AIGENLINE001
 62
     7
 10
129.773
 20
220.054
 30
0.0
 11
129.7949999999999
 21
220.102
 31
0.0
  0
ARC
  5
39C
  8
0
  6
AIGENLINE001
 62
     7
 10
129.987189
 20
220.00233299999999
 30
0.0
 40
0.215907
 50
67.330643000000009
 51
152.61248499999999
  0
LINE
  5
39D
  8
0
  6
AIGENLINE001
 62
     7
 10
130.06999999999991
 20
220.202
 30
0.0
 11
140.24299999999999
 21
215.458
 31
0.0
  0
ARC
  5
39E
  8
0
  6
AIGENLINE001
 62
     7
 10
137.5823419999999
 20
209.45451499999999
 30
0.0
 40
0.081329
 50
247.43276399999999
 51
332.502792
  0
LINE
  5
39F
  8
0
  6
AIGENLINE001
 62
     7
 10
137.50399999999999
 20
209.4009999999999
 30
0.0
 11
137.55099999999999
 21
209.37899999999999
 31
0.0
  0
LINE
  5
3A0
  8
0
  6
AIGENLINE001
 62
     7
 10
127.191
 20
214.21000000000001
 30
0.0
 11
127.14399999999991
 21
214.232
 31
0.0
  0
ARC
  5
3A1
  8
0
  6
AIGENLINE001
 62
     7
 10
127.181969
 20
214.30420499999991
 30
0.0
 40
0.081342
 50
157.32797099999991
 51
242.269777
  0
LINE
  5
3A2
  8
0
  6
AIGENLINE001
 62
     7
 10
127.191
 20
214.21000000000001
 30
0.0
 11
137.50399999999999
 21
209.4009999999999
 31
0.0
  0
LINE
  5
3A3
  8
0
  6
AIGENLINE001
 62
     7
 10
140.321
 20
215.13599999999991
 30
0.0
 11
137.654
 21
209.417
 31
0.0
  0
LINE
  5
3A4
  8
0
  6
AIGENLINE001
 62
     7
 10
128.02000000000001
 20
216.29300000000001
 30
0.0
 11
127.107
 21
214.3359999999999
 31
0.0
  0
LINE
  5
3A5
  8
0
  6
AIGENLINE001
 62
     7
 10
115.92400000000001
 20
222.17500000000001
 30
0.0
 11
116.8429999999999
 21
224.14400000000001
 31
0.0
  0
ARC
  5
3A6
  8
0
  6
AIGENLINE001
 62
     7
 10
116.122756
 20
222.09186099999999
 30
0.0
 40
0.215491
 50
157.22860700000001
 51
242.71454
  0
LINE
  5
3A7
  8
0
  6
AIGENLINE001
 62
     7
 10
128.02699999999999
 20
216.303
 30
0.0
 11
116.0239999999999
 21
221.90000000000001
 31
0.0
  0
LINE
  5
3A8
  8
0
 62
     7
 10
136.92099999999999
 20
191.52500000000001
 30
0.0
 11
136.91599999999991
 21
191.48899999999989
 31
0.0
  0
LINE
  5
3A9
  8
0
 62
     7
 10
136.91599999999991
 20
191.48899999999989
 30
0.0
 11
136.90600000000001
 21
191.38499999999999
 31
0.0
  0
LINE
  5
3AA
  8
0
 62
     7
 10
136.90600000000001
 20
191.38499999999999
 30
0.0
 11
136.89400000000001
 21
191.2229999999999
 31
0.0
  0
LINE
  5
3AB
  8
0
 62
     7
 10
136.89400000000001
 20
191.2229999999999
 30
0.0
 11
136.88499999999991
 21
191.02699999999999
 31
0.0
  0
LINE
  5
3AC
  8
0
 62
     7
 10
136.8829999999999
 20
184.4129999999999
 30
0.0
 11
136.887
 21
184.1999999999999
 31
0.0
  0
LINE
  5
3AD
  8
0
 62
     7
 10
136.887
 20
184.1999999999999
 30
0.0
 11
136.89699999999999
 21
184.01099999999991
 31
0.0
  0
LINE
  5
3AE
  8
0
 62
     7
 10
136.89699999999999
 20
184.01099999999991
 30
0.0
 11
136.90999999999991
 21
183.8659999999999
 31
0.0
  0
LINE
  5
3AF
  8
0
 62
     7
 10
136.90999999999991
 20
183.8659999999999
 30
0.0
 11
136.9189999999999
 21
183.7829999999999
 31
0.0
  0
LINE
  5
3B0
  8
0
 62
     7
 10
136.9189999999999
 20
183.7829999999999
 30
0.0
 11
136.92099999999999
 21
183.76599999999991
 31
0.0
  0
LINE
  5
3B1
  8
0
 62
     7
 10
136.8829999999999
 20
191.02699999999999
 30
0.0
 11
136.8829999999999
 21
184.4129999999999
 31
0.0
  0
LINE
  5
3B2
  8
0
 62
     7
 10
135.67899999999989
 20
147.76599999999999
 30
0.0
 11
135.67899999999989
 21
151.06700000000001
 31
0.0
  0
LINE
  5
3B3
  8
0
 62
     7
 10
132.96399999999991
 20
139.779
 30
0.0
 11
132.96399999999991
 21
138.96199999999999
 31
0.0
  0
LINE
  5
3B4
  8
0
 62
     7
 10
133.19199999999989
 20
139.779
 30
0.0
 11
132.99299999999999
 21
139.89500000000001
 31
0.0
  0
LINE
  5
3B5
  8
0
 62
     7
 10
132.79300000000001
 20
139.779
 30
0.0
 11
132.99299999999999
 21
139.89500000000001
 31
0.0
  0
LINE
  5
3B6
  8
0
 62
     7
 10
132.99299999999999
 20
139.779
 30
0.0
 11
132.44599999999991
 21
139.779
 31
0.0
  0
LINE
  5
3B7
  8
0
 62
     7
 10
132.99299999999999
 20
139.779
 30
0.0
 11
134.386
 21
139.779
 31
0.0
  0
LINE
  5
3B8
  8
0
 62
     7
 10
132.44599999999991
 20
139.779
 30
0.0
 11
132.24600000000001
 21
139.89500000000001
 31
0.0
  0
LINE
  5
3B9
  8
0
 62
     7
 10
134.386
 20
138.96199999999999
 30
0.0
 11
132.96399999999991
 21
138.96199999999999
 31
0.0
  0
LINE
  5
3BA
  8
0
 62
     7
 10
133.047
 20
138.816
 30
0.0
 11
133.047
 21
139.779
 31
0.0
  0
LINE
  5
3BB
  8
0
 62
     7
 10
132.99299999999999
 20
139.89500000000001
 30
0.0
 11
132.99299999999999
 21
145.06700000000001
 31
0.0
  0
LINE
  5
3BC
  8
0
 62
     7
 10
132.24600000000001
 20
139.89500000000001
 30
0.0
 11
132.24600000000001
 21
145.06700000000001
 31
0.0
  0
LINE
  5
3BD
  8
0
 62
     7
 10
133.047
 20
151.06700000000001
 30
0.0
 11
133.047
 21
145.89500000000001
 31
0.0
  0
LINE
  5
3BE
  8
0
 62
     7
 10
132.96399999999991
 20
151.06700000000001
 30
0.0
 11
132.96399999999991
 21
145.89500000000001
 31
0.0
  0
LINE
  5
3BF
  8
0
 62
     7
 10
135.67899999999989
 20
145.89500000000001
 30
0.0
 11
135.67899999999989
 21
147.76599999999999
 31
0.0
  0
LINE
  5
3C0
  8
0
 62
     7
 10
136.92099999999999
 20
153.654
 30
0.0
 11
136.92099999999999
 21
183.76599999999991
 31
0.0
  0
ARC
  5
3C1
  8
0
 62
     7
 10
141.5900399999999
 20
190.94616799999989
 30
0.0
 40
0.080813
 50
2.0574439999999998
 51
87.942545999999993
  0
ARC
  5
3C2
  8
0
 62
     7
 10
141.59008
 20
189.81438199999991
 30
0.0
 40
0.080801
 50
272.0296029999999
 51
357.46111400000001
  0
LINE
  5
3C3
  8
0
 62
     7
 10
141.67099999999991
 20
195.91900000000001
 30
0.0
 11
141.67099999999991
 21
191.64899999999989
 31
0.0
  0
LINE
  5
3C4
  8
0
 62
     7
 10
141.67099999999991
 20
190.94900000000001
 30
0.0
 11
141.67099999999991
 21
189.81099999999989
 31
0.0
  0
LINE
  5
3C5
  8
0
 62
     7
 10
136.8829999999999
 20
189.7339999999999
 30
0.0
 11
141.5929999999999
 21
189.7339999999999
 31
0.0
  0
LINE
  5
3C6
  8
0
 62
     7
 10
136.88499999999991
 20
191.02699999999999
 30
0.0
 11
141.5929999999999
 21
191.02699999999999
 31
0.0
  0
LINE
  5
3C7
  8
0
 62
     7
 10
126.4199999999999
 20
196.62200000000001
 30
0.0
 11
126.4199999999999
 21
153.654
 31
0.0
  0
LINE
  5
3C8
  8
0
 62
     7
 10
136.92099999999999
 20
191.52500000000001
 30
0.0
 11
136.92099999999999
 21
211.43899999999999
 31
0.0
  0
LINE
  5
3C9
  8
0
 62
     7
 10
99.464699999999993
 20
198.12
 30
0.0
 11
125.05800000000001
 21
206.78700000000001
 31
0.0
  0
LINE
  5
3CA
  8
0
 62
     7
 10
123.6429999999999
 20
198.56599999999989
 30
0.0
 11
107.774
 21
193.43899999999999
 31
0.0
  0
LINE
  5
3CB
  8
0
 62
     7
 10
65.930800000000005
 20
244.435
 30
0.0
 11
65.930800000000005
 21
257.82199999999989
 31
0.0
  0
LINE
  5
3CC
  8
0
 62
     7
 10
68.516999999999996
 20
257.82199999999989
 30
0.0
 11
68.516999999999996
 21
244.435
 31
0.0
  0
LINE
  5
3CD
  8
0
 62
     7
 10
125.8539999999999
 20
214.2059999999999
 30
0.0
 11
112.61
 21
214.2059999999999
 31
0.0
  0
LINE
  5
3CE
  8
0
 62
     7
 10
112.61
 20
216.79300000000001
 30
0.0
 11
125.8539999999999
 21
216.79300000000001
 31
0.0
  0
LINE
  5
3CF
  8
0
 62
     7
 10
133.739
 20
138.51400000000001
 30
0.0
 11
133.739
 21
137.4789999999999
 31
0.0
  0
LINE
  5
3D0
  8
0
 62
     7
 10
133.22200000000001
 20
137.4789999999999
 30
0.0
 11
133.22200000000001
 21
138.51400000000001
 31
0.0
  0
LINE
  5
3D1
  8
0
 62
     7
 10
134.25599999999989
 20
137.4789999999999
 30
0.0
 11
134.25599999999989
 21
138.51400000000001
 31
0.0
  0
LINE
  5
3D2
  8
0
 62
     7
 10
133.22200000000001
 20
137.4789999999999
 30
0.0
 11
134.25599999999989
 21
137.4789999999999
 31
0.0
  0
LINE
  5
3D3
  8
0
 62
     7
 10
134.25599999999989
 20
137.4789999999999
 30
0.0
 11
134.13599999999991
 21
137.22
 31
0.0
  0
LINE
  5
3D4
  8
0
 62
     7
 10
133.22200000000001
 20
137.4789999999999
 30
0.0
 11
133.3429999999999
 21
137.22
 31
0.0
  0
LINE
  5
3D5
  8
0
 62
     7
 10
133.3429999999999
 20
137.22
 30
0.0
 11
134.13599999999991
 21
137.22
 31
0.0
  0
LINE
  5
3D6
  8
0
 62
     7
 10
134.25599999999989
 20
138.51400000000001
 30
0.0
 11
133.22200000000001
 21
138.51400000000001
 31
0.0
  0
LINE
  5
3D7
  8
0
 62
     7
 10
133.22200000000001
 20
138.51400000000001
 30
0.0
 11
132.96399999999991
 21
138.96199999999999
 31
0.0
  0
LINE
  5
3D8
  8
0
 62
     7
 10
134.25599999999989
 20
138.51400000000001
 30
0.0
 11
134.5149999999999
 21
138.96199999999999
 31
0.0
  0
ARC
  5
3D9
  8
0
 62
     7
 10
64.657403000000002
 20
193.35352599999999
 30
0.0
 40
0.4958840000000001
 50
180.09221599999989
 51
205.37146899999999
  0
ARC
  5
3DA
  8
0
 62
     7
 10
64.844008000000002
 20
193.43537900000001
 30
0.0
 40
0.6995890000000001
 50
204.880146
 51
221.7915459999999
  0
ARC
  5
3DB
  8
0
 62
     7
 10
65.163746000000003
 20
193.7049529999999
 30
0.0
 40
1.117693
 50
221.17162400000001
 51
233.34667599999989
  0
ARC
  5
3DC
  8
0
 62
     7
 10
65.580126000000007
 20
194.23794499999991
 30
0.0
 40
1.79393
 50
232.83995699999991
 51
242.36287799999991
  0
ARC
  5
3DD
  8
0
 62
     7
 10
66.101236
 20
195.19378699999999
 30
0.0
 40
2.8824990000000001
 50
241.99980699999989
 51
250.47120799999999
  0
ARC
  5
3DE
  8
0
 62
     7
 10
66.691151000000005
 20
196.78080299999999
 30
0.0
 40
4.5754879999999991
 50
250.152254
 51
259.56761099999989
  0
ARC
  5
3DF
  8
0
 62
     7
 10
67.167694999999995
 20
199.053529
 30
0.0
 40
6.89717
 50
259.09300200000001
 51
270.46249399999988
  0
ARC
  5
3E0
  8
0
 62
     7
 10
67.222268999999983
 20
199.63877600000001
 30
0.0
 40
7.4821929999999988
 50
270.008419
 51
281.00397900000002
  0
ARC
  5
3E1
  8
0
 62
     7
 10
67.67060699999999
 20
197.08824299999989
 30
0.0
 40
4.8932000000000002
 50
281.55131399999988
 51
290.23079799999988
  0
ARC
  5
3E2
  8
0
 62
     7
 10
68.398353999999998
 20
195.05600499999991
 30
0.0
 40
2.734751999999999
 50
290.64778499999989
 51
302.80571800000001
  0
ARC
  5
3E3
  8
0
 62
     7
 10
69.150031999999996
 20
193.84344899999991
 30
0.0
 40
1.308571999999999
 50
303.90737799999988
 51
319.70161699999989
  0
ARC
  5
3E4
  8
0
 62
     7
 10
69.636617999999999
 20
193.4101179999999
 30
0.0
 40
0.6573850000000001
 50
321.07764600000002
 51
346.86422999999991
  0
ARC
  5
3E5
  8
0
 62
     7
 10
69.804779000000011
 20
193.3529739999999
 30
0.0
 40
0.480953
 50
348.94147400000003
 51
359.97066499999988
  0
ARC
  5
3E6
  8
0
 62
     7
 10
69.789849000000004
 20
193.35193000000001
 30
0.0
 40
0.4958840000000001
 50
0.092196
 51
25.371448999999991
  0
ARC
  5
3E7
  8
0
 62
     7
 10
69.602919999999983
 20
193.26974699999991
 30
0.0
 40
0.7000220000000001
 50
24.893469
 51
41.791365999999989
  0
ARC
  5
3E8
  8
0
 62
     7
 10
69.283874999999995
 20
193.0006939999999
 30
0.0
 40
1.1172610000000001
 50
41.175001999999999
 51
53.354435000000002
  0
ARC
  5
3E9
  8
0
 62
     7
 10
68.866068999999996
 20
192.4650419999999
 30
0.0
 40
1.7964770000000001
 50
52.859679000000007
 51
62.368542000000012
  0
ARC
  5
3EA
  8
0
 62
     7
 10
68.343950000000007
 20
191.50602499999991
 30
0.0
 40
2.8883229999999989
 50
62.015519999999988
 51
70.470147999999995
  0
ARC
  5
3EB
  8
0
 62
     7
 10
67.755306000000004
 20
189.91932199999991
 30
0.0
 40
4.5805850000000001
 50
70.165610000000001
 51
79.571617000000003
  0
ARC
  5
3EC
  8
0
 62
     7
 10
67.278891999999985
 20
187.6418239999999
 30
0.0
 40
6.9069279999999988
 50
79.104557999999997
 51
90.46059600000001
  0
ARC
  5
3ED
  8
0
 62
     7
 10
67.224475999999996
 20
187.0663539999999
 30
0.0
 40
7.4821749999999989
 50
90.008479999999992
 51
101.00138199999989
  0
ARC
  5
3EE
  8
0
 62
     7
 10
66.775297999999992
 20
189.61951599999989
 30
0.0
 40
4.8904339999999991
 50
101.543885
 51
110.2267239999999
  0
ARC
  5
3EF
  8
0
 62
     7
 10
66.047810999999996
 20
191.65079199999991
 30
0.0
 40
2.732975999999999
 50
110.638919
 51
122.803156
  0
ARC
  5
3F0
  8
0
 62
     7
 10
65.296099999999996
 20
192.862989
 30
0.0
 40
1.307072999999999
 50
123.89350399999999
 51
139.70353600000001
  0
ARC
  5
3F1
  8
0
 62
     7
 10
64.810890999999998
 20
193.295188
 30
0.0
 40
0.657669
 50
141.083369
 51
166.8566659999999
  0
ARC
  5
3F2
  8
0
 62
     7
 10
64.642472999999995
 20
193.35248200000001
 30
0.0
 40
0.480953
 50
168.94145399999999
 51
179.97064499999991
  0
ARC
  5
3F3
  8
0
 62
     7
 10
64.761448999999999
 20
193.30557999999991
 30
0.0
 40
0.372553
 50
180.16663799999989
 51
212.30307999999991
  0
ARC
  5
3F4
  8
0
 62
     7
 10
64.980935000000002
 20
193.4274659999999
 30
0.0
 40
0.623369
 50
210.991299
 51
227.66198799999989
  0
ARC
  5
3F5
  8
0
 62
     7
 10
65.315038999999999
 20
193.77220600000001
 30
0.0
 40
1.103315
 50
226.89440200000001
 51
239.07116600000001
  0
ARC
  5
3F6
  8
0
 62
     7
 10
65.797516000000002
 20
194.537372
 30
0.0
 40
2.007765
 50
238.4833659999999
 51
248.41037799999989
  0
ARC
  5
3F7
  8
0
 62
     7
 10
66.346395999999984
 20
195.83740800000001
 30
0.0
 40
3.4187080000000001
 50
247.87380300000001
 51
254.76400299999989
  0
ARC
  5
3F8
  8
0
 62
     7
 10
66.877053000000004
 20
197.70577399999999
 30
0.0
 40
5.360898999999999
 50
254.539492
 51
263.29223399999989
  0
ARC
  5
3F9
  8
0
 62
     7
 10
67.202168999999998
 20
199.9360209999999
 30
0.0
 40
7.6141110000000003
 50
262.82278400000001
 51
270.182862
  0
ARC
  5
3FA
  8
0
 62
     7
 10
67.226031999999989
 20
200.1839249999999
 30
0.0
 40
7.8619759999999994
 50
270.00318599999991
 51
279.00466499999987
  0
ARC
  5
3FB
  8
0
 62
     7
 10
67.610594999999989
 20
197.54172099999991
 30
0.0
 40
5.1922559999999987
 50
279.37676699999992
 51
287.92353500000002
  0
ARC
  5
3FC
  8
0
 62
     7
 10
68.282094999999984
 20
195.3636909999999
 30
0.0
 40
2.9134470000000001
 50
288.54051500000003
 51
296.01317999999992
  0
ARC
  5
3FD
  8
0
 62
     7
 10
68.829038999999995
 20
194.22553300000001
 30
0.0
 40
1.6507309999999999
 50
296.27823100000001
 51
306.59253999999987
  0
ARC
  5
3FE
  8
0
 62
     7
 10
69.285681999999994
 20
193.599041
 30
0.0
 40
0.8755360000000001
 50
307.03932099999992
 51
320.92941400000001
  0
ARC
  5
3FF
  8
0
 62
     7
 10
69.609738000000007
 20
193.330477
 30
0.0
 40
0.454699
 50
321.46621499999992
 51
356.72441099999992
  0
ARC
  5
400
  8
0
 62
     7
 10
69.69097099999999
 20
193.30341000000001
 30
0.0
 40
0.372725
 50
0.16695
 51
32.290768
  0
ARC
  5
401
  8
0
 62
     7
 10
69.471237999999985
 20
193.18134399999991
 30
0.0
 40
0.6238470000000002
 50
30.986805
 51
47.644590000000001
  0
ARC
  5
402
  8
0
 62
     7
 10
69.136476000000002
 20
192.83580799999999
 30
0.0
 40
1.1048249999999991
 50
46.888193999999999
 51
59.047803000000009
  0
ARC
  5
403
  8
0
 62
     7
 10
68.652439000000001
 20
192.06731999999991
 30
0.0
 40
2.0129280000000001
 50
58.482557999999997
 51
68.383356000000006
  0
ARC
  5
404
  8
0
 62
     7
 10
68.108823999999998
 20
190.780596
 30
0.0
 40
3.4095650000000002
 50
67.856358
 51
74.764258999999996
  0
ARC
  5
405
  8
0
 62
     7
 10
67.576032999999995
 20
188.9088669999999
 30
0.0
 40
5.3555659999999996
 50
74.526843999999997
 51
83.287577999999996
  0
ARC
  5
406
  8
0
 62
     7
 10
67.251443999999992
 20
186.690518
 30
0.0
 40
7.5969110000000004
 50
82.811899000000011
 51
90.188358999999977
  0
ARC
  5
407
  8
0
 62
     7
 10
67.226894000000001
 20
186.4298939999999
 30
0.0
 40
7.8574939999999991
 50
90.003095000000016
 51
99.010226000000003
  0
ARC
  5
408
  8
0
 62
     7
 10
66.843836999999994
 20
189.063096
 30
0.0
 40
5.1969050000000001
 50
99.385722999999999
 51
107.926267
  0
ARC
  5
409
  8
0
 62
     7
 10
66.168223999999995
 20
191.2520419999999
 30
0.0
 40
2.9064410000000001
 50
108.535967
 51
116.028335
  0
ARC
  5
40A
  8
0
 62
     7
 10
65.625567000000004
 20
192.38050899999999
 30
0.0
 40
1.6543169999999989
 50
116.2905269999999
 51
126.58463499999991
  0
ARC
  5
40B
  8
0
 62
     7
 10
65.166273000000004
 20
193.0107229999999
 30
0.0
 40
0.874553
 50
127.0308749999999
 51
140.94042799999991
  0
ARC
  5
40C
  8
0
 62
     7
 10
64.880352000000002
 20
193.25041499999989
 30
0.0
 40
0.501536
 50
141.62038899999999
 51
160.56150299999999
  0
ARC
  5
40D
  8
0
 62
     7
 10
64.75018
 20
193.303168
 30
0.0
 40
0.361285
 50
161.58048299999999
 51
179.7893
  0
ARC
  5
40E
  8
0
 62
     7
 10
67.226043999999973
 20
186.43073899999999
 30
0.0
 40
7.856649
 50
80.989268999999993
 51
89.996899999999997
  0
ARC
  5
40F
  8
0
 62
     7
 10
67.609180000000009
 20
189.06463999999991
 30
0.0
 40
5.1953579999999997
 50
72.071134999999998
 51
80.613069999999993
  0
ARC
  5
410
  8
0
 62
     7
 10
68.285190999999998
 20
191.25420299999999
 30
0.0
 40
2.904185
 50
63.965626999999998
 51
71.462641000000005
  0
ARC
  5
411
  8
0
 62
     7
 10
68.827466999999999
 20
192.38136600000001
 30
0.0
 40
1.653400999999999
 50
53.408324999999998
 51
63.706716999999998
  0
ARC
  5
412
  8
0
 62
     7
 10
69.286550000000005
 20
193.01107699999989
 30
0.0
 40
0.8741659999999999
 50
39.050278999999989
 51
52.964218000000002
  0
ARC
  5
413
  8
0
 62
     7
 10
69.609743999999992
 20
193.2785409999999
 30
0.0
 40
0.454692
 50
3.2723849999999999
 51
38.533793000000003
  0
ARC
  5
414
  8
0
 62
     7
 10
69.691050000000004
 20
193.30558099999999
 30
0.0
 40
0.372646
 50
327.705715
 51
359.83322299999998
  0
ARC
  5
415
  8
0
 62
     7
 10
69.471650999999994
 20
193.427403
 30
0.0
 40
0.6233560000000001
 50
312.34523999999999
 51
329.01471400000008
  0
ARC
  5
416
  8
0
 62
     7
 10
69.137867
 20
193.77167299999991
 30
0.0
 40
1.1027400000000001
 50
300.93291699999992
 51
313.11425099999991
  0
ARC
  5
417
  8
0
 62
     7
 10
68.655081999999993
 20
194.537249
 30
0.0
 40
2.0077020000000001
 50
291.59460999999988
 51
301.52041800000001
  0
ARC
  5
418
  8
0
 62
     7
 10
68.106611999999998
 20
195.83616299999991
 30
0.0
 40
3.4174530000000001
 50
285.23814900000002
 51
292.12985499999991
  0
ARC
  5
419
  8
0
 62
     7
 10
67.575846999999996
 20
197.70491000000001
 30
0.0
 40
5.3600409999999998
 50
276.70879699999989
 51
285.46198099999992
  0
ARC
  5
41A
  8
0
 62
     7
 10
67.250799999999998
 20
199.93480700000001
 30
0.0
 40
7.6128970000000002
 50
269.81688600000001
 51
277.17781600000001
  0
ARC
  5
41B
  8
0
 62
     7
 10
67.226905999999985
 20
200.1847699999999
 30
0.0
 40
7.8628210000000003
 50
260.99583999999999
 51
269.99681900000002
  0
ARC
  5
41C
  8
0
 62
     7
 10
66.842421999999985
 20
197.54326399999999
 30
0.0
 40
5.1938019999999989
 50
252.07906199999999
 51
260.624438
  0
ARC
  5
41D
  8
0
 62
     7
 10
66.171323999999998
 20
195.36586399999999
 30
0.0
 40
2.915713999999999
 50
243.99285599999999
 51
251.46087799999989
  0
ARC
  5
41E
  8
0
 62
     7
 10
65.623994999999994
 20
194.22638699999999
 30
0.0
 40
1.651645
 50
233.41449999999989
 51
243.724523
  0
ARC
  5
41F
  8
0
 62
     7
 10
65.167141999999998
 20
193.5993949999999
 30
0.0
 40
0.8759239999999998
 50
219.07987900000001
 51
232.96558499999989
  0
ARC
  5
420
  8
0
 62
     7
 10
64.880352000000002
 20
193.358599
 30
0.0
 40
0.501536
 50
199.4384969999999
 51
218.3796109999999
  0
ARC
  5
421
  8
0
 62
     7
 10
64.749781999999996
 20
193.305781
 30
0.0
 40
0.360887
 50
180.20402699999991
 51
198.42968400000001
  0
ARC
  5
422
  8
0
 62
     7
 10
64.761527999999998
 20
193.30341100000001
 30
0.0
 40
0.372632
 50
147.70043799999991
 51
179.83318899999989
  0
ARC
  5
423
  8
0
 62
     7
 10
64.981347999999997
 20
193.18128100000001
 30
0.0
 40
0.623861
 50
132.34818200000001
 51
149.007182
  0
ARC
  5
424
  8
0
 62
     7
 10
65.316430000000011
 20
192.835274
 30
0.0
 40
1.1054019999999991
 50
120.94811300000001
 51
133.10315199999999
  0
ARC
  5
425
  8
0
 62
     7
 10
65.800158999999994
 20
192.06719699999991
 30
0.0
 40
2.0129909999999991
 50
111.6116539999999
 51
121.513659
  0
ARC
  5
426
  8
0
 62
     7
 10
66.344183999999998
 20
190.77935500000001
 30
0.0
 40
3.4108169999999989
 50
105.23358899999999
 51
112.139982
  0
ARC
  5
427
  8
0
 62
     7
 10
66.876866000000007
 20
188.90800399999989
 30
0.0
 40
5.3564239999999987
 50
96.711390000000009
 51
105.471682
  0
ARC
  5
428
  8
0
 62
     7
 10
67.201523999999992
 20
186.68930700000001
 30
0.0
 40
7.598122
 50
89.811893000000026
 51
97.1875
  0
LINE
  5
429
  8
0
 62
     7
 10
128.696
 20
151.06700000000001
 30
0.0
 11
128.696
 21
145.89500000000001
 31
0.0
  0
LINE
  5
42A
  8
0
 62
     7
 10
131.54099999999991
 20
151.06700000000001
 30
0.0
 11
131.54099999999991
 21
145.89500000000001
 31
0.0
  0
LINE
  5
42B
  8
0
 62
     7
 10
135.45899999999989
 20
159.19799999999989
 30
0.0
 11
137.67099999999991
 21
159.79099999999991
 31
0.0
  0
LINE
  5
42C
  8
0
 62
     7
 10
137.67099999999991
 20
159.79099999999991
 30
0.0
 11
135.45899999999989
 21
160.3829999999999
 31
0.0
  0
LINE
  5
42D
  8
0
 62
     7
 10
135.45899999999989
 20
160.3829999999999
 30
0.0
 11
135.45899999999989
 21
159.19799999999989
 31
0.0
  0
LINE
  5
42E
  8
0
 62
     7
 10
127.88200000000001
 20
160.369
 30
0.0
 11
125.67
 21
159.77600000000001
 31
0.0
  0
LINE
  5
42F
  8
0
 62
     7
 10
125.67
 20
159.77600000000001
 30
0.0
 11
127.88200000000001
 21
159.18399999999991
 31
0.0
  0
LINE
  5
430
  8
0
 62
     7
 10
127.88200000000001
 20
159.18399999999991
 30
0.0
 11
127.88200000000001
 21
160.369
 31
0.0
  0
LINE
  5
431
  8
0
 62
     7
 10
142.52899999999991
 20
159.77600000000001
 30
0.0
 11
125.67
 21
159.77600000000001
 31
0.0
  0
LINE
  5
432
  8
0
  6
AIGENLINE002
 62
     7
 10
131.04299999999989
 20
209.00899999999999
 30
0.0
 11
136.08299999999991
 21
219.81599999999989
 31
0.0
  0
LINE
  5
433
  8
0
  6
AIGENLINE002
 62
     7
 10
115.642
 20
223.505
 30
0.0
 11
130.71299999999991
 21
216.477
 31
0.0
  0
LINE
  5
434
  8
0
 62
     7
 10
101.627
 20
191.38399999999999
 30
0.0
 11
96.903899999999993
 21
181.25499999999991
 31
0.0
  0
LINE
  5
435
  8
0
 62
     7
 10
137.6699999999999
 20
160.47599999999991
 30
0.0
 11
137.6699999999999
 21
153.15199999999999
 31
0.0
  0
LINE
  5
436
  8
0
 62
     7
 10
125.67
 20
160.47599999999991
 30
0.0
 11
125.67
 21
153.15199999999999
 31
0.0
  0
LINE
  5
437
  8
0
 62
     7
 10
102.5449999999999
 20
192.39400000000001
 30
0.0
 11
102.5449999999999
 21
179.97799999999989
 31
0.0
  0
LINE
  5
438
  8
0
  6
AIGENLINE001
 62
     7
 10
54.367600000000003
 20
249.10299999999989
 30
0.0
 11
52.831699999999998
 21
250.6399999999999
 31
0.0
  0
ARC
  5
439
  8
0
  6
AIGENLINE001
 62
     7
 10
52.989589000000002
 20
250.785933
 30
0.0
 40
0.21507
 50
137.219854
 51
222.780146
  0
ARC
  5
43A
  8
0
  6
AIGENLINE001
 62
     7
 10
54.513984999999991
 20
249.26237
 30
0.0
 40
0.216169
 50
227.36487999999991
 51
312.63513999999992
  0
LINE
  5
43B
  8
0
  6
AIGENLINE001
 62
     7
 10
64.126599999999996
 20
258.56900000000002
 30
0.0
 11
54.660400000000003
 21
249.10299999999989
 31
0.0
  0
LINE
  5
43C
  8
0
  6
AIGENLINE001
 62
     7
 10
52.831699999999998
 20
250.93199999999999
 30
0.0
 11
62.297899999999998
 21
260.39799999999991
 31
0.0
  0
LINE
  5
43D
  8
0
  6
AIGENLINE001
 62
     7
 10
81.615700000000004
 20
250.6399999999999
 30
0.0
 11
80.079499999999996
 21
249.10299999999989
 31
0.0
  0
ARC
  5
43E
  8
0
  6
AIGENLINE001
 62
     7
 10
79.933266000000003
 20
249.26140399999991
 30
0.0
 40
0.215343
 50
227.22454099999999
 51
312.77547900000002
  0
ARC
  5
43F
  8
0
  6
AIGENLINE001
 62
     7
 10
81.459766999999999
 20
250.785933
 30
0.0
 40
0.213656
 50
316.86792700000001
 51
43.132072999999998
  0
LINE
  5
440
  8
0
  6
AIGENLINE001
 62
     7
 10
72.149900000000002
 20
260.39799999999991
 30
0.0
 11
81.615700000000004
 21
250.93199999999999
 31
0.0
  0
LINE
  5
441
  8
0
  6
AIGENLINE001
 62
     7
 10
79.786999999999992
 20
249.10299999999989
 30
0.0
 11
70.321200000000005
 21
258.56900000000002
 31
0.0
  0
LINE
  5
442
  8
0
  6
AIGENLINE002
 62
     7
 10
128.626
 20
215.499
 30
0.0
 11
111.38200000000001
 21
215.499
 31
0.0
  0
LINE
  5
443
  8
0
  6
AIGENLINE002
 62
     7
 10
104.831
 20
198.25599999999989
 30
0.0
 11
101.96899999999989
 21
192.11699999999999
 31
0.0
  0
LINE
  5
444
  8
0
  6
AIGENLINE002
 62
     7
 10
52.871000000000002
 20
249.143
 30
0.0
 11
63.80510000000001
 21
260.077
 31
0.0
  0
LINE
  5
445
  8
0
  6
AIGENLINE002
 62
     7
 10
139.417
 20
263.49599999999992
 30
0.0
 11
123.9229999999999
 21
263.49599999999992
 31
0.0
  0
LINE
  5
446
  8
0
  6
AIGENLINE002
 62
     7
 10
143.1879999999999
 20
190.38
 30
0.0
 11
135.07900000000001
 21
190.38
 31
0.0
  0
LINE
  5
447
  8
0
  6
AIGENLINE002
 62
     7
 10
131.6699999999999
 20
256.08299999999991
 30
0.0
 11
131.6699999999999
 21
270.97500000000002
 31
0.0
  0
LINE
  5
448
  8
0
  6
AIGENLINE002
 62
     7
 10
131.6699999999999
 20
142.1109999999999
 30
0.0
 11
131.6699999999999
 21
222.40000000000001
 31
0.0
  0
LINE
  5
449
  8
0
  6
AIGENLINE002
 62
     7
 10
70.436999999999998
 20
260.28199999999993
 30
0.0
 11
81.569900000000004
 21
249.15000000000001
 31
0.0
  0
LINE
  5
44A
  8
0
  6
AIGENLINE002
 62
     7
 10
131.6699999999999
 20
205.453
 30
0.0
 11
101.21299999999989
 21
194.904
 31
0.0
  0
LINE
  5
44B
  8
0
  6
AIGENLINE002
 62
     7
 10
133.739
 20
135.9499999999999
 30
0.0
 11
133.739
 21
155.02699999999999
 31
0.0
  0
LINE
  5
44C
  8
0
  6
AIGENLINE002
 62
     7
 10
135.0329999999999
 20
155.21100000000001
 30
0.0
 11
135.0329999999999
 21
90.426400000000001
 31
0.0
  0
TEXT
  5
44D
  8
_________2
 62
     7
 10
44.364200333333329
 20
35.122599999999991
 30
0.0
 40
3.6545800000000002
  1
早川
 41
0.5
 72
     1
 11
46.252400000000002
 21
35.122599999999991
 31
0.0
  0
TEXT
  5
44E
  8
_________2
 62
     7
 10
25.729090666666661
 20
35.122599999999991
 30
0.0
 40
3.6545800000000002
  1
石原
 41
0.5
 72
     1
 11
27.6782
 21
35.122599999999991
 31
0.0
  0
LINE
  5
44F
  8
_________2
 62
     7
 10
210.24000000000001
 20
148.93100000000001
 30
0.0
 11
188.49000000000001
 21
148.93100000000001
 31
0.0
  0
LINE
  5
450
  8
_________2
 62
     7
 10
105.2389999999999
 20
17.428499999999989
 30
0.0
 11
105.2389999999999
 21
0.4482100000000001
 31
0.0
  0
LINE
  5
451
  8
_________2
 62
     7
 10
105.2389999999999
 20
297.44999999999987
 30
0.0
 11
105.2389999999999
 21
280.42999999999989
 31
0.0
  0
LINE
  5
452
  8
_________2
 62
     7
 10
21.988499999999991
 20
148.93100000000001
 30
0.0
 11
0.238058
 21
148.93100000000001
 31
0.0
  0
LINE
  5
453
  8
_________2
 62
     7
 10
81.679900000000004
 20
51.324300000000001
 30
0.0
 11
79.493700000000004
 21
51.324300000000001
 31
0.0
  0
LINE
  5
454
  8
_________2
 62
     7
 10
82.172600000000017
 20
51.324300000000001
 30
0.0
 11
81.920400000000001
 21
51.324300000000001
 31
0.0
  0
LINE
  5
455
  8
_________2
 62
     7
 10
82.665199999999984
 20
51.324300000000001
 30
0.0
 11
85.590100000000007
 21
51.324300000000001
 31
0.0
  0
LINE
  5
456
  8
_________2
 62
     7
 10
82.172600000000017
 20
51.324300000000001
 30
0.0
 11
82.424800000000005
 21
51.324300000000001
 31
0.0
  0
LINE
  5
457
  8
_________2
 62
     7
 10
75.776399999999995
 20
51.324300000000001
 30
0.0
 11
73.589399999999998
 21
51.324300000000001
 31
0.0
  0
LINE
  5
458
  8
_________2
 62
     7
 10
76.2684
 20
51.324300000000001
 30
0.0
 11
76.016900000000007
 21
51.324300000000001
 31
0.0
  0
LINE
  5
459
  8
_________2
 62
     7
 10
76.2684
 20
51.817
 30
0.0
 11
76.2684
 21
54.003900000000002
 31
0.0
  0
LINE
  5
45A
  8
_________2
 62
     7
 10
76.2684
 20
51.324300000000001
 30
0.0
 11
76.2684
 21
51.576500000000003
 31
0.0
  0
LINE
  5
45B
  8
_________2
 62
     7
 10
76.76100000000001
 20
51.324300000000001
 30
0.0
 11
78.947999999999993
 21
51.324300000000001
 31
0.0
  0
LINE
  5
45C
  8
_________2
 62
     7
 10
76.2684
 20
51.324300000000001
 30
0.0
 11
76.520499999999998
 21
51.324300000000001
 31
0.0
  0
LINE
  5
45D
  8
_________2
 62
     7
 10
76.2684
 20
50.832399999999993
 30
0.0
 11
76.2684
 21
48.645400000000002
 31
0.0
  0
LINE
  5
45E
  8
_________2
 62
     7
 10
76.2684
 20
51.324300000000001
 30
0.0
 11
76.2684
 21
51.072800000000001
 31
0.0
  0
LINE
  5
45F
  8
_________2
 62
     7
 10
79.979399999999984
 20
50.104799999999997
 30
0.0
 11
85.157399999999996
 21
49.240000000000002
 31
0.0
  0
LINE
  5
460
  8
_________2
 62
     7
 10
79.979399999999984
 20
52.543900000000001
 30
0.0
 11
85.157399999999996
 21
53.409300000000002
 31
0.0
  0
LINE
  5
461
  8
_________2
 62
     7
 10
85.157399999999996
 20
49.240000000000002
 30
0.0
 11
85.157399999999996
 21
53.409300000000002
 31
0.0
  0
LINE
  5
462
  8
_________2
 62
     7
 10
79.979399999999984
 20
50.104799999999997
 30
0.0
 11
79.979399999999984
 21
52.543900000000001
 31
0.0
  0
ARC
  5
463
  8
_________2
 62
     7
 10
76.222110000000001
 20
51.277366999999991
 30
0.0
 40
1.2673709999999989
 50
2.1232950000000002
 51
87.909056000000007
  0
ARC
  5
464
  8
_________2
 62
     7
 10
76.315273000000005
 20
51.277400999999998
 30
0.0
 40
1.267363
 50
92.121785999999986
 51
177.878185
  0
ARC
  5
465
  8
_________2
 62
     7
 10
76.315273000000005
 20
51.371245999999992
 30
0.0
 40
1.267363
 50
182.12181499999991
 51
267.87821400000001
  0
ARC
  5
466
  8
_________2
 62
     7
 10
76.221461000000005
 20
51.371928999999987
 30
0.0
 40
1.2680439999999991
 50
272.11916400000001
 51
357.84848499999993
  0
ARC
  5
467
  8
_________2
 62
     7
 10
76.268349999999984
 20
51.324323
 30
0.0
 40
2.0849849999999992
 50
0.00001
 51
89.999980000000008
  0
ARC
  5
468
  8
_________2
 62
     7
 10
76.348388
 20
51.245001999999992
 30
0.0
 40
2.1657860000000002
 50
92.117855000000034
 51
177.90105299999991
  0
ARC
  5
469
  8
_________2
 62
     7
 10
76.348354
 20
51.404327000000002
 30
0.0
 40
2.1657779999999991
 50
182.11700400000001
 51
267.88302499999992
  0
ARC
  5
46A
  8
_________2
 62
     7
 10
76.188378999999983
 20
51.405009999999997
 30
0.0
 40
2.1664590000000001
 50
272.11546800000002
 51
357.86560400000002
  0
TEXT
  5
46B
  8
_________2
 62
     7
 10
109.5439999999999
 20
23.199100000000001
 30
0.0
 40
3.0923400000000001
  1
図番
 41
0.5
  0
LINE
  5
46C
  8
_________2
 62
     7
 10
108.4889999999999
 20
27.4283
 30
0.0
 11
188.49000000000001
 21
27.4283
 31
0.0
  0
TEXT
  5
46D
  8
_________2
 62
     7
 10
109.5439999999999
 20
33.198900000000002
 30
0.0
 40
3.0923400000000001
  1
品番
 41
0.5
  0
TEXT
  5
46E
  8
_________2
 62
     7
 10
109.5439999999999
 20
53.337699999999998
 30
0.0
 40
3.0923400000000001
  1
名称
 41
0.5
  0
TEXT
  5
46F
  8
_________2
 62
     7
 10
96.784058333333334
 20
48.341500000000011
 30
0.0
 40
3.6545800000000002
  1
mm
 41
0.5
 72
     1
 11
98.306799999999996
 21
48.341500000000011
 31
0.0
  0
TEXT
  5
470
  8
_________2
 62
     7
 10
90.582099999999997
 20
53.337699999999998
 30
0.0
 40
3.0923400000000001
  1
単位
 41
0.5
  0
TEXT
  5
471
  8
_________2
 62
     7
 10
90.582099999999997
 20
40.930399999999999
 30
0.0
 40
3.0923400000000001
  1
尺度
 41
0.5
  0
TEXT
  5
472
  8
_________2
 62
     7
 10
95.487658666666675
 20
34.73749999999999
 30
0.0
 40
3.6545800000000002
  1
1 ： 4
 41
0.5
 72
     1
 11
98.898600000000002
 21
34.73749999999999
 31
0.0
  0
TEXT
  5
473
  8
_________2
 62
     7
 10
141.43753749999991
 20
30.627400000000002
 30
0.0
 40
3.9357000000000002
  1
CET2120R
 41
0.5
 72
     1
 11
148.489
 21
30.627400000000002
 31
0.0
  0
TEXT
  5
474
  8
_________2
 62
     7
 10
141.43753749999991
 20
20.626999999999988
 30
0.0
 40
3.9357000000000002
  1
CET2120R
 41
0.5
 72
     1
 11
148.489
 21
20.626999999999988
 31
0.0
  0
TEXT
  5
475
  8
_________2
 62
     7
 10
29.525700000000001
 20
22.226900000000001
 30
0.0
 40
3.9357000000000002
  1
（JIS）
 41
0.5
  0
TEXT
  5
476
  8
_________2
 62
     7
 10
114.11799999999999
 20
46.242100000000001
 30
0.0
 40
3.9357000000000002
  1
湯水混合水栓
 41
0.5
  0
TEXT
  5
477
  8
_________2
 62
     7
 10
72.724699999999999
 20
34.73749999999999
 30
0.0
 40
3.6545800000000002
  1
14.01.10
 41
0.5
  0
TEXT
  5
478
  8
_________2
 62
     7
 10
71.531999999999996
 20
40.930399999999999
 30
0.0
 40
3.0923400000000001
  1
日付
 41
0.5
  0
TEXT
  5
479
  8
_________2
 62
     7
 10
34.578299999999992
 20
40.930399999999999
 30
0.0
 40
3.0923400000000001
  1
検図
 41
0.5
  0
TEXT
  5
47A
  8
_________2
 62
     7
 10
22.960000000000001
 20
26.730999999999991
 30
0.0
 40
3.0923400000000001
  1
備考
 41
0.5
  0
TEXT
  5
47B
  8
_________2
 62
     7
 10
22.960000000000001
 20
40.930399999999999
 30
0.0
 40
3.0923400000000001
  1
製図
 41
0.5
  0
TEXT
  5
47C
  8
_________2
 62
     7
 10
28.727365333333339
 20
49.456400000000002
 30
0.0
 40
4.4979399999999989
  1
セラトレーディング株式会社
 41
0.5
 72
     1
 11
46.119399999999992
 21
49.456400000000002
 31
0.0
  0
LINE
  5
47D
  8
_________2
 62
     7
 10
188.49000000000001
 20
17.428499999999989
 30
0.0
 11
21.988499999999991
 21
17.428499999999989
 31
0.0
  0
LINE
  5
47E
  8
_________2
 62
     7
 10
21.988499999999991
 20
17.428499999999989
 30
0.0
 11
21.988499999999991
 21
280.42999999999989
 31
0.0
  0
LINE
  5
47F
  8
_________2
 62
     7
 10
21.988499999999991
 20
280.42999999999989
 30
0.0
 11
188.49000000000001
 21
280.42999999999989
 31
0.0
  0
LINE
  5
480
  8
_________2
 62
     7
 10
188.49000000000001
 20
280.42999999999989
 30
0.0
 11
188.49000000000001
 21
17.428499999999989
 31
0.0
  0
LINE
  5
481
  8
_________2
 62
     7
 10
70.488799999999998
 20
30.9285
 30
0.0
 11
70.488799999999998
 21
57.428400000000011
 31
0.0
  0
LINE
  5
482
  8
_________2
 62
     7
 10
89.488600000000005
 20
30.9285
 30
0.0
 11
89.488600000000005
 21
57.428400000000011
 31
0.0
  0
LINE
  5
483
  8
_________2
 62
     7
 10
108.4889999999999
 20
17.428499999999989
 30
0.0
 11
108.4889999999999
 21
57.428400000000011
 31
0.0
  0
LINE
  5
484
  8
_________2
 62
     7
 10
33.488300000000002
 20
30.9285
 30
0.0
 11
33.488300000000002
 21
44.928800000000003
 31
0.0
  0
LINE
  5
485
  8
_________2
 62
     7
 10
21.988499999999991
 20
30.9285
 30
0.0
 11
108.4889999999999
 21
30.9285
 31
0.0
  0
LINE
  5
486
  8
_________2
 62
     7
 10
21.988499999999991
 20
44.928800000000003
 30
0.0
 11
108.4889999999999
 21
44.928800000000003
 31
0.0
  0
LINE
  5
487
  8
_________2
 62
     7
 10
108.4889999999999
 20
37.428100000000001
 30
0.0
 11
188.49000000000001
 21
37.428100000000001
 31
0.0
  0
LINE
  5
488
  8
_________2
 62
     7
 10
21.988499999999991
 20
57.428400000000011
 30
0.0
 11
188.49000000000001
 21
57.428400000000011
 31
0.0
  0
ENDSEC
  0
EOF
