  0
SECTION
  2
HEADER
  9
$ACADVER
  1
AC1009
  9
$INSBASE
 10
0.0
 20
0.0
 30
0.0
  9
$EXTMIN
 10
-4.70052
 20
-21.071400000000001
 30
0.0
  9
$EXTMAX
 10
205.30099999999999
 20
275.93099999999993
 30
0.0
  9
$LIMMIN
 10
0.0
 20
0.0
  9
$LIMMAX
 10
12.0
 20
9.0
  9
$ORTHOMODE
 70
     0
  9
$REGENMODE
 70
     1
  9
$FILLMODE
 70
     1
  9
$QTEXTMODE
 70
     0
  9
$MIRRTEXT
 70
     1
  9
$DRAGMODE
 70
     2
  9
$LTSCALE
 40
1.0
  9
$OSMODE
 70
    37
  9
$ATTMODE
 70
     1
  9
$TEXTSIZE
 40
0.0
  9
$TRACEWID
 40
0.05
  9
$TEXTSTYLE
  7
STANDARD
  9
$CLAYER
  8
0
  9
$CELTYPE
  6
CONTINUOUS
  9
$CECOLOR
 62
   256
  9
$DIMSCALE
 40
1.0
  9
$DIMASZ
 40
0.18
  9
$DIMEXO
 40
0.0625
  9
$DIMDLI
 40
0.38
  9
$DIMRND
 40
0.0
  9
$DIMDLE
 40
0.0
  9
$DIMEXE
 40
0.18
  9
$DIMTP
 40
0.0
  9
$DIMTM
 40
0.0
  9
$DIMTXT
 40
0.18
  9
$DIMCEN
 40
0.09
  9
$DIMTSZ
 40
0.0
  9
$DIMTOL
 70
     0
  9
$DIMLIM
 70
     0
  9
$DIMTIH
 70
     1
  9
$DIMTOH
 70
     1
  9
$DIMSE1
 70
     0
  9
$DIMSE2
 70
     0
  9
$DIMTAD
 70
     0
  9
$DIMZIN
 70
     0
  9
$DIMBLK
  1

  9
$DIMASO
 70
     1
  9
$DIMSHO
 70
     1
  9
$DIMPOST
  1

  9
$DIMAPOST
  1

  9
$DIMALT
 70
     0
  9
$DIMALTD
 70
     2
  9
$DIMALTF
 40
25.399999999999999
  9
$DIMLFAC
 40
1.0
  9
$DIMTOFL
 70
     0
  9
$DIMTVP
 40
0.0
  9
$DIMTIX
 70
     0
  9
$DIMSOXD
 70
     0
  9
$DIMSAH
 70
     0
  9
$DIMBLK1
  1

  9
$DIMBLK2
  1

  9
$DIMSTYLE
  2
STANDARD
  9
$DIMCLRD
 70
     0
  9
$DIMCLRE
 70
     0
  9
$DIMCLRT
 70
     0
  9
$DIMTFAC
 40
1.0
  9
$DIMGAP
 40
0.09
  9
$LUNITS
 70
     2
  9
$LUPREC
 70
     4
  9
$SKETCHINC
 40
0.1
  9
$FILLETRAD
 40
0.0
  9
$AUNITS
 70
     0
  9
$AUPREC
 70
     0
  9
$MENU
  1
.
  9
$ELEVATION
 40
0.0
  9
$PELEVATION
 40
0.0
  9
$THICKNESS
 40
0.0
  9
$LIMCHECK
 70
     0
  9
$BLIPMODE
 70
     0
  9
$CHAMFERA
 40
0.0
  9
$CHAMFERB
 40
0.0
  9
$SKPOLY
 70
     0
  9
$TDCREATE
 40
2444972.375
  9
$TDUPDATE
 40
2456575.2479403699
  9
$TDINDWG
 40
0.0000070486
  9
$TDUSRTIMER
 40
0.0000070486
  9
$USRTIMER
 70
     1
  9
$ANGBASE
 50
0.0
  9
$ANGDIR
 70
     0
  9
$PDMODE
 70
     0
  9
$PDSIZE
 40
0.0
  9
$PLINEWID
 40
0.0
  9
$COORDS
 70
     1
  9
$SPLFRAME
 70
     0
  9
$SPLINETYPE
 70
     6
  9
$SPLINESEGS
 70
     8
  9
$ATTDIA
 70
     0
  9
$ATTREQ
 70
     1
  9
$HANDLING
 70
     1
  9
$HANDSEED
  5
1E9
  9
$SURFTAB1
 70
     6
  9
$SURFTAB2
 70
     6
  9
$SURFTYPE
 70
     6
  9
$SURFU
 70
     6
  9
$SURFV
 70
     6
  9
$UCSNAME
  2

  9
$UCSORG
 10
0.0
 20
0.0
 30
0.0
  9
$UCSXDIR
 10
1.0
 20
0.0
 30
0.0
  9
$UCSYDIR
 10
0.0
 20
1.0
 30
0.0
  9
$PUCSNAME
  2

  9
$PUCSORG
 10
0.0
 20
0.0
 30
0.0
  9
$PUCSXDIR
 10
1.0
 20
0.0
 30
0.0
  9
$PUCSYDIR
 10
0.0
 20
1.0
 30
0.0
  9
$USERI1
 70
     0
  9
$USERI2
 70
     0
  9
$USERI3
 70
     0
  9
$USERI4
 70
     0
  9
$USERI5
 70
     0
  9
$USERR1
 40
0.0
  9
$USERR2
 40
0.0
  9
$USERR3
 40
0.0
  9
$USERR4
 40
0.0
  9
$USERR5
 40
0.0
  9
$WORLDVIEW
 70
     1
  9
$SHADEDGE
 70
     3
  9
$SHADEDIF
 70
    70
  9
$TILEMODE
 70
     1
  9
$MAXACTVP
 70
    48
  9
$PLIMCHECK
 70
     0
  9
$PEXTMIN
 10
1.0000000000000000E+020
 20
1.0000000000000000E+020
 30
1.0000000000000000E+020
  9
$PEXTMAX
 10
-1.0000000000000000E+020
 20
-1.0000000000000000E+020
 30
-1.0000000000000000E+020
  9
$PLIMMIN
 10
0.0
 20
0.0
  9
$PLIMMAX
 10
12.0
 20
9.0
  9
$UNITMODE
 70
     0
  9
$VISRETAIN
 70
     1
  9
$PLINEGEN
 70
     0
  9
$PSLTSCALE
 70
     1
  0
ENDSEC
  0
SECTION
  2
TABLES
  0
TABLE
  2
VPORT
 70
     2
  0
VPORT
  2
*ACTIVE
 70
     0
 10
0.0
 20
0.0
 11
1.0
 21
1.0
 12
202.00678374696719
 22
127.4298
 13
0.0
 23
0.0
 14
1.0
 24
1.0
 15
0.0
 25
0.0
 16
0.0
 26
0.0
 36
1.0
 17
0.0
 27
0.0
 37
0.0
 40
299.45358899587342
 41
2.2894736842105261
 42
50.0
 43
0.0
 44
0.0
 50
0.0
 51
0.0
 71
     0
 72
   100
 73
     1
 74
     1
 75
     0
 76
     0
 77
     0
 78
     0
  0
ENDTAB
  0
TABLE
  2
LTYPE
 70
     3
  0
LTYPE
  2
CONTINUOUS
 70
     0
  3
Solid line
 72
    65
 73
     0
 40
0.0
  0
LTYPE
  2
AIGENLINE001
 70
     0
  3
generate AI->DXF Converter
 72
    65
 73
     4
 40
5.3799970000000004
 49
3.5278
 49
-0.776115
 49
0.776115
 49
-0.299967
  0
LTYPE
  2
AIGENLINE002
 70
     0
  3
generate AI->DXF Converter
 72
    65
 73
     4
 40
5.8561449999999988
 49
3.5278
 49
-0.776115
 49
0.776115
 49
-0.776115
  0
ENDTAB
  0
TABLE
  2
LAYER
 70
     2
  0
LAYER
  2
0
 70
     0
 62
     7
  6
CONTINUOUS
  0
LAYER
  2
_________2
 70
     0
 62
     7
  6
CONTINUOUS
  0
ENDTAB
  0
TABLE
  2
STYLE
 70
     1
  0
STYLE
  2
STANDARD
 70
     0
 40
0.0
 41
0.0
 50
0.0
 71
     0
 42
0.0
  3
TXT
  4
EXTFONT.SHX
  0
ENDTAB
  0
TABLE
  2
VIEW
 70
     0
  0
ENDTAB
  0
TABLE
  2
UCS
 70
     0
  0
ENDTAB
  0
TABLE
  2
APPID
 70
     1
  0
APPID
  2
ACAD
 70
     0
  0
ENDTAB
  0
TABLE
  2
DIMSTYLE
 70
     1
  0
DIMSTYLE
  2
STANDARD
 70
     0
  3

  4

  5

  6

  7

 40
1.0
 41
0.18
 42
0.0625
 43
0.38
 44
0.18
 45
0.0
 46
0.0
 47
0.0
 48
0.0
140
0.18
141
0.09
142
0.0
143
25.399999999999999
144
1.0
145
0.0
146
1.0
147
0.09
 71
     0
 72
     0
 73
     1
 74
     1
 75
     0
 76
     0
 77
     0
 78
     0
170
     0
171
     2
172
     0
173
     0
174
     0
175
     0
176
     0
177
     0
178
     0
  0
ENDTAB
  0
ENDSEC
  0
SECTION
  2
BLOCKS
  0
BLOCK
  8
0
  2
$MODEL_SPACE
 70
     0
 10
0.0
 20
0.0
 30
0.0
  3
$MODEL_SPACE
  1

  0
ENDBLK
  5
1A
  8
0
  0
BLOCK
 67
     1
  8
0
  2
$PAPER_SPACE
 70
     0
 10
0.0
 20
0.0
 30
0.0
  3
$PAPER_SPACE
  1

  0
ENDBLK
  5
17
 67
     1
  8
0
  0
ENDSEC
  0
SECTION
  2
ENTITIES
  0
TEXT
  5
23
  8
0
 62
     7
 10
98.601439999999997
 20
128.584
 30
0.0
 40
3.0923400000000001
  1
%%c72
 41
0.5
 72
     1
 11
100.6629999999999
 21
128.584
 31
0.0
  0
TEXT
  5
24
  8
0
 62
     7
 10
150.65899999999991
 20
96.954850000000008
 30
0.0
 40
3.0923400000000001
  1
%%c5
 50
90.0
 41
0.5
 72
     2
 11
150.65899999999991
 21
99.531800000000004
 31
0.0
  0
TEXT
  5
25
  8
0
 62
     7
 10
86.431599999999989
 20
94.671819999999997
 30
0.0
 40
3.0923400000000001
  1
41
 50
90.0
 41
0.5
 72
     1
 11
86.431599999999989
 21
95.702600000000004
 31
0.0
  0
TEXT
  5
26
  8
0
 62
     7
 10
134.21498249999991
 20
77.477900000000005
 30
0.0
 40
3.0923400000000001
  1
210
 41
0.5
 72
     1
 11
135.8899999999999
 21
77.477900000000005
 31
0.0
  0
TEXT
  5
27
  8
0
 62
     7
 10
97.332808999999997
 20
70.222499999999997
 30
0.0
 40
3.0923400000000001
  1
G1 1/4
 41
0.5
 72
     1
 11
100.889
 21
70.222499999999997
 31
0.0
  0
TEXT
  5
28
  8
0
 62
     7
 10
117.5929999999999
 20
103.57287649999989
 30
0.0
 40
3.0923400000000001
  1
max.50 
 50
90.0
 41
0.5
 72
     1
 11
117.5929999999999
 21
108.03100000000001
 31
0.0
  0
ARC
  5
29
  8
0
 62
     7
 10
66.045137999999994
 20
99.152540999999999
 30
0.0
 40
2.6851250000000002
 50
90.0
 51
179.99996999999991
  0
ARC
  5
2A
  8
0
 62
     7
 10
46.045025000000003
 20
99.152540999999999
 30
0.0
 40
2.6851250000000002
 50
0.00001
 51
89.999980000000008
  0
LINE
  5
2B
  8
0
 62
     7
 10
49.261600000000001
 20
105.702
 30
0.0
 11
62.828800000000001
 21
105.702
 31
0.0
  0
LINE
  5
2C
  8
0
 62
     7
 10
46.045000000000002
 20
102.3689999999999
 30
0.0
 11
66.045100000000005
 21
102.3689999999999
 31
0.0
  0
LINE
  5
2D
  8
0
 62
     7
 10
46.045000000000002
 20
101.83799999999999
 30
0.0
 11
66.045100000000005
 21
101.83799999999999
 31
0.0
  0
LINE
  5
2E
  8
0
 62
     7
 10
66.045100000000005
 20
102.3689999999999
 30
0.0
 11
62.828800000000001
 21
105.702
 31
0.0
  0
LINE
  5
2F
  8
0
 62
     7
 10
49.261600000000001
 20
105.702
 30
0.0
 11
46.045000000000002
 21
102.3689999999999
 31
0.0
  0
LINE
  5
30
  8
0
 62
     7
 10
46.045000000000002
 20
102.3689999999999
 30
0.0
 11
46.045000000000002
 21
101.83799999999999
 31
0.0
  0
LINE
  5
31
  8
0
 62
     7
 10
66.045100000000005
 20
102.3689999999999
 30
0.0
 11
66.045100000000005
 21
101.83799999999999
 31
0.0
  0
LINE
  5
32
  8
0
 62
     7
 10
65.837400000000002
 20
101.83799999999999
 30
0.0
 11
65.365399999999994
 21
101.83799999999999
 31
0.0
  0
LINE
  5
33
  8
0
 62
     7
 10
46.193499999999993
 20
101.83799999999999
 30
0.0
 11
46.665100000000002
 21
101.83799999999999
 31
0.0
  0
LINE
  5
34
  8
0
 62
     7
 10
63.359999999999999
 20
99.152500000000003
 30
0.0
 11
63.359999999999999
 21
88.702100000000002
 31
0.0
  0
LINE
  5
35
  8
0
 62
     7
 10
63.359999999999999
 20
88.702100000000002
 30
0.0
 11
48.729799999999997
 21
88.702100000000002
 31
0.0
  0
LINE
  5
36
  8
0
 62
     7
 10
48.729799999999997
 20
88.702100000000002
 30
0.0
 11
48.729799999999997
 21
99.152500000000003
 31
0.0
  0
ARC
  5
37
  8
0
 62
     7
 10
110.88936799999991
 20
99.152540999999999
 30
0.0
 40
2.6851250000000002
 50
90.0
 51
179.99996999999991
  0
ARC
  5
38
  8
0
 62
     7
 10
90.889255000000006
 20
99.152540999999999
 30
0.0
 40
2.6851250000000002
 50
0.00001
 51
89.999980000000008
  0
LINE
  5
39
  8
0
 62
     7
 10
103.5439999999999
 20
105.702
 30
0.0
 11
103.5439999999999
 21
107.265
 31
0.0
  0
LINE
  5
3A
  8
0
 62
     7
 10
62.828800000000001
 20
108.881
 30
0.0
 11
62.828800000000001
 21
105.702
 31
0.0
  0
LINE
  5
3B
  8
0
 62
     7
 10
49.261600000000001
 20
108.881
 30
0.0
 11
49.261600000000001
 21
105.702
 31
0.0
  0
LINE
  5
3C
  8
0
 62
     7
 10
46.045000000000002
 20
110.214
 30
0.0
 11
66.045100000000005
 21
110.214
 31
0.0
  0
LINE
  5
3D
  8
0
 62
     7
 10
46.045000000000002
 20
109.547
 30
0.0
 11
66.045100000000005
 21
109.547
 31
0.0
  0
LINE
  5
3E
  8
0
 62
     7
 10
46.045000000000002
 20
108.881
 30
0.0
 11
66.045100000000005
 21
108.881
 31
0.0
  0
LINE
  5
3F
  8
0
 62
     7
 10
46.045000000000002
 20
108.881
 30
0.0
 11
46.045000000000002
 21
110.214
 31
0.0
  0
LINE
  5
40
  8
0
 62
     7
 10
66.045100000000005
 20
108.881
 30
0.0
 11
66.045100000000005
 21
110.214
 31
0.0
  0
ARC
  5
41
  8
0
 62
     7
 10
67.240977999999998
 20
117.616051
 30
0.0
 40
0.7783600000000001
 50
315.08277199999998
 51
344.21382299999988
  0
ARC
  5
42
  8
0
 62
     7
 10
66.857858999999991
 20
117.74723999999991
 30
0.0
 40
1.1829240000000001
 50
343.14748300000002
 51
355.60759999999999
  0
ARC
  5
43
  8
0
 62
     7
 10
65.746763000000001
 20
117.848384
 30
0.0
 40
2.298556
 50
355.21495399999992
 51
0.9133219999999999
  0
ARC
  5
44
  8
0
 62
     7
 10
67.100796000000003
 20
117.87949399999989
 30
0.0
 40
0.9442479999999999
 50
0.335459
 51
47.87601200000001
  0
ARC
  5
45
  8
0
 62
     7
 10
66.694003000000009
 20
117.481689
 30
0.0
 40
1.5125519999999999
 50
46.554099999999998
 51
55.834989999999991
  0
ARC
  5
46
  8
0
 62
     7
 10
64.707222000000002
 20
114.681054
 30
0.0
 40
4.9461079999999997
 50
55.010938999999993
 51
63.621118999999993
  0
ARC
  5
47
  8
0
 62
     7
 10
63.271796000000002
 20
111.9463919999999
 30
0.0
 40
8.0341050000000003
 50
63.115206000000008
 51
68.361206999999993
  0
ARC
  5
48
  8
0
 62
     7
 10
61.639223999999999
 20
107.9255789999999
 30
0.0
 40
12.373625999999989
 50
68.199930000000009
 51
73.830926000000005
  0
ARC
  5
49
  8
0
 62
     7
 10
59.400230000000001
 20
100.5885869999999
 30
0.0
 40
20.044183
 50
73.524275000000003
 51
77.928151999999983
  0
ARC
  5
4A
  8
0
 62
     7
 10
57.015256000000001
 20
90.038061999999996
 30
0.0
 40
30.860439
 50
77.694742000000005
 51
81.302468000000005
  0
ARC
  5
4B
  8
0
 62
     7
 10
54.56033699999999
 20
74.851708000000002
 30
0.0
 40
46.243569000000001
 50
81.141104999999996
 51
87.790398999999994
  0
ARC
  5
4C
  8
0
 62
     7
 10
56.026462999999993
 20
111.7185199999999
 30
0.0
 40
9.3477429999999995
 50
88.057842000000008
 51
89.884287
  0
ARC
  5
4D
  8
0
 62
     7
 10
44.848584000000002
 20
117.61529299999989
 30
0.0
 40
0.777644
 50
195.743065
 51
224.89101199999999
  0
ARC
  5
4E
  8
0
 62
     7
 10
45.232853999999989
 20
117.747079
 30
0.0
 40
1.1834709999999991
 50
184.38258799999991
 51
196.83639099999991
  0
ARC
  5
4F
  8
0
 62
     7
 10
46.345032000000003
 20
117.848331
 30
0.0
 40
2.300189
 50
179.0859889999999
 51
184.78033899999991
  0
ARC
  5
50
  8
0
 62
     7
 10
44.989601
 20
117.8794969999999
 30
0.0
 40
0.9444819999999999
 50
132.139959
 51
179.664804
  0
ARC
  5
51
  8
0
 62
     7
 10
45.397845999999987
 20
117.480701
 30
0.0
 40
1.51451
 50
124.207537
 51
133.46971999999991
  0
ARC
  5
52
  8
0
 62
     7
 10
47.382488000000002
 20
114.6815499999999
 30
0.0
 40
4.945638999999999
 50
116.38084000000001
 51
124.99130100000001
  0
ARC
  5
53
  8
0
 62
     7
 10
48.817551000000002
 20
111.9474759999999
 30
0.0
 40
8.0329499999999996
 50
111.6389649999999
 51
116.885617
  0
ARC
  5
54
  8
0
 62
     7
 10
50.449987
 20
107.92695399999999
 30
0.0
 40
12.372149
 50
106.168341
 51
111.800104
  0
ARC
  5
55
  8
0
 62
     7
 10
52.688597000000001
 20
100.591341
 30
0.0
 40
20.041274999999999
 50
102.0705989999999
 51
106.475354
  0
ARC
  5
56
  8
0
 62
     7
 10
55.073753000000004
 20
90.040577999999996
 30
0.0
 40
30.857800999999998
 50
98.696376000000015
 51
102.30469599999989
  0
ARC
  5
57
  8
0
 62
     7
 10
57.530241000000011
 20
74.843716000000001
 30
0.0
 40
46.251553000000001
 50
92.209125999999998
 51
98.858042999999995
  0
ARC
  5
58
  8
0
 62
     7
 10
56.064216000000002
 20
111.71601799999991
 30
0.0
 40
9.3502449999999993
 50
90.115656999999999
 51
91.941877000000005
  0
LINE
  5
59
  8
0
 62
     7
 10
50.045200000000001
 20
113.40000000000001
 30
0.0
 11
62.045000000000002
 21
113.40000000000001
 31
0.0
  0
LINE
  5
5A
  8
0
 62
     7
 10
50.045200000000001
 20
115.066
 30
0.0
 11
62.045000000000002
 21
115.066
 31
0.0
  0
LINE
  5
5B
  8
0
 62
     7
 10
46.3782
 20
115.7329999999999
 30
0.0
 11
65.712000000000003
 21
115.7329999999999
 31
0.0
  0
LINE
  5
5C
  8
0
 62
     7
 10
46.3782
 20
116.2329999999999
 30
0.0
 11
65.712000000000003
 21
116.2329999999999
 31
0.0
  0
LINE
  5
5D
  8
0
 62
     7
 10
44.297699999999999
 20
117.066
 30
0.0
 11
67.792199999999994
 21
117.066
 31
0.0
  0
LINE
  5
5E
  8
0
 62
     7
 10
50.545000000000002
 20
117.066
 30
0.0
 11
50.545000000000002
 21
116.2329999999999
 31
0.0
  0
LINE
  5
5F
  8
0
 62
     7
 10
61.544800000000002
 20
117.066
 30
0.0
 11
61.544800000000002
 21
116.2329999999999
 31
0.0
  0
LINE
  5
60
  8
0
 62
     7
 10
65.712000000000003
 20
116.2329999999999
 30
0.0
 11
65.712000000000003
 21
115.7329999999999
 31
0.0
  0
LINE
  5
61
  8
0
 62
     7
 10
56.378100000000003
 20
115.066
 30
0.0
 11
56.378100000000003
 21
113.40000000000001
 31
0.0
  0
LINE
  5
62
  8
0
 62
     7
 10
55.7119
 20
115.066
 30
0.0
 11
55.7119
 21
113.40000000000001
 31
0.0
  0
LINE
  5
63
  8
0
 62
     7
 10
50.378300000000003
 20
115.066
 30
0.0
 11
50.378300000000003
 21
113.40000000000001
 31
0.0
  0
LINE
  5
64
  8
0
 62
     7
 10
61.711500000000001
 20
115.066
 30
0.0
 11
61.711500000000001
 21
113.40000000000001
 31
0.0
  0
LINE
  5
65
  8
0
 62
     7
 10
62.045000000000002
 20
115.7329999999999
 30
0.0
 11
62.045000000000002
 21
113.40000000000001
 31
0.0
  0
LINE
  5
66
  8
0
 62
     7
 10
46.3782
 20
116.2329999999999
 30
0.0
 11
46.3782
 21
115.7329999999999
 31
0.0
  0
LINE
  5
67
  8
0
 62
     7
 10
50.045200000000001
 20
115.7329999999999
 30
0.0
 11
50.045200000000001
 21
113.40000000000001
 31
0.0
  0
LINE
  5
68
  8
0
  6
AIGENLINE001
 62
     7
 10
56.045299999999997
 20
122.7119999999999
 30
0.0
 11
56.045299999999997
 21
83.470699999999994
 31
0.0
  0
LINE
  5
69
  8
0
 62
     7
 10
45.544499999999999
 20
112.92699999999989
 30
0.0
 11
45.544499999999999
 21
113.40000000000001
 31
0.0
  0
LINE
  5
6A
  8
0
 62
     7
 10
45.544499999999999
 20
113.40000000000001
 30
0.0
 11
66.545000000000002
 21
113.40000000000001
 31
0.0
  0
LINE
  5
6B
  8
0
 62
     7
 10
66.545000000000002
 20
113.40000000000001
 30
0.0
 11
66.545000000000002
 21
112.92699999999989
 31
0.0
  0
LINE
  5
6C
  8
0
 62
     7
 10
62.828400000000002
 20
110.214
 30
0.0
 11
66.545000000000002
 21
112.92699999999989
 31
0.0
  0
LINE
  5
6D
  8
0
 62
     7
 10
66.545000000000002
 20
112.92699999999989
 30
0.0
 11
45.544499999999999
 21
112.92699999999989
 31
0.0
  0
LINE
  5
6E
  8
0
 62
     7
 10
45.544499999999999
 20
112.92699999999989
 30
0.0
 11
49.261000000000003
 21
110.214
 31
0.0
  0
LINE
  5
6F
  8
0
 62
     7
 10
107.6729999999999
 20
108.881
 30
0.0
 11
107.6729999999999
 21
105.702
 31
0.0
  0
LINE
  5
70
  8
0
 62
     7
 10
94.105800000000016
 20
108.881
 30
0.0
 11
94.105800000000016
 21
105.702
 31
0.0
  0
LINE
  5
71
  8
0
 62
     7
 10
98.175299999999993
 20
107.265
 30
0.0
 11
98.175299999999993
 21
105.702
 31
0.0
  0
LINE
  5
72
  8
0
 62
     7
 10
94.105800000000016
 20
105.702
 30
0.0
 11
107.6729999999999
 21
105.702
 31
0.0
  0
LINE
  5
73
  8
0
 62
     7
 10
90.889300000000006
 20
110.214
 30
0.0
 11
110.8889999999999
 21
110.214
 31
0.0
  0
LINE
  5
74
  8
0
 62
     7
 10
90.889300000000006
 20
109.547
 30
0.0
 11
110.8889999999999
 21
109.547
 31
0.0
  0
LINE
  5
75
  8
0
 62
     7
 10
90.889300000000006
 20
108.881
 30
0.0
 11
110.8889999999999
 21
108.881
 31
0.0
  0
LINE
  5
76
  8
0
 62
     7
 10
90.889300000000006
 20
102.3689999999999
 30
0.0
 11
110.8889999999999
 21
102.3689999999999
 31
0.0
  0
LINE
  5
77
  8
0
 62
     7
 10
90.889300000000006
 20
101.83799999999999
 30
0.0
 11
110.8889999999999
 21
101.83799999999999
 31
0.0
  0
LINE
  5
78
  8
0
 62
     7
 10
110.8889999999999
 20
102.3689999999999
 30
0.0
 11
107.6729999999999
 21
105.702
 31
0.0
  0
LINE
  5
79
  8
0
 62
     7
 10
94.105800000000016
 20
105.702
 30
0.0
 11
90.889300000000006
 21
102.3689999999999
 31
0.0
  0
LINE
  5
7A
  8
0
 62
     7
 10
90.889300000000006
 20
102.3689999999999
 30
0.0
 11
90.889300000000006
 21
101.83799999999999
 31
0.0
  0
LINE
  5
7B
  8
0
 62
     7
 10
90.889300000000006
 20
108.881
 30
0.0
 11
90.889300000000006
 21
110.214
 31
0.0
  0
LINE
  5
7C
  8
0
 62
     7
 10
110.8889999999999
 20
108.881
 30
0.0
 11
110.8889999999999
 21
110.214
 31
0.0
  0
LINE
  5
7D
  8
0
 62
     7
 10
110.8889999999999
 20
102.3689999999999
 30
0.0
 11
110.8889999999999
 21
101.83799999999999
 31
0.0
  0
ARC
  5
7E
  8
0
 62
     7
 10
102.91825900000001
 20
107.35151
 30
0.0
 40
0.63137
 50
352.13415999999989
 51
36.698256000000001
  0
ARC
  5
7F
  8
0
 62
     7
 10
102.921812
 20
107.3498969999999
 30
0.0
 40
0.6294940000000001
 50
37.009171000000002
 51
81.657916999999983
  0
ARC
  5
80
  8
0
 62
     7
 10
102.9242559999999
 20
107.36175
 30
0.0
 40
0.617413
 50
81.722809999999996
 51
98.277169999999984
  0
LINE
  5
81
  8
0
 62
     7
 10
102.83499999999989
 20
107.973
 30
0.0
 11
98.882999999999996
 21
107.973
 31
0.0
  0
ARC
  5
82
  8
0
 62
     7
 10
98.880774000000002
 20
107.26424900000001
 30
0.0
 40
0.7084850000000001
 50
89.823095999999978
 51
134.35319699999999
  0
ARC
  5
83
  8
0
 62
     7
 10
98.878422999999998
 20
107.269448
 30
0.0
 40
0.7031270000000001
 50
134.5123199999999
 51
179.39943899999989
  0
LINE
  5
84
  8
0
 62
     7
 10
98.175299999999993
 20
107.277
 30
0.0
 11
98.175299999999993
 21
107.265
 31
0.0
  0
ARC
  5
85
  8
0
 62
     7
 10
112.08520799999999
 20
117.616051
 30
0.0
 40
0.7783600000000001
 50
315.08277199999998
 51
344.21382299999988
  0
ARC
  5
86
  8
0
 62
     7
 10
111.70332999999999
 20
117.747007
 30
0.0
 40
1.1816690000000001
 50
343.14084100000002
 51
355.61424199999999
  0
ARC
  5
87
  8
0
 62
     7
 10
110.5909939999999
 20
117.848384
 30
0.0
 40
2.298556
 50
355.21495399999992
 51
0.9133219999999999
  0
ARC
  5
88
  8
0
 62
     7
 10
111.94606999999991
 20
117.87996099999999
 30
0.0
 40
0.9432020000000001
 50
0.307477
 51
47.903993999999997
  0
ARC
  5
89
  8
0
 62
     7
 10
111.53823300000001
 20
117.481689
 30
0.0
 40
1.5125519999999999
 50
46.554099999999998
 51
55.834989999999991
  0
ARC
  5
8A
  8
0
 62
     7
 10
109.5499999999999
 20
114.678607
 30
0.0
 40
4.9489450000000001
 50
55.01341200000001
 51
63.618646999999989
  0
ARC
  5
8B
  8
0
 62
     7
 10
108.117271
 20
111.94915399999999
 30
0.0
 40
8.0310779999999991
 50
63.114215999999999
 51
68.362196999999995
  0
ARC
  5
8C
  8
0
 62
     7
 10
106.48345399999999
 20
107.9255789999999
 30
0.0
 40
12.373625999999989
 50
68.199930000000009
 51
73.830926000000005
  0
ARC
  5
8D
  8
0
 62
     7
 10
104.24561199999989
 20
100.593054
 30
0.0
 40
20.039571999999989
 50
73.523809999999997
 51
77.928716000000009
  0
ARC
  5
8E
  8
0
 62
     7
 10
101.8604689999999
 20
90.043393999999992
 30
0.0
 40
30.855018999999999
 50
77.694424999999995
 51
81.302785000000014
  0
ARC
  5
8F
  8
0
 62
     7
 10
99.404942000000005
 20
74.855627999999996
 30
0.0
 40
46.23963599999999
 50
81.140822
 51
87.790683000000001
  0
ARC
  5
90
  8
0
 62
     7
 10
100.870706
 20
111.719527
 30
0.0
 40
9.3467359999999982
 50
88.057742000000005
 51
89.884350999999995
  0
ARC
  5
91
  8
0
 62
     7
 10
89.692843999999994
 20
117.61532199999991
 30
0.0
 40
0.7776850000000001
 50
195.74443099999991
 51
224.89100699999989
  0
ARC
  5
92
  8
0
 62
     7
 10
90.078040000000001
 20
117.74723400000001
 30
0.0
 40
1.184436
 50
184.38652599999989
 51
196.83009199999989
  0
ARC
  5
93
  8
0
 62
     7
 10
91.189261999999999
 20
117.848331
 30
0.0
 40
2.300189
 50
179.0859889999999
 51
184.78033899999991
  0
ARC
  5
94
  8
0
 62
     7
 10
89.833831000000004
 20
117.8794969999999
 30
0.0
 40
0.9444819999999999
 50
132.139959
 51
179.664804
  0
ARC
  5
95
  8
0
 62
     7
 10
90.242075999999997
 20
117.480701
 30
0.0
 40
1.51451
 50
124.207537
 51
133.46971999999991
  0
ARC
  5
96
  8
0
 62
     7
 10
92.226718000000005
 20
114.6815499999999
 30
0.0
 40
4.945638999999999
 50
116.38084000000001
 51
124.99130100000001
  0
ARC
  5
97
  8
0
 62
     7
 10
93.662058000000016
 20
111.9469159999999
 30
0.0
 40
8.0335739999999998
 50
111.639359
 51
116.88556799999991
  0
ARC
  5
98
  8
0
 62
     7
 10
95.293942999999985
 20
107.92764200000001
 30
0.0
 40
12.371411
 50
106.167984
 51
111.80013
  0
ARC
  5
99
  8
0
 62
     7
 10
97.532956000000013
 20
100.59091600000001
 30
0.0
 40
20.041716999999998
 50
102.0707049999999
 51
106.475348
  0
ARC
  5
9A
  8
0
 62
     7
 10
99.918874000000017
 20
90.035701000000003
 30
0.0
 40
30.862756000000001
 50
98.696631999999966
 51
102.3043819999999
  0
ARC
  5
9B
  8
0
 62
     7
 10
102.37409599999999
 20
74.847635999999994
 30
0.0
 40
46.247619999999991
 50
92.208842999999987
 51
98.858326000000019
  0
ARC
  5
9C
  8
0
 62
     7
 10
100.90845400000001
 20
111.7159139999999
 30
0.0
 40
9.3503490000000014
 50
90.115702000000013
 51
91.941869000000011
  0
LINE
  5
9D
  8
0
 62
     7
 10
94.889399999999995
 20
113.40000000000001
 30
0.0
 11
106.8889999999999
 21
113.40000000000001
 31
0.0
  0
LINE
  5
9E
  8
0
 62
     7
 10
94.889399999999995
 20
115.066
 30
0.0
 11
106.8889999999999
 21
115.066
 31
0.0
  0
LINE
  5
9F
  8
0
 62
     7
 10
91.222399999999993
 20
115.7329999999999
 30
0.0
 11
110.556
 21
115.7329999999999
 31
0.0
  0
LINE
  5
A0
  8
0
 62
     7
 10
91.222399999999993
 20
116.2329999999999
 30
0.0
 11
110.556
 21
116.2329999999999
 31
0.0
  0
LINE
  5
A1
  8
0
 62
     7
 10
89.141900000000007
 20
117.066
 30
0.0
 11
112.636
 21
117.066
 31
0.0
  0
LINE
  5
A2
  8
0
 62
     7
 10
95.389300000000006
 20
117.066
 30
0.0
 11
95.389300000000006
 21
116.2329999999999
 31
0.0
  0
LINE
  5
A3
  8
0
 62
     7
 10
106.389
 20
117.066
 30
0.0
 11
106.389
 21
116.2329999999999
 31
0.0
  0
LINE
  5
A4
  8
0
 62
     7
 10
110.556
 20
116.2329999999999
 30
0.0
 11
110.556
 21
115.7329999999999
 31
0.0
  0
LINE
  5
A5
  8
0
 62
     7
 10
101.22199999999999
 20
115.066
 30
0.0
 11
101.22199999999999
 21
113.40000000000001
 31
0.0
  0
LINE
  5
A6
  8
0
 62
     7
 10
100.556
 20
115.066
 30
0.0
 11
100.556
 21
113.40000000000001
 31
0.0
  0
LINE
  5
A7
  8
0
 62
     7
 10
95.222499999999997
 20
115.066
 30
0.0
 11
95.222499999999997
 21
113.40000000000001
 31
0.0
  0
LINE
  5
A8
  8
0
 62
     7
 10
106.556
 20
115.066
 30
0.0
 11
106.556
 21
113.40000000000001
 31
0.0
  0
LINE
  5
A9
  8
0
 62
     7
 10
106.8889999999999
 20
115.7329999999999
 30
0.0
 11
106.8889999999999
 21
113.40000000000001
 31
0.0
  0
LINE
  5
AA
  8
0
 62
     7
 10
91.222399999999993
 20
116.2329999999999
 30
0.0
 11
91.222399999999993
 21
115.7329999999999
 31
0.0
  0
LINE
  5
AB
  8
0
 62
     7
 10
94.889399999999995
 20
115.7329999999999
 30
0.0
 11
94.889399999999995
 21
113.40000000000001
 31
0.0
  0
LINE
  5
AC
  8
0
 62
     7
 10
91.098699999999994
 20
127.943
 30
0.0
 11
88.8887
 21
127.3509999999999
 31
0.0
  0
LINE
  5
AD
  8
0
 62
     7
 10
88.8887
 20
127.3509999999999
 30
0.0
 11
91.098699999999994
 21
126.7579999999999
 31
0.0
  0
LINE
  5
AE
  8
0
 62
     7
 10
91.098699999999994
 20
126.7579999999999
 30
0.0
 11
91.098699999999994
 21
127.943
 31
0.0
  0
LINE
  5
AF
  8
0
 62
     7
 10
110.6789999999999
 20
126.7679999999999
 30
0.0
 11
112.8889999999999
 21
127.36
 31
0.0
  0
LINE
  5
B0
  8
0
 62
     7
 10
112.8889999999999
 20
127.36
 30
0.0
 11
110.6789999999999
 21
127.9529999999999
 31
0.0
  0
LINE
  5
B1
  8
0
 62
     7
 10
110.6789999999999
 20
127.9529999999999
 30
0.0
 11
110.6789999999999
 21
126.7679999999999
 31
0.0
  0
LINE
  5
B2
  8
0
 62
     7
 10
90.036600000000007
 20
127.3549999999999
 30
0.0
 11
111.684
 21
127.3549999999999
 31
0.0
  0
LINE
  5
B3
  8
0
 62
     7
 10
112.8889999999999
 20
128.17599999999999
 30
0.0
 11
112.8889999999999
 21
119.626
 31
0.0
  0
LINE
  5
B4
  8
0
 62
     7
 10
88.8887
 20
119.626
 30
0.0
 11
88.8887
 21
128.12100000000001
 31
0.0
  0
LINE
  5
B5
  8
0
 62
     7
 10
110.682
 20
101.83799999999999
 30
0.0
 11
110.20999999999989
 21
101.83799999999999
 31
0.0
  0
LINE
  5
B6
  8
0
 62
     7
 10
91.037700000000001
 20
101.83799999999999
 30
0.0
 11
91.509399999999999
 21
101.83799999999999
 31
0.0
  0
ARC
  5
B7
  8
0
 62
     7
 10
56.04551
 20
164.66041499999989
 30
0.0
 40
12.000207
 50
269.99919699999998
 51
359.999168
  0
ARC
  5
B8
  8
0
 62
     7
 10
56.045338000000001
 20
164.6602389999999
 30
0.0
 40
12.000030000000001
 50
179.99996999999991
 51
270.00002000000001
  0
ARC
  5
B9
  8
0
 62
     7
 10
56.045341999999998
 20
164.6602389999999
 30
0.0
 40
12.000035
 50
90.0
 51
179.99996999999991
  0
ARC
  5
BA
  8
0
 62
     7
 10
56.04551
 20
164.66006699999991
 30
0.0
 40
12.000207
 50
0.000832
 51
90.000803000000019
  0
LINE
  5
BB
  8
0
 62
     7
 10
51.976000000000013
 20
181.60299999999989
 30
0.0
 11
51.976000000000013
 21
180.82900000000001
 31
0.0
  0
LINE
  5
BC
  8
0
 62
     7
 10
59.952100000000002
 20
179.0209999999999
 30
0.0
 11
59.952100000000002
 21
177.84099999999989
 31
0.0
  0
LINE
  5
BD
  8
0
 62
     7
 10
59.952100000000002
 20
181.60299999999989
 30
0.0
 11
59.952100000000002
 21
180.91900000000001
 31
0.0
  0
ARC
  5
BE
  8
0
 62
     7
 10
59.569412999999997
 20
179.93733399999999
 30
0.0
 40
1.2027529999999991
 50
157.93485499999991
 51
180.00312099999999
  0
ARC
  5
BF
  8
0
 62
     7
 10
59.296813
 20
180.0160009999999
 30
0.0
 40
0.9210390000000001
 50
115.259252
 51
156.09942599999999
  0
ARC
  5
C0
  8
0
 62
     7
 10
59.525731000000007
 20
179.59394800000001
 30
0.0
 40
1.400679999999999
 50
99.522901000000005
 51
116.3610699999999
  0
ARC
  5
C1
  8
0
 62
     7
 10
59.709865000000001
 20
178.709183
 30
0.0
 40
2.3039849999999991
 50
89.321999999999989
 51
100.398774
  0
ARC
  5
C2
  8
0
 62
     7
 10
59.736975999999999
 20
180.84055799999999
 30
0.0
 40
0.172449
 50
76.756286000000003
 51
89.949535999999995
  0
ARC
  5
C3
  8
0
 62
     7
 10
59.706848000000001
 20
180.70206699999989
 30
0.0
 40
0.314168
 50
66.218328999999997
 51
77.194169999999986
  0
ARC
  5
C4
  8
0
 62
     7
 10
59.618618999999988
 20
180.4986659999999
 30
0.0
 40
0.535878
 50
57.880564999999997
 51
66.355654000000001
  0
ARC
  5
C5
  8
0
 62
     7
 10
59.397725000000001
 20
180.1509639999999
 30
0.0
 40
0.9478100000000002
 50
43.403135999999989
 51
57.746617000000001
  0
ARC
  5
C6
  8
0
 62
     7
 10
59.05895799999999
 20
179.802863
 30
0.0
 40
1.4332679999999991
 50
11.245205
 51
44.207963999999997
  0
ARC
  5
C7
  8
0
 62
     7
 10
59.419940000000011
 20
179.903572
 30
0.0
 40
1.059957
 50
0.117513
 51
9.7108840000000001
  0
ARC
  5
C8
  8
0
 62
     7
 10
59.612143999999986
 20
179.90693300000001
 30
0.0
 40
0.8677509999999999
 50
332.85540600000002
 51
359.92160599999988
  0
ARC
  5
C9
  8
0
 62
     7
 10
59.244294999999987
 20
180.08047999999991
 30
0.0
 40
1.2743340000000001
 50
293.8090029999999
 51
333.457674
  0
ARC
  5
CA
  8
0
 62
     7
 10
59.643177000000001
 20
179.19933299999991
 30
0.0
 40
0.30729
 50
273.77372500000001
 51
292.08836700000001
  0
ARC
  5
CB
  8
0
 62
     7
 10
59.661597999999991
 20
181.51378500000001
 30
0.0
 40
2.6210770000000001
 50
259.23935399999988
 51
270.03944699999988
  0
ARC
  5
CC
  8
0
 62
     7
 10
59.449481999999989
 20
180.26743999999991
 30
0.0
 40
1.3572610000000001
 50
242.05554699999999
 51
258.21284100000003
  0
ARC
  5
CD
  8
0
 62
     7
 10
59.234039000000003
 20
179.8133709999999
 30
0.0
 40
0.8554709999999998
 50
190.31177199999999
 51
240.55105499999991
  0
ARC
  5
CE
  8
0
 62
     7
 10
59.718558999999999
 20
179.92309800000001
 30
0.0
 40
1.351972999999999
 50
179.39941200000001
 51
191.2112479999999
  0
ARC
  5
CF
  8
0
 62
     7
 10
54.193721999999987
 20
179.84472099999991
 30
0.0
 40
2.4680430000000002
 50
164.472893
 51
179.99090100000001
  0
ARC
  5
D0
  8
0
 62
     7
 10
53.000079999999997
 20
180.15023899999991
 30
0.0
 40
1.236434
 50
151.66654199999991
 51
163.306757
  0
ARC
  5
D1
  8
0
 62
     7
 10
52.429990000000011
 20
180.451909
 30
0.0
 40
0.5914890000000002
 50
134.07696899999999
 51
151.1788159999999
  0
ARC
  5
D2
  8
0
 62
     7
 10
52.195459999999997
 20
180.68723099999991
 30
0.0
 40
0.259333
 50
93.779043999999999
 51
133.01808500000001
  0
ARC
  5
D3
  8
0
 62
     7
 10
52.178474000000001
 20
177.82788899999991
 30
0.0
 40
3.1181099999999988
 50
80.116949000000005
 51
90.001932000000011
  0
ARC
  5
D4
  8
0
 62
     7
 10
52.361224999999997
 20
178.99844999999991
 30
0.0
 40
1.933665999999999
 50
65.759205000000009
 51
79.498443999999992
  0
ARC
  5
D5
  8
0
 62
     7
 10
52.657263999999998
 20
179.69470799999999
 30
0.0
 40
1.1773599999999991
 50
42.120427999999997
 51
64.984068000000008
  0
ARC
  5
D6
  8
0
 62
     7
 10
52.890240000000013
 20
179.941742
 30
0.0
 40
0.8393040000000001
 50
359.69466499999999
 51
40.278423999999987
  0
ARC
  5
D7
  8
0
 62
     7
 10
52.851027000000002
 20
179.94070799999989
 30
0.0
 40
0.878512
 50
318.34209599999991
 51
359.77569699999998
  0
ARC
  5
D8
  8
0
 62
     7
 10
52.591217999999998
 20
180.14755700000001
 30
0.0
 40
1.210246999999999
 50
295.30337400000002
 51
319.20131099999992
  0
ARC
  5
D9
  8
0
 62
     7
 10
52.291218999999991
 20
180.69942199999991
 30
0.0
 40
1.8377279999999989
 50
277.45223299999998
 51
296.40535299999999
  0
ARC
  5
DA
  8
0
 62
     7
 10
52.142873000000002
 20
181.47442899999999
 30
0.0
 40
2.625840999999999
 50
269.75215999999989
 51
278.46853799999991
  0
ARC
  5
DB
  8
0
 62
     7
 10
52.132013999999991
 20
178.99684699999989
 30
0.0
 40
0.148236
 50
240.8994999999999
 51
269.806872
  0
ARC
  5
DC
  8
0
 62
     7
 10
52.177205000000001
 20
179.09129699999991
 30
0.0
 40
0.252824
 50
230.11920799999999
 51
242.36106599999999
  0
ARC
  5
DD
  8
0
 62
     7
 10
52.269843000000002
 20
179.20144799999991
 30
0.0
 40
0.396751
 50
219.20308299999999
 51
230.05270499999989
  0
ARC
  5
DE
  8
0
 62
     7
 10
52.508806000000007
 20
179.39366200000001
 30
0.0
 40
0.703421
 50
203.04738900000001
 51
219.03266199999999
  0
ARC
  5
DF
  8
0
 62
     7
 10
53.07076
 20
179.660346
 30
0.0
 40
1.325169
 50
192.43509
 51
204.1455389999999
  0
ARC
  5
E0
  8
0
 62
     7
 10
53.741556000000003
 20
179.8259689999999
 30
0.0
 40
2.0159679999999991
 50
179.45590999999999
 51
192.92657
  0
ARC
  5
E1
  8
0
 62
     7
 10
54.838742000000003
 20
179.935822
 30
0.0
 40
0.6634130000000001
 50
148.888014
 51
179.87498600000001
  0
ARC
  5
E2
  8
0
 62
     7
 10
55.101475000000001
 20
179.794183
 30
0.0
 40
0.96165
 50
128.878985
 51
149.751508
  0
ARC
  5
E3
  8
0
 62
     7
 10
55.491734999999998
 20
179.3572189999999
 30
0.0
 40
1.5470539999999999
 50
114.3745669999999
 51
129.97285400000001
  0
ARC
  5
E4
  8
0
 62
     7
 10
55.857143000000008
 20
178.6203129999999
 30
0.0
 40
2.369256
 50
97.207581000000005
 51
115.06905499999991
  0
ARC
  5
E5
  8
0
 62
     7
 10
55.987211000000002
 20
177.970496
 30
0.0
 40
3.030629999999999
 50
89.904061999999996
 51
98.105838999999989
  0
ARC
  5
E6
  8
0
 62
     7
 10
55.992198000000002
 20
178.03060400000001
 30
0.0
 40
2.9705169999999992
 50
71.878305000000012
 51
89.998312999999996
  0
ARC
  5
E7
  8
0
 62
     7
 10
56.277574999999999
 20
178.99218400000001
 30
0.0
 40
1.968067999999999
 50
53.486243999999992
 51
71.067060999999995
  0
ARC
  5
E8
  8
0
 62
     7
 10
56.754502000000002
 20
179.68045499999999
 30
0.0
 40
1.1314200000000001
 50
33.395465000000002
 51
52.158382000000003
  0
ARC
  5
E9
  8
0
 62
     7
 10
57.091633999999999
 20
179.92084999999989
 30
0.0
 40
0.717794
 50
1.3106919999999991
 51
32.186741999999988
  0
ARC
  5
EA
  8
0
 62
     7
 10
57.146081000000002
 20
179.93873400000001
 30
0.0
 40
0.6631610000000001
 50
328.89364599999988
 51
359.87338
  0
ARC
  5
EB
  8
0
 62
     7
 10
56.881582000000002
 20
180.08101999999991
 30
0.0
 40
0.9632500000000001
 50
308.93190299999992
 51
329.77528100000001
  0
ARC
  5
EC
  8
0
 62
     7
 10
56.491236000000001
 20
180.51710899999989
 30
0.0
 40
1.548055999999999
 50
294.4346240000001
 51
310.02792699999992
  0
ARC
  5
ED
  8
0
 62
     7
 10
56.126884999999987
 20
181.24945399999999
 30
0.0
 40
2.3656980000000001
 50
277.23724399999992
 51
295.13165400000003
  0
ARC
  5
EE
  8
0
 62
     7
 10
55.996904000000001
 20
181.90080699999999
 30
0.0
 40
3.0285989999999998
 50
269.91263099999998
 51
278.12435199999987
  0
ARC
  5
EF
  8
0
 62
     7
 10
55.992351999999997
 20
181.8310219999999
 30
0.0
 40
2.958810999999999
 50
251.81079700000001
 51
269.99872099999988
  0
ARC
  5
F0
  8
0
 62
     7
 10
55.734501000000002
 20
180.9517669999999
 30
0.0
 40
2.043215
 50
237.36505600000001
 51
250.98355799999999
  0
ARC
  5
F1
  8
0
 62
     7
 10
55.350330999999997
 20
180.3252709999999
 30
0.0
 40
1.3085290000000001
 50
219.79807799999989
 51
236.73711599999999
  0
ARC
  5
F2
  8
0
 62
     7
 10
54.962631000000009
 20
179.98433600000001
 30
0.0
 40
0.792551
 50
189.35776299999989
 51
218.801716
  0
ARC
  5
F3
  8
0
 62
     7
 10
54.809097999999999
 20
179.93723600000001
 30
0.0
 40
0.633768
 50
179.99703600000001
 51
187.41286700000001
  0
LINE
  5
F4
  8
0
 62
     7
 10
59.456000000000003
 20
182.01400000000001
 30
0.0
 11
52.46909999999999
 21
182.01400000000001
 31
0.0
  0
ARC
  5
F5
  8
0
 62
     7
 10
59.453274
 20
181.44004599999991
 30
0.0
 40
0.574118
 50
49.348405999999997
 51
89.727318999999994
  0
ARC
  5
F6
  8
0
 62
     7
 10
59.559098999999989
 20
181.5879239999999
 30
0.0
 40
0.393313
 50
2.269641
 51
47.009949999999989
  0
ARC
  5
F7
  8
0
 62
     7
 10
52.347974999999991
 20
181.6005209999999
 30
0.0
 40
0.37202
 50
127.033632
 51
179.5411959999999
  0
ARC
  5
F8
  8
0
 62
     7
 10
52.456527000000001
 20
181.482348
 30
0.0
 40
0.531959
 50
88.641759999999977
 51
128.7013199999999
  0
LINE
  5
F9
  8
0
 62
     7
 10
59.777799999999999
 20
177.697
 30
0.0
 11
52.302599999999998
 21
177.697
 31
0.0
  0
LINE
  5
FA
  8
0
 62
     7
 10
59.777799999999999
 20
177.697
 30
0.0
 11
59.952100000000002
 21
177.84099999999989
 31
0.0
  0
LINE
  5
FB
  8
0
 62
     7
 10
52.131500000000003
 20
177.84099999999989
 30
0.0
 11
52.302599999999998
 21
177.697
 31
0.0
  0
LINE
  5
FC
  8
0
 62
     7
 10
52.131500000000003
 20
178.84899999999999
 30
0.0
 11
52.131500000000003
 21
177.84099999999989
 31
0.0
  0
LINE
  5
FD
  8
0
  6
AIGENLINE002
 62
     7
 10
56.045299999999997
 20
151.036
 30
0.0
 11
56.045299999999997
 21
235.72900000000001
 31
0.0
  0
LINE
  5
FE
  8
0
  6
AIGENLINE001
 62
     7
 10
41.923599999999993
 20
164.66
 30
0.0
 11
70.162700000000001
 21
164.66
 31
0.0
  0
LINE
  5
FF
  8
0
 62
     7
 10
55.212299999999999
 20
182.01400000000001
 30
0.0
 11
55.212299999999999
 21
234.66099999999989
 31
0.0
  0
LINE
  5
100
  8
0
 62
     7
 10
55.212299999999999
 20
234.66099999999989
 30
0.0
 11
56.879100000000001
 21
234.66099999999989
 31
0.0
  0
LINE
  5
101
  8
0
 62
     7
 10
56.879100000000001
 20
234.66099999999989
 30
0.0
 11
56.879100000000001
 21
182.01400000000001
 31
0.0
  0
LINE
  5
102
  8
0
 62
     7
 10
55.2089
 20
234.12999999999991
 30
0.0
 11
56.884599999999999
 21
234.12999999999991
 31
0.0
  0
LINE
  5
103
  8
0
 62
     7
 10
52.977800000000002
 20
177.10699999999991
 30
0.0
 11
52.977800000000002
 21
176.26400000000001
 31
0.0
  0
LINE
  5
104
  8
0
 62
     7
 10
59.11290000000001
 20
177.10699999999991
 30
0.0
 11
59.11290000000001
 21
176.26400000000001
 31
0.0
  0
LINE
  5
105
  8
0
 62
     7
 10
59.407800000000002
 20
177.697
 30
0.0
 11
59.407800000000002
 21
177.10699999999991
 31
0.0
  0
LINE
  5
106
  8
0
 62
     7
 10
59.407800000000002
 20
177.10699999999991
 30
0.0
 11
52.682899999999997
 21
177.10699999999991
 31
0.0
  0
LINE
  5
107
  8
0
 62
     7
 10
52.682899999999997
 20
177.10699999999991
 30
0.0
 11
52.682899999999997
 21
177.697
 31
0.0
  0
LINE
  5
108
  8
0
 62
     7
 10
117.833
 20
96.311000000000007
 30
0.0
 11
117.059
 21
96.311000000000007
 31
0.0
  0
LINE
  5
109
  8
0
 62
     7
 10
115.251
 20
88.3352
 30
0.0
 11
114.06999999999999
 21
88.3352
 31
0.0
  0
LINE
  5
10A
  8
0
 62
     7
 10
117.833
 20
88.3352
 30
0.0
 11
117.148
 21
88.3352
 31
0.0
  0
ARC
  5
10B
  8
0
 62
     7
 10
116.1663179999999
 20
88.717293000000012
 30
0.0
 40
1.2030229999999991
 50
67.945565000000002
 51
90.003046999999995
  0
ARC
  5
10C
  8
0
 62
     7
 10
116.24520799999991
 20
88.990526000000003
 30
0.0
 40
0.9206330000000002
 50
25.263299
 51
66.110702000000003
  0
ARC
  5
10D
  8
0
 62
     7
 10
115.825232
 20
88.762248999999997
 30
0.0
 40
1.398129999999999
 50
9.5121719999999996
 51
26.378305999999998
  0
ARC
  5
10E
  8
0
 62
     7
 10
114.94222600000001
 20
88.577795999999978
 30
0.0
 40
2.2997580000000002
 50
359.31230299999999
 51
10.40896199999999
  0
ARC
  5
10F
  8
0
 62
     7
 10
117.0645699999999
 20
88.550756999999976
 30
0.0
 40
0.17725
 50
346.93650700000001
 51
359.81781499999988
  0
ARC
  5
110
  8
0
 62
     7
 10
116.9316449999999
 20
88.579723000000001
 30
0.0
 40
0.313287
 50
336.24135999999999
 51
347.27099800000002
  0
ARC
  5
111
  8
0
 62
     7
 10
116.7258939999999
 20
88.668796999999998
 30
0.0
 40
0.537489
 50
327.93108699999988
 51
336.38726700000001
  0
ARC
  5
112
  8
0
 62
     7
 10
116.38110500000001
 20
88.888099999999994
 30
0.0
 40
0.946108
 50
313.39708399999989
 51
327.76289400000002
  0
ARC
  5
113
  8
0
 62
     7
 10
116.033911
 20
89.225942000000003
 30
0.0
 40
1.430269
 50
281.20022799999992
 51
314.20471299999991
  0
ARC
  5
114
  8
0
 62
     7
 10
116.13290499999999
 20
88.871009999999984
 30
0.0
 40
1.063240999999999
 50
270.12624199999988
 51
279.68217299999998
  0
ARC
  5
115
  8
0
 62
     7
 10
116.1364379999999
 20
88.677441999999999
 30
0.0
 40
0.8696719999999999
 50
242.893756
 51
269.92159800000002
  0
ARC
  5
116
  8
0
 62
     7
 10
116.3084379999999
 20
89.042895999999999
 30
0.0
 40
1.2734259999999991
 50
203.830949
 51
243.49706
  0
ARC
  5
117
  8
0
 62
     7
 10
115.4268169999999
 20
88.643617000000006
 30
0.0
 40
0.30578
 50
183.75824800000001
 51
202.13919399999989
  0
ARC
  5
118
  8
0
 62
     7
 10
117.74276
 20
88.625380000000007
 30
0.0
 40
2.621067
 50
169.23930499999989
 51
180.03947600000001
  0
ARC
  5
119
  8
0
 62
     7
 10
116.49642399999991
 20
88.837493999999992
 30
0.0
 40
1.3572610000000001
 50
152.0555169999999
 51
168.21281099999999
  0
ARC
  5
11A
  8
0
 62
     7
 10
116.042356
 20
89.052936999999986
 30
0.0
 40
0.8554709999999998
 50
100.3117419999999
 51
150.55102500000001
  0
ARC
  5
11B
  8
0
 62
     7
 10
116.152083
 20
88.568413000000007
 30
0.0
 40
1.3519779999999999
 50
89.399442000000008
 51
101.211198
  0
ARC
  5
11C
  8
0
 62
     7
 10
116.0751929999999
 20
94.095512000000014
 30
0.0
 40
2.4656129999999998
 50
74.485298999999998
 51
90.013458999999983
  0
ARC
  5
11D
  8
0
 62
     7
 10
116.381007
 20
95.289755999999997
 30
0.0
 40
1.233331999999999
 50
61.673918999999991
 51
73.334409999999991
  0
ARC
  5
11E
  8
0
 62
     7
 10
116.681078
 20
95.857343
 30
0.0
 40
0.5913510000000001
 50
44.078220999999992
 51
61.172708999999998
  0
ARC
  5
11F
  8
0
 62
     7
 10
116.9158989999999
 20
96.091747999999995
 30
0.0
 40
0.2596449999999999
 50
3.761280999999999
 51
42.965062999999986
  0
ARC
  5
120
  8
0
 62
     7
 10
114.07311300000001
 20
96.107187999999994
 30
0.0
 40
3.101871
 50
350.08985799999988
 51
0.029425
  0
ARC
  5
121
  8
0
 62
     7
 10
115.22830399999999
 20
95.925506999999996
 30
0.0
 40
1.932750999999999
 50
335.7535759999999
 51
349.50163199999992
  0
ARC
  5
122
  8
0
 62
     7
 10
115.922411
 20
95.630678000000003
 30
0.0
 40
1.1789099999999999
 50
312.13142599999992
 51
334.96514100000002
  0
ARC
  5
123
  8
0
 62
     7
 10
116.17067299999989
 20
95.396782000000002
 30
0.0
 40
0.8393489999999999
 50
269.69835099999989
 51
310.27385299999992
  0
ARC
  5
124
  8
0
 62
     7
 10
116.1696929999999
 20
95.435792000000006
 30
0.0
 40
0.878354
 50
228.33290600000001
 51
269.77563800000001
  0
ARC
  5
125
  8
0
 62
     7
 10
116.376667
 20
95.695830999999998
 30
0.0
 40
1.2103429999999991
 50
205.29910899999999
 51
229.1973999999999
  0
ARC
  5
126
  8
0
 62
     7
 10
116.92903799999991
 20
95.996041000000005
 30
0.0
 40
1.838368
 50
187.45328000000001
 51
206.40135799999999
  0
ARC
  5
127
  8
0
 62
     7
 10
117.70340400000001
 20
96.144269999999992
 30
0.0
 40
2.6258319999999991
 50
179.75200000000001
 51
188.46856699999989
  0
ARC
  5
128
  8
0
 62
     7
 10
115.2255659999999
 20
96.155139000000005
 30
0.0
 40
0.147971
 50
150.87282999999999
 51
179.80816799999991
  0
ARC
  5
129
  8
0
 62
     7
 10
115.3195489999999
 20
96.110279000000006
 30
0.0
 40
0.251989
 50
140.09034700000001
 51
152.3643689999999
  0
ARC
  5
12A
  8
0
 62
     7
 10
115.42840200000001
 20
96.019000000000005
 30
0.0
 40
0.394049
 50
129.14453700000001
 51
140.06435699999989
  0
ARC
  5
12B
  8
0
 62
     7
 10
115.62235
 20
95.778091000000003
 30
0.0
 40
0.703325
 50
113.0244559999999
 51
129.0090459999999
  0
ARC
  5
12C
  8
0
 62
     7
 10
115.88894499999989
 20
95.215896999999984
 30
0.0
 40
1.325248999999999
 50
102.412436
 51
114.125666
  0
ARC
  5
12D
  8
0
 62
     7
 10
116.05523100000001
 20
94.542174000000003
 30
0.0
 40
2.0190440000000001
 50
89.449961999999999
 51
102.9114499999999
  0
ARC
  5
12E
  8
0
 62
     7
 10
116.16481
 20
93.449393999999984
 30
0.0
 40
0.6629430000000001
 50
58.870403000000003
 51
89.875258999999986
  0
ARC
  5
12F
  8
0
 62
     7
 10
116.02240500000001
 20
93.185648
 30
0.0
 40
0.9624379999999998
 50
38.871957000000002
 51
59.730743000000011
  0
ARC
  5
130
  8
0
 62
     7
 10
115.58527100000001
 20
92.795399000000003
 30
0.0
 40
1.547963
 50
24.370028999999999
 51
39.963614999999997
  0
ARC
  5
131
  8
0
 62
     7
 10
114.846311
 20
92.429372999999984
 30
0.0
 40
2.3722849999999989
 50
7.2133589999999987
 51
25.058320999999999
  0
ARC
  5
132
  8
0
 62
     7
 10
114.19560799999999
 20
92.299573999999993
 30
0.0
 40
3.0345019999999998
 50
359.90781099999992
 51
8.1020669999999981
  0
ARC
  5
133
  8
0
 62
     7
 10
114.259079
 20
92.294774999999987
 30
0.0
 40
2.9710259999999988
 50
341.87788
 51
359.99838299999988
  0
ARC
  5
134
  8
0
 62
     7
 10
115.2187379999999
 20
92.010050000000007
 30
0.0
 40
1.9706060000000001
 50
323.50165299999992
 51
341.06682599999999
  0
ARC
  5
135
  8
0
 62
     7
 10
115.90876299999989
 20
91.532059000000004
 30
0.0
 40
1.1319069999999991
 50
303.41565800000001
 51
322.17624899999998
  0
ARC
  5
136
  8
0
 62
     7
 10
116.14985299999999
 20
91.193856999999994
 30
0.0
 40
0.7169970000000001
 50
271.31069999999988
 51
302.21800100000002
  0
ARC
  5
137
  8
0
 62
     7
 10
116.1677139999999
 20
91.139545999999996
 30
0.0
 40
0.6625
 50
238.86515099999991
 51
269.87372499999992
  0
ARC
  5
138
  8
0
 62
     7
 10
116.3101399999999
 20
91.404083
 30
0.0
 40
0.9626879999999998
 50
218.89402499999991
 51
239.75021000000001
  0
ARC
  5
139
  8
0
 62
     7
 10
116.7468579999999
 20
91.794747000000001
 30
0.0
 40
1.5481679999999991
 50
204.40329199999999
 51
219.99879300000001
  0
ARC
  5
13A
  8
0
 62
     7
 10
117.481058
 20
92.159821999999991
 30
0.0
 40
2.3677860000000002
 50
187.22517500000001
 51
205.10794199999989
  0
ARC
  5
13B
  8
0
 62
     7
 10
118.13343
 20
92.290030999999985
 30
0.0
 40
3.0317210000000001
 50
179.91189700000001
 51
188.11585600000001
  0
ARC
  5
13C
  8
0
 62
     7
 10
118.06533399999999
 20
92.294620999999992
 30
0.0
 40
2.963620999999999
 50
161.83433500000001
 51
179.998614
  0
ARC
  5
13D
  8
0
 62
     7
 10
117.115506
 20
92.576982999999984
 30
0.0
 40
1.9733000000000001
 50
143.47813300000001
 51
161.02613199999999
  0
ARC
  5
13E
  8
0
 62
     7
 10
116.42473200000001
 20
93.056072999999998
 30
0.0
 40
1.1333519999999999
 50
123.41551200000001
 51
142.159097
  0
ARC
  5
13F
  8
0
 62
     7
 10
116.1828899999999
 20
93.395650999999987
 30
0.0
 40
0.716878
 50
91.329794000000007
 51
122.228009
  0
LINE
  5
140
  8
0
 62
     7
 10
118.2439999999999
 20
88.830299999999994
 30
0.0
 11
118.2439999999999
 21
95.818399999999997
 31
0.0
  0
ARC
  5
141
  8
0
 62
     7
 10
117.67454600000001
 20
88.832070999999985
 30
0.0
 40
0.569116
 50
319.16445699999991
 51
359.819863
  0
ARC
  5
142
  8
0
 62
     7
 10
117.817319
 20
88.728699000000006
 30
0.0
 40
0.393794
 50
272.282377
 51
316.95992799999988
  0
ARC
  5
143
  8
0
 62
     7
 10
117.829651
 20
95.938242999999986
 30
0.0
 40
0.372781
 50
37.143253000000001
 51
89.485022000000001
  0
ARC
  5
144
  8
0
 62
     7
 10
117.71246600000001
 20
95.830703999999997
 30
0.0
 40
0.531336
 50
358.66854699999999
 51
38.757253000000013
  0
LINE
  5
145
  8
0
 62
     7
 10
113.9259999999999
 20
88.509200000000007
 30
0.0
 11
113.9259999999999
 21
95.984399999999994
 31
0.0
  0
LINE
  5
146
  8
0
 62
     7
 10
113.9259999999999
 20
88.509200000000007
 30
0.0
 11
114.06999999999999
 21
88.3352
 31
0.0
  0
LINE
  5
147
  8
0
 62
     7
 10
114.06999999999999
 20
96.155600000000021
 30
0.0
 11
113.9259999999999
 21
95.984399999999994
 31
0.0
  0
LINE
  5
148
  8
0
 62
     7
 10
115.0779999999999
 20
96.155600000000021
 30
0.0
 11
114.06999999999999
 21
96.155600000000021
 31
0.0
  0
LINE
  5
149
  8
0
 62
     7
 10
63.124400000000001
 20
85.831699999999998
 30
0.0
 11
62.629600000000003
 21
85.368600000000001
 31
0.0
  0
LINE
  5
14A
  8
0
 62
     7
 10
48.966299999999997
 20
85.831699999999998
 30
0.0
 11
49.461000000000013
 21
85.368600000000001
 31
0.0
  0
LINE
  5
14B
  8
0
 62
     7
 10
62.629600000000003
 20
85.368600000000001
 30
0.0
 11
62.629600000000003
 21
88.702100000000002
 31
0.0
  0
LINE
  5
14C
  8
0
 62
     7
 10
63.124400000000001
 20
85.831699999999998
 30
0.0
 11
63.124400000000001
 21
88.702100000000002
 31
0.0
  0
LINE
  5
14D
  8
0
 62
     7
 10
49.461000000000013
 20
85.368600000000001
 30
0.0
 11
49.461000000000013
 21
88.702100000000002
 31
0.0
  0
LINE
  5
14E
  8
0
 62
     7
 10
48.966299999999997
 20
85.831699999999998
 30
0.0
 11
48.966299999999997
 21
88.702100000000002
 31
0.0
  0
LINE
  5
14F
  8
0
 62
     7
 10
63.124400000000001
 20
85.831699999999998
 30
0.0
 11
48.966299999999997
 21
85.831699999999998
 31
0.0
  0
LINE
  5
150
  8
0
 62
     7
 10
62.629600000000003
 20
85.368600000000001
 30
0.0
 11
49.461000000000013
 21
85.368600000000001
 31
0.0
  0
LINE
  5
151
  8
0
 62
     7
 10
107.9679999999999
 20
85.831699999999998
 30
0.0
 11
107.474
 21
85.368600000000001
 31
0.0
  0
LINE
  5
152
  8
0
 62
     7
 10
93.810400000000001
 20
85.831699999999998
 30
0.0
 11
94.305099999999996
 21
85.368600000000001
 31
0.0
  0
LINE
  5
153
  8
0
 62
     7
 10
151.39099999999991
 20
95.258200000000016
 30
0.0
 11
151.98299999999989
 21
93.0471
 31
0.0
  0
LINE
  5
154
  8
0
 62
     7
 10
151.98299999999989
 20
93.0471
 30
0.0
 11
152.5749999999999
 21
95.258200000000016
 31
0.0
  0
LINE
  5
155
  8
0
 62
     7
 10
152.5749999999999
 20
95.258200000000016
 30
0.0
 11
151.39099999999991
 21
95.258200000000016
 31
0.0
  0
LINE
  5
156
  8
0
 62
     7
 10
152.56499999999991
 20
89.137600000000006
 30
0.0
 11
151.9729999999999
 21
91.347999999999999
 31
0.0
  0
LINE
  5
157
  8
0
 62
     7
 10
151.9729999999999
 20
91.347999999999999
 30
0.0
 11
151.381
 21
89.137600000000006
 31
0.0
  0
LINE
  5
158
  8
0
 62
     7
 10
151.381
 20
89.137600000000006
 30
0.0
 11
152.56499999999991
 21
89.137600000000006
 31
0.0
  0
LINE
  5
159
  8
0
 62
     7
 10
151.97799999999989
 20
88.897800000000004
 30
0.0
 11
151.97799999999989
 21
99.531800000000004
 31
0.0
  0
LINE
  5
15A
  8
0
 62
     7
 10
168.59899999999999
 20
76.152900000000002
 30
0.0
 11
170.809
 21
76.744799999999984
 31
0.0
  0
LINE
  5
15B
  8
0
 62
     7
 10
170.809
 20
76.744799999999984
 30
0.0
 11
168.59899999999999
 21
77.337400000000002
 31
0.0
  0
LINE
  5
15C
  8
0
 62
     7
 10
168.59899999999999
 20
77.337400000000002
 30
0.0
 11
168.59899999999999
 21
76.152900000000002
 31
0.0
  0
LINE
  5
15D
  8
0
 62
     7
 10
103.1079999999999
 20
77.327699999999993
 30
0.0
 11
100.899
 21
76.735200000000006
 31
0.0
  0
LINE
  5
15E
  8
0
 62
     7
 10
100.899
 20
76.735200000000006
 30
0.0
 11
103.1079999999999
 21
76.143299999999996
 31
0.0
  0
LINE
  5
15F
  8
0
 62
     7
 10
103.1079999999999
 20
76.143299999999996
 30
0.0
 11
103.1079999999999
 21
77.327699999999993
 31
0.0
  0
LINE
  5
160
  8
0
 62
     7
 10
170.809
 20
76.740300000000005
 30
0.0
 11
100.899
 21
76.740300000000005
 31
0.0
  0
LINE
  5
161
  8
0
 62
     7
 10
87.743200000000016
 20
100.163
 30
0.0
 11
87.150300000000001
 21
102.3739999999999
 31
0.0
  0
LINE
  5
162
  8
0
 62
     7
 10
87.150300000000001
 20
102.3739999999999
 30
0.0
 11
86.558099999999996
 21
100.163
 31
0.0
  0
LINE
  5
163
  8
0
 62
     7
 10
86.558099999999996
 20
100.163
 30
0.0
 11
87.743200000000016
 21
100.163
 31
0.0
  0
LINE
  5
164
  8
0
 62
     7
 10
86.567999999999998
 20
90.917999999999992
 30
0.0
 11
87.159899999999993
 21
88.707599999999999
 31
0.0
  0
LINE
  5
165
  8
0
 62
     7
 10
87.159899999999993
 20
88.707599999999999
 30
0.0
 11
87.752499999999984
 21
90.917999999999992
 31
0.0
  0
LINE
  5
166
  8
0
 62
     7
 10
87.752499999999984
 20
90.917999999999992
 30
0.0
 11
86.567999999999998
 21
90.917999999999992
 31
0.0
  0
LINE
  5
167
  8
0
 62
     7
 10
87.155799999999999
 20
102.3739999999999
 30
0.0
 11
87.155799999999999
 21
88.702100000000002
 31
0.0
  0
LINE
  5
168
  8
0
 62
     7
 10
170.8899999999999
 20
90.825699999999998
 30
0.0
 11
170.8899999999999
 21
75.953500000000005
 31
0.0
  0
LINE
  5
169
  8
0
 62
     7
 10
107.9679999999999
 20
68.665999999999997
 30
0.0
 11
107.9679999999999
 21
84.952100000000002
 31
0.0
  0
LINE
  5
16A
  8
0
 62
     7
 10
105.7029999999999
 20
68.703599999999994
 30
0.0
 11
107.91500000000001
 21
69.295100000000005
 31
0.0
  0
LINE
  5
16B
  8
0
 62
     7
 10
107.91500000000001
 20
69.295100000000005
 30
0.0
 11
105.7029999999999
 21
69.887600000000006
 31
0.0
  0
LINE
  5
16C
  8
0
 62
     7
 10
105.7029999999999
 20
69.887600000000006
 30
0.0
 11
105.7029999999999
 21
68.703599999999994
 31
0.0
  0
LINE
  5
16D
  8
0
 62
     7
 10
96.032499999999999
 20
69.878
 30
0.0
 11
93.821399999999997
 21
69.285399999999996
 31
0.0
  0
LINE
  5
16E
  8
0
 62
     7
 10
93.821399999999997
 20
69.285399999999996
 30
0.0
 11
96.032499999999999
 21
68.692899999999995
 31
0.0
  0
LINE
  5
16F
  8
0
 62
     7
 10
96.032499999999999
 20
68.692899999999995
 30
0.0
 11
96.032499999999999
 21
69.878
 31
0.0
  0
LINE
  5
170
  8
0
 62
     7
 10
107.91500000000001
 20
69.290999999999997
 30
0.0
 11
93.821399999999997
 21
69.290999999999997
 31
0.0
  0
LINE
  5
171
  8
0
 62
     7
 10
93.810400000000001
 20
84.952100000000002
 30
0.0
 11
93.810400000000001
 21
68.665999999999997
 31
0.0
  0
LINE
  5
172
  8
0
 62
     7
 10
86.322100000000006
 20
88.702100000000002
 30
0.0
 11
92.866399999999999
 21
88.702100000000002
 31
0.0
  0
LINE
  5
173
  8
0
 62
     7
 10
86.322100000000006
 20
102.3689999999999
 30
0.0
 11
90.329400000000007
 21
102.3689999999999
 31
0.0
  0
LINE
  5
174
  8
0
  6
AIGENLINE002
 62
     7
 10
100.89
 20
92.242000000000004
 30
0.0
 11
171.959
 21
92.242000000000004
 31
0.0
  0
LINE
  5
175
  8
0
 62
     7
 10
119.205
 20
102.3689999999999
 30
0.0
 11
111.429
 21
102.3689999999999
 31
0.0
  0
LINE
  5
176
  8
0
 62
     7
 10
118.01299999999991
 20
104.5889999999999
 30
0.0
 11
118.605
 21
102.37899999999991
 31
0.0
  0
LINE
  5
177
  8
0
 62
     7
 10
118.605
 20
102.37899999999991
 30
0.0
 11
119.1969999999999
 21
104.5889999999999
 31
0.0
  0
LINE
  5
178
  8
0
 62
     7
 10
119.1969999999999
 20
104.5889999999999
 30
0.0
 11
118.01299999999991
 21
104.5889999999999
 31
0.0
  0
LINE
  5
179
  8
0
 62
     7
 10
119.1879999999999
 20
110.6689999999999
 30
0.0
 11
118.596
 21
112.87899999999991
 31
0.0
  0
LINE
  5
17A
  8
0
 62
     7
 10
118.596
 20
112.87899999999991
 30
0.0
 11
118.0029999999999
 21
110.6689999999999
 31
0.0
  0
LINE
  5
17B
  8
0
 62
     7
 10
118.0029999999999
 20
110.6689999999999
 30
0.0
 11
119.1879999999999
 21
110.6689999999999
 31
0.0
  0
LINE
  5
17C
  8
0
 62
     7
 10
118.601
 20
102.37899999999991
 30
0.0
 11
118.601
 21
112.87899999999991
 31
0.0
  0
LINE
  5
17D
  8
0
 62
     7
 10
112.09699999999999
 20
112.92699999999989
 30
0.0
 11
119.205
 21
112.92699999999989
 31
0.0
  0
LINE
  5
17E
  8
0
 62
     7
 10
100.89
 20
83.016300000000015
 30
0.0
 11
100.89
 21
76.018600000000006
 31
0.0
  0
LINE
  5
17F
  8
0
  6
AIGENLINE001
 62
     7
 10
100.89
 20
122.7119999999999
 30
0.0
 11
100.89
 21
83.470699999999994
 31
0.0
  0
LINE
  5
180
  8
0
 62
     7
 10
118.2439999999999
 20
93.074700000000007
 30
0.0
 11
170.8899999999999
 21
93.074700000000007
 31
0.0
  0
LINE
  5
181
  8
0
 62
     7
 10
170.8899999999999
 20
93.074700000000007
 30
0.0
 11
170.8899999999999
 21
91.408299999999997
 31
0.0
  0
LINE
  5
182
  8
0
 62
     7
 10
170.8899999999999
 20
91.408299999999997
 30
0.0
 11
118.2439999999999
 21
91.408299999999997
 31
0.0
  0
LINE
  5
183
  8
0
 62
     7
 10
170.35900000000001
 20
93.077399999999997
 30
0.0
 11
170.35900000000001
 21
91.401700000000005
 31
0.0
  0
LINE
  5
184
  8
0
 62
     7
 10
113.3359999999999
 20
95.308499999999995
 30
0.0
 11
108.20399999999989
 21
95.308499999999995
 31
0.0
  0
LINE
  5
185
  8
0
 62
     7
 10
113.3359999999999
 20
89.174400000000006
 30
0.0
 11
108.20399999999989
 21
89.174400000000006
 31
0.0
  0
LINE
  5
186
  8
0
 62
     7
 10
107.474
 20
85.368600000000001
 30
0.0
 11
107.474
 21
88.702100000000002
 31
0.0
  0
LINE
  5
187
  8
0
 62
     7
 10
107.9679999999999
 20
85.831699999999998
 30
0.0
 11
107.9679999999999
 21
88.702100000000002
 31
0.0
  0
LINE
  5
188
  8
0
 62
     7
 10
94.305099999999996
 20
85.368600000000001
 30
0.0
 11
94.305099999999996
 21
88.702100000000002
 31
0.0
  0
LINE
  5
189
  8
0
 62
     7
 10
93.810400000000001
 20
85.831699999999998
 30
0.0
 11
93.810400000000001
 21
88.702100000000002
 31
0.0
  0
LINE
  5
18A
  8
0
 62
     7
 10
113.9259999999999
 20
88.878500000000003
 30
0.0
 11
113.3359999999999
 21
88.878500000000003
 31
0.0
  0
LINE
  5
18B
  8
0
 62
     7
 10
113.3359999999999
 20
88.878500000000003
 30
0.0
 11
113.3359999999999
 21
95.603399999999993
 31
0.0
  0
LINE
  5
18C
  8
0
 62
     7
 10
113.3359999999999
 20
95.603399999999993
 30
0.0
 11
113.9259999999999
 21
95.603399999999993
 31
0.0
  0
LINE
  5
18D
  8
0
 62
     7
 10
107.9679999999999
 20
85.831699999999998
 30
0.0
 11
93.810400000000001
 21
85.831699999999998
 31
0.0
  0
LINE
  5
18E
  8
0
 62
     7
 10
107.474
 20
85.368600000000001
 30
0.0
 11
94.305099999999996
 21
85.368600000000001
 31
0.0
  0
LINE
  5
18F
  8
0
 62
     7
 10
108.20399999999989
 20
99.152500000000003
 30
0.0
 11
108.20399999999989
 21
88.702100000000002
 31
0.0
  0
LINE
  5
190
  8
0
 62
     7
 10
108.20399999999989
 20
88.702100000000002
 30
0.0
 11
93.573999999999998
 21
88.702100000000002
 31
0.0
  0
LINE
  5
191
  8
0
 62
     7
 10
93.573999999999998
 20
88.702100000000002
 30
0.0
 11
93.573999999999998
 21
99.152500000000003
 31
0.0
  0
LINE
  5
192
  8
0
 62
     7
 10
90.388700000000014
 20
112.92699999999989
 30
0.0
 11
90.388700000000014
 21
113.40000000000001
 31
0.0
  0
LINE
  5
193
  8
0
 62
     7
 10
90.388700000000014
 20
113.40000000000001
 30
0.0
 11
111.389
 21
113.40000000000001
 31
0.0
  0
LINE
  5
194
  8
0
 62
     7
 10
111.389
 20
113.40000000000001
 30
0.0
 11
111.389
 21
112.92699999999989
 31
0.0
  0
LINE
  5
195
  8
0
 62
     7
 10
107.6729999999999
 20
110.214
 30
0.0
 11
111.389
 21
112.92699999999989
 31
0.0
  0
LINE
  5
196
  8
0
 62
     7
 10
111.389
 20
112.92699999999989
 30
0.0
 11
90.388700000000014
 21
112.92699999999989
 31
0.0
  0
LINE
  5
197
  8
0
 62
     7
 10
90.388700000000014
 20
112.92699999999989
 30
0.0
 11
94.105299999999986
 21
110.214
 31
0.0
  0
LINE
  5
198
  8
_________2
 62
     7
 10
100.2999999999999
 20
-4.0910799999999998
 30
0.0
 11
100.2999999999999
 21
-21.071400000000001
 31
0.0
  0
LINE
  5
199
  8
_________2
 62
     7
 10
76.741200000000006
 20
29.8047
 30
0.0
 11
74.554900000000004
 21
29.8047
 31
0.0
  0
LINE
  5
19A
  8
_________2
 62
     7
 10
77.233800000000002
 20
29.8047
 30
0.0
 11
76.981700000000004
 21
29.8047
 31
0.0
  0
LINE
  5
19B
  8
_________2
 62
     7
 10
77.726500000000001
 20
29.8047
 30
0.0
 11
80.651399999999995
 21
29.8047
 31
0.0
  0
LINE
  5
19C
  8
_________2
 62
     7
 10
77.233800000000002
 20
29.8047
 30
0.0
 11
77.486000000000004
 21
29.8047
 31
0.0
  0
LINE
  5
19D
  8
_________2
 62
     7
 10
70.837599999999995
 20
29.8047
 30
0.0
 11
68.650700000000001
 21
29.8047
 31
0.0
  0
LINE
  5
19E
  8
_________2
 62
     7
 10
71.329599999999999
 20
29.8047
 30
0.0
 11
71.078100000000006
 21
29.8047
 31
0.0
  0
LINE
  5
19F
  8
_________2
 62
     7
 10
71.329599999999999
 20
30.2974
 30
0.0
 11
71.329599999999999
 21
32.484400000000001
 31
0.0
  0
LINE
  5
1A0
  8
_________2
 62
     7
 10
71.329599999999999
 20
29.8047
 30
0.0
 11
71.329599999999999
 21
30.056899999999992
 31
0.0
  0
LINE
  5
1A1
  8
_________2
 62
     7
 10
71.822299999999998
 20
29.8047
 30
0.0
 11
74.009200000000007
 21
29.8047
 31
0.0
  0
LINE
  5
1A2
  8
_________2
 62
     7
 10
71.329599999999999
 20
29.8047
 30
0.0
 11
71.581800000000001
 21
29.8047
 31
0.0
  0
LINE
  5
1A3
  8
_________2
 62
     7
 10
71.329599999999999
 20
29.312799999999999
 30
0.0
 11
71.329599999999999
 21
27.125800000000002
 31
0.0
  0
LINE
  5
1A4
  8
_________2
 62
     7
 10
71.329599999999999
 20
29.8047
 30
0.0
 11
71.329599999999999
 21
29.5532
 31
0.0
  0
LINE
  5
1A5
  8
_________2
 62
     7
 10
75.040700000000001
 20
28.5852
 30
0.0
 11
80.218699999999984
 21
27.720400000000001
 31
0.0
  0
LINE
  5
1A6
  8
_________2
 62
     7
 10
75.040700000000001
 20
31.0243
 30
0.0
 11
80.218699999999984
 21
31.889700000000001
 31
0.0
  0
LINE
  5
1A7
  8
_________2
 62
     7
 10
80.218699999999984
 20
27.720400000000001
 30
0.0
 11
80.218699999999984
 21
31.889700000000001
 31
0.0
  0
LINE
  5
1A8
  8
_________2
 62
     7
 10
75.040700000000001
 20
28.5852
 30
0.0
 11
75.040700000000001
 21
31.0243
 31
0.0
  0
ARC
  5
1A9
  8
_________2
 62
     7
 10
71.283361999999997
 20
29.757787
 30
0.0
 40
1.2673709999999989
 50
2.1232950000000002
 51
87.909056000000007
  0
ARC
  5
1AA
  8
_________2
 62
     7
 10
71.376132999999996
 20
29.758213000000001
 30
0.0
 40
1.2669559999999991
 50
92.104701000000006
 51
177.8952689999999
  0
ARC
  5
1AB
  8
_________2
 62
     7
 10
71.376530000000002
 20
29.851671
 30
0.0
 40
1.2673680000000001
 50
182.12203600000001
 51
267.877993
  0
ARC
  5
1AC
  8
_________2
 62
     7
 10
71.282713000000001
 20
29.852347999999999
 30
0.0
 40
1.2680439999999991
 50
272.11916400000001
 51
357.84848499999993
  0
ARC
  5
1AD
  8
_________2
 62
     7
 10
71.329602000000008
 20
29.804742999999998
 30
0.0
 40
2.0849849999999992
 50
0.00001
 51
89.999980000000008
  0
ARC
  5
1AE
  8
_________2
 62
     7
 10
71.409248000000005
 20
29.725812999999992
 30
0.0
 40
2.165379999999999
 50
92.107876000000005
 51
177.91103200000001
  0
ARC
  5
1AF
  8
_________2
 62
     7
 10
71.409610999999998
 20
29.884751999999999
 30
0.0
 40
2.1657829999999998
 50
182.117133
 51
267.88289700000001
  0
ARC
  5
1B0
  8
_________2
 62
     7
 10
71.249631000000008
 20
29.885429999999989
 30
0.0
 40
2.1664590000000001
 50
272.11546800000002
 51
357.86560400000002
  0
TEXT
  5
1B1
  8
_________2
 62
     7
 10
104.605
 20
1.6794899999999999
 30
0.0
 40
3.0923400000000001
  1
図番
 41
0.5
  0
LINE
  5
1B2
  8
_________2
 62
     7
 10
103.55
 20
5.9087199999999989
 30
0.0
 11
183.55099999999999
 21
5.9087199999999989
 31
0.0
  0
TEXT
  5
1B3
  8
_________2
 62
     7
 10
104.605
 20
11.679299999999991
 30
0.0
 40
3.0923400000000001
  1
品番
 41
0.5
  0
TEXT
  5
1B4
  8
_________2
 62
     7
 10
104.605
 20
31.818100000000001
 30
0.0
 40
3.0923400000000001
  1
名称
 41
0.5
  0
TEXT
  5
1B5
  8
_________2
 62
     7
 10
91.845258333333334
 20
26.821999999999989
 30
0.0
 40
3.6545800000000002
  1
mm
 41
0.5
 72
     1
 11
93.367999999999995
 21
26.821999999999989
 31
0.0
  0
TEXT
  5
1B6
  8
_________2
 62
     7
 10
85.643399999999986
 20
31.818100000000001
 30
0.0
 40
3.0923400000000001
  1
単位
 41
0.5
  0
TEXT
  5
1B7
  8
_________2
 62
     7
 10
85.643399999999986
 20
19.410799999999991
 30
0.0
 40
3.0923400000000001
  1
尺度
 41
0.5
  0
TEXT
  5
1B8
  8
_________2
 62
     7
 10
90.548958666666664
 20
13.2179
 30
0.0
 40
3.6545800000000002
  1
1 ： 3
 41
0.5
 72
     1
 11
93.959900000000005
 21
13.2179
 31
0.0
  0
TEXT
  5
1B9
  8
_________2
 62
     7
 10
137.97442499999991
 20
9.1078600000000005
 30
0.0
 40
3.9357000000000002
  1
CET324
 41
0.5
 72
     1
 11
143.55000000000001
 21
9.1078600000000005
 31
0.0
  0
TEXT
  5
1BA
  8
_________2
 62
     7
 10
137.97442499999991
 20
-0.8926299999999999
 30
0.0
 40
3.9357000000000002
  1
CET324
 41
0.5
 72
     1
 11
143.55000000000001
 21
-0.8926299999999999
 31
0.0
  0
TEXT
  5
1BB
  8
_________2
 62
     7
 10
24.5869
 20
0.707283
 30
0.0
 40
3.9357000000000002
  1
ヨーロッパ製洗面器用
 41
0.5
  0
TEXT
  5
1BC
  8
_________2
 62
     7
 10
21.71599999999999
 20
40.929000000000002
 30
0.0
 40
4.4979399999999989
  1
※VB514400・VB515110・VB515400専用品です。
 41
0.5
  0
TEXT
  5
1BD
  8
_________2
 62
     7
 10
109.179
 20
24.2257
 30
0.0
 40
3.9357000000000002
  1
ポップアップ式排水ヘッド部（陶器製）
 41
0.5
  0
TEXT
  5
1BE
  8
_________2
 62
     7
 10
39.425500333333332
 20
13.603
 30
0.0
 40
3.6545800000000002
  1
早川
 41
0.5
 72
     1
 11
41.31369999999999
 21
13.603
 31
0.0
  0
TEXT
  5
1BF
  8
_________2
 62
     7
 10
20.79059066666666
 20
13.603
 30
0.0
 40
3.6545800000000002
  1
菅原
 41
0.5
 72
     1
 11
22.739699999999988
 21
13.603
 31
0.0
  0
TEXT
  5
1C0
  8
_________2
 62
     7
 10
67.786000000000001
 20
13.2179
 30
0.0
 40
3.6545800000000002
  1
13.09.17
 41
0.5
  0
TEXT
  5
1C1
  8
_________2
 62
     7
 10
66.593299999999999
 20
19.410799999999991
 30
0.0
 40
3.0923400000000001
  1
日付
 41
0.5
  0
TEXT
  5
1C2
  8
_________2
 62
     7
 10
29.639500000000002
 20
19.410799999999991
 30
0.0
 40
3.0923400000000001
  1
検図
 41
0.5
  0
TEXT
  5
1C3
  8
_________2
 62
     7
 10
18.0212
 20
5.21143
 30
0.0
 40
3.0923400000000001
  1
備考
 41
0.5
  0
TEXT
  5
1C4
  8
_________2
 62
     7
 10
18.0212
 20
19.410799999999991
 30
0.0
 40
3.0923400000000001
  1
製図
 41
0.5
  0
TEXT
  5
1C5
  8
_________2
 62
     7
 10
23.788665333333341
 20
27.936800000000002
 30
0.0
 40
4.4979399999999989
  1
セラトレーディング株式会社
 41
0.5
 72
     1
 11
41.180700000000002
 21
27.936800000000002
 31
0.0
  0
LINE
  5
1C6
  8
_________2
 62
     7
 10
183.55099999999999
 20
-4.0910799999999998
 30
0.0
 11
17.049700000000001
 21
-4.0910799999999998
 31
0.0
  0
LINE
  5
1C7
  8
_________2
 62
     7
 10
17.049700000000001
 20
-4.0910799999999998
 30
0.0
 11
17.049700000000001
 21
258.91000000000003
 31
0.0
  0
LINE
  5
1C8
  8
_________2
 62
     7
 10
17.049700000000001
 20
258.91000000000003
 30
0.0
 11
183.55099999999999
 21
258.91000000000003
 31
0.0
  0
LINE
  5
1C9
  8
_________2
 62
     7
 10
183.55099999999999
 20
258.91000000000003
 30
0.0
 11
183.55099999999999
 21
-4.0910799999999998
 31
0.0
  0
LINE
  5
1CA
  8
_________2
 62
     7
 10
65.5501
 20
9.4089600000000004
 30
0.0
 11
65.5501
 21
35.908799999999999
 31
0.0
  0
LINE
  5
1CB
  8
_________2
 62
     7
 10
84.549899999999994
 20
9.4089600000000004
 30
0.0
 11
84.549899999999994
 21
35.908799999999999
 31
0.0
  0
LINE
  5
1CC
  8
_________2
 62
     7
 10
103.55
 20
-4.0910799999999998
 30
0.0
 11
103.55
 21
35.908799999999999
 31
0.0
  0
LINE
  5
1CD
  8
_________2
 62
     7
 10
28.549499999999998
 20
9.4089600000000004
 30
0.0
 11
28.549499999999998
 21
23.409199999999998
 31
0.0
  0
LINE
  5
1CE
  8
_________2
 62
     7
 10
17.049700000000001
 20
9.4089600000000004
 30
0.0
 11
103.55
 21
9.4089600000000004
 31
0.0
  0
LINE
  5
1CF
  8
_________2
 62
     7
 10
17.049700000000001
 20
23.409199999999998
 30
0.0
 11
103.55
 21
23.409199999999998
 31
0.0
  0
LINE
  5
1D0
  8
_________2
 62
     7
 10
103.55
 20
15.9085
 30
0.0
 11
183.55099999999999
 21
15.9085
 31
0.0
  0
LINE
  5
1D1
  8
_________2
 62
     7
 10
17.049700000000001
 20
35.908799999999999
 30
0.0
 11
183.55099999999999
 21
35.908799999999999
 31
0.0
  0
LINE
  5
1D2
  8
_________2
 62
     7
 10
205.30099999999999
 20
127.41200000000001
 30
0.0
 11
183.55099999999999
 21
127.41200000000001
 31
0.0
  0
LINE
  5
1D3
  8
_________2
 62
     7
 10
100.2999999999999
 20
275.93099999999993
 30
0.0
 11
100.2999999999999
 21
258.911
 31
0.0
  0
LINE
  5
1D4
  8
_________2
 62
     7
 10
17.049499999999998
 20
127.41200000000001
 30
0.0
 11
-4.70052
 21
127.41200000000001
 31
0.0
  0
ENDSEC
  0
EOF
