  0
SECTION
  2
HEADER
  9
$ACADVER
  1
AC1009
  9
$INSBASE
 10
0.0
 20
0.0
 30
0.0
  9
$EXTMIN
 10
-104.794
 20
0.176045
 30
0.0
  9
$EXTMAX
 10
315.209
 20
297.178
 30
0.0
  9
$LIMMIN
 10
0.0
 20
0.0
  9
$LIMMAX
 10
12.0
 20
9.0
  9
$ORTHOMODE
 70
     0
  9
$REGENMODE
 70
     1
  9
$FILLMODE
 70
     1
  9
$QTEXTMODE
 70
     0
  9
$MIRRTEXT
 70
     1
  9
$DRAGMODE
 70
     2
  9
$LTSCALE
 40
1.0
  9
$OSMODE
 70
    37
  9
$ATTMODE
 70
     1
  9
$TEXTSIZE
 40
0.0
  9
$TRACEWID
 40
0.05
  9
$TEXTSTYLE
  7
STANDARD
  9
$CLAYER
  8
0
  9
$CELTYPE
  6
CONTINUOUS
  9
$CECOLOR
 62
   256
  9
$DIMSCALE
 40
1.0
  9
$DIMASZ
 40
0.18
  9
$DIMEXO
 40
0.0625
  9
$DIMDLI
 40
0.38
  9
$DIMRND
 40
0.0
  9
$DIMDLE
 40
0.0
  9
$DIMEXE
 40
0.18
  9
$DIMTP
 40
0.0
  9
$DIMTM
 40
0.0
  9
$DIMTXT
 40
0.18
  9
$DIMCEN
 40
0.09
  9
$DIMTSZ
 40
0.0
  9
$DIMTOL
 70
     0
  9
$DIMLIM
 70
     0
  9
$DIMTIH
 70
     1
  9
$DIMTOH
 70
     1
  9
$DIMSE1
 70
     0
  9
$DIMSE2
 70
     0
  9
$DIMTAD
 70
     0
  9
$DIMZIN
 70
     0
  9
$DIMBLK
  1

  9
$DIMASO
 70
     1
  9
$DIMSHO
 70
     1
  9
$DIMPOST
  1

  9
$DIMAPOST
  1

  9
$DIMALT
 70
     0
  9
$DIMALTD
 70
     2
  9
$DIMALTF
 40
25.399999999999999
  9
$DIMLFAC
 40
1.0
  9
$DIMTOFL
 70
     0
  9
$DIMTVP
 40
0.0
  9
$DIMTIX
 70
     0
  9
$DIMSOXD
 70
     0
  9
$DIMSAH
 70
     0
  9
$DIMBLK1
  1

  9
$DIMBLK2
  1

  9
$DIMSTYLE
  2
STANDARD
  9
$DIMCLRD
 70
     0
  9
$DIMCLRE
 70
     0
  9
$DIMCLRT
 70
     0
  9
$DIMTFAC
 40
1.0
  9
$DIMGAP
 40
0.09
  9
$LUNITS
 70
     2
  9
$LUPREC
 70
     4
  9
$SKETCHINC
 40
0.1
  9
$FILLETRAD
 40
0.0
  9
$AUNITS
 70
     0
  9
$AUPREC
 70
     0
  9
$MENU
  1
.
  9
$ELEVATION
 40
0.0
  9
$PELEVATION
 40
0.0
  9
$THICKNESS
 40
0.0
  9
$LIMCHECK
 70
     0
  9
$BLIPMODE
 70
     0
  9
$CHAMFERA
 40
0.0
  9
$CHAMFERB
 40
0.0
  9
$SKPOLY
 70
     0
  9
$TDCREATE
 40
2444972.375
  9
$TDUPDATE
 40
2459017.2488532751
  9
$TDINDWG
 40
0.0000388773
  9
$TDUSRTIMER
 40
0.0000388773
  9
$USRTIMER
 70
     1
  9
$ANGBASE
 50
0.0
  9
$ANGDIR
 70
     0
  9
$PDMODE
 70
     0
  9
$PDSIZE
 40
0.0
  9
$PLINEWID
 40
0.0
  9
$COORDS
 70
     1
  9
$SPLFRAME
 70
     0
  9
$SPLINETYPE
 70
     6
  9
$SPLINESEGS
 70
     8
  9
$ATTDIA
 70
     1
  9
$ATTREQ
 70
     1
  9
$HANDLING
 70
     1
  9
$HANDSEED
  5
421
  9
$SURFTAB1
 70
     6
  9
$SURFTAB2
 70
     6
  9
$SURFTYPE
 70
     6
  9
$SURFU
 70
     6
  9
$SURFV
 70
     6
  9
$UCSNAME
  2

  9
$UCSORG
 10
0.0
 20
0.0
 30
0.0
  9
$UCSXDIR
 10
1.0
 20
0.0
 30
0.0
  9
$UCSYDIR
 10
0.0
 20
1.0
 30
0.0
  9
$PUCSNAME
  2

  9
$PUCSORG
 10
0.0
 20
0.0
 30
0.0
  9
$PUCSXDIR
 10
1.0
 20
0.0
 30
0.0
  9
$PUCSYDIR
 10
0.0
 20
1.0
 30
0.0
  9
$USERI1
 70
     0
  9
$USERI2
 70
     0
  9
$USERI3
 70
     0
  9
$USERI4
 70
     0
  9
$USERI5
 70
     0
  9
$USERR1
 40
0.0
  9
$USERR2
 40
0.0
  9
$USERR3
 40
0.0
  9
$USERR4
 40
0.0
  9
$USERR5
 40
0.0
  9
$WORLDVIEW
 70
     1
  9
$SHADEDGE
 70
     3
  9
$SHADEDIF
 70
    70
  9
$TILEMODE
 70
     1
  9
$MAXACTVP
 70
    48
  9
$PLIMCHECK
 70
     0
  9
$PEXTMIN
 10
1.0000000000000000E+020
 20
1.0000000000000000E+020
 30
1.0000000000000000E+020
  9
$PEXTMAX
 10
-1.0000000000000000E+020
 20
-1.0000000000000000E+020
 30
-1.0000000000000000E+020
  9
$PLIMMIN
 10
0.0
 20
0.0
  9
$PLIMMAX
 10
12.0
 20
9.0
  9
$UNITMODE
 70
     0
  9
$VISRETAIN
 70
     1
  9
$PLINEGEN
 70
     0
  9
$PSLTSCALE
 70
     1
  0
ENDSEC
  0
SECTION
  2
TABLES
  0
TABLE
  2
VPORT
 70
     1
  0
VPORT
  2
*ACTIVE
 70
     0
 10
0.0
 20
0.0
 11
1.0
 21
1.0
 12
165.63430585535349
 22
148.589
 13
0.0
 23
0.0
 14
1.0
 24
1.0
 15
0.0
 25
0.0
 16
0.0
 26
0.0
 36
1.0
 17
0.0
 27
0.0
 37
0.0
 40
279.17601342455151
 41
2.0982367758186391
 42
50.0
 43
0.0
 44
0.0
 50
0.0
 51
0.0
 71
     0
 72
   100
 73
     1
 74
     1
 75
     0
 76
     0
 77
     0
 78
     0
  0
ENDTAB
  0
TABLE
  2
LTYPE
 70
     2
  0
LTYPE
  2
CONTINUOUS
 70
     0
  3
Solid line
 72
    65
 73
     0
 40
0.0
  0
LTYPE
  2
AIGENLINE001
 70
     0
  3
generate AI->DXF Converter
 72
    65
 73
     4
 40
5.8561449999999988
 49
3.5278
 49
-0.776115
 49
0.776115
 49
-0.776115
  0
ENDTAB
  0
TABLE
  2
LAYER
 70
     4
  0
LAYER
  2
0
 70
     0
 62
     7
  6
CONTINUOUS
  0
LAYER
  2
____
 70
     0
 62
     7
  6
CONTINUOUS
  0
LAYER
  2
_________1
 70
     0
 62
     7
  6
CONTINUOUS
  0
LAYER
  2
_________2
 70
     0
 62
     7
  6
CONTINUOUS
  0
ENDTAB
  0
TABLE
  2
STYLE
 70
     1
  0
STYLE
  2
STANDARD
 70
     0
 40
0.0
 41
0.0
 50
0.0
 71
     0
 42
0.0
  3
TXT
  4
EXTFONT.SHX
  0
ENDTAB
  0
TABLE
  2
VIEW
 70
     0
  0
ENDTAB
  0
TABLE
  2
UCS
 70
     0
  0
ENDTAB
  0
TABLE
  2
APPID
 70
     3
  0
APPID
  2
ACAD
 70
     0
  0
APPID
  2
ACAD_NAV_VCDISPLAY
 70
     0
  0
APPID
  2
ACAD_MLEADERVER
 70
     0
  0
ENDTAB
  0
TABLE
  2
DIMSTYLE
 70
     1
  0
DIMSTYLE
  2
STANDARD
 70
     0
  3

  4

  5

  6

  7

 40
1.0
 41
0.18
 42
0.0625
 43
0.38
 44
0.18
 45
0.0
 46
0.0
 47
0.0
 48
0.0
140
0.18
141
0.09
142
0.0
143
25.399999999999999
144
1.0
145
0.0
146
1.0
147
0.09
 71
     0
 72
     0
 73
     1
 74
     1
 75
     0
 76
     0
 77
     0
 78
     0
170
     0
171
     2
172
     0
173
     0
174
     0
175
     0
176
     0
177
     0
178
     0
  0
ENDTAB
  0
ENDSEC
  0
SECTION
  2
BLOCKS
  0
BLOCK
  8
0
  2
$MODEL_SPACE
 70
     0
 10
0.0
 20
0.0
 30
0.0
  3
$MODEL_SPACE
  1

  0
ENDBLK
  5
1A
  8
0
  0
BLOCK
 67
     1
  8
0
  2
$PAPER_SPACE
 70
     0
 10
0.0
 20
0.0
 30
0.0
  3
$PAPER_SPACE
  1

  0
ENDBLK
  5
17
 67
     1
  8
0
  0
BLOCK
  8
_________1
  2
AIGNBL02010002
 70
     0
 10
0.0
 20
0.0
 30
0.0
  3
AIGNBL02010002
  1

  0
LINE
  5
26
  8
_________1
 62
     7
 10
78.619100000000003
 20
81.892799999999994
 30
0.0
 11
78.452399999999997
 21
81.726100000000002
 31
0.0
  0
ARC
  5
27
  8
_________1
 62
     7
 10
75.962266
 20
81.466329999999985
 30
0.0
 40
0.259955
 50
92.129608000000005
 51
177.870362
  0
LINE
  5
28
  8
_________1
 62
     7
 10
63.452300000000001
 20
81.892799999999994
 30
0.0
 11
63.619100000000003
 21
81.726100000000002
 31
0.0
  0
ARC
  5
29
  8
_________1
 62
     7
 10
66.109202999999994
 20
81.466329999999985
 30
0.0
 40
0.259955
 50
2.1296179999999998
 51
87.870372000000003
  0
LINE
  5
2A
  8
_________1
 62
     7
 10
75.702500000000001
 20
81.475999999999999
 30
0.0
 11
75.702500000000001
 21
80.059399999999997
 31
0.0
  0
LINE
  5
2B
  8
_________1
 62
     7
 10
75.702500000000001
 20
80.059399999999997
 30
0.0
 11
66.369
 21
80.059399999999997
 31
0.0
  0
LINE
  5
2C
  8
_________1
 62
     7
 10
66.369
 20
80.059399999999997
 30
0.0
 11
66.369
 21
81.475999999999999
 31
0.0
  0
LINE
  5
2D
  8
_________1
 62
     7
 10
78.452399999999997
 20
81.726100000000002
 30
0.0
 11
63.619100000000003
 21
81.726100000000002
 31
0.0
  0
LINE
  5
2E
  8
_________1
 62
     7
 10
63.452300000000001
 20
81.892799999999994
 30
0.0
 11
63.452300000000001
 21
82.226299999999995
 31
0.0
  0
LINE
  5
2F
  8
_________1
 62
     7
 10
63.452300000000001
 20
82.226299999999995
 30
0.0
 11
78.619100000000003
 21
82.226299999999995
 31
0.0
  0
LINE
  5
30
  8
_________1
 62
     7
 10
78.619100000000003
 20
82.226299999999995
 30
0.0
 11
78.619100000000003
 21
81.892799999999994
 31
0.0
  0
LINE
  5
31
  8
_________1
 62
     7
 10
78.619100000000003
 20
82.226299999999995
 30
0.0
 11
63.452300000000001
 21
82.226299999999995
 31
0.0
  0
LINE
  5
32
  8
_________1
 62
     7
 10
63.452300000000001
 20
82.226299999999995
 30
0.0
 11
63.452300000000001
 21
82.892600000000002
 31
0.0
  0
LINE
  5
33
  8
_________1
 62
     7
 10
63.452300000000001
 20
82.892600000000002
 30
0.0
 11
78.619100000000003
 21
82.892600000000002
 31
0.0
  0
LINE
  5
34
  8
_________1
 62
     7
 10
78.619100000000003
 20
82.892600000000002
 30
0.0
 11
78.619100000000003
 21
82.226299999999995
 31
0.0
  0
ENDBLK
  5
35
  8
_________1
  0
BLOCK
  8
_________1
  2
AIGNBL02010003
 70
     0
 10
0.0
 20
0.0
 30
0.0
  3
AIGNBL02010003
  1

  0
LINE
  5
38
  8
_________1
 62
     7
 10
-21.7514
 20
81.892799999999994
 30
0.0
 11
-21.918199999999999
 21
81.726100000000002
 31
0.0
  0
ARC
  5
39
  8
_________1
 62
     7
 10
-24.408297999999998
 20
81.466329999999985
 30
0.0
 40
0.259955
 50
92.129608000000005
 51
177.870362
  0
LINE
  5
3A
  8
_________1
 62
     7
 10
-36.918199999999999
 20
81.892799999999994
 30
0.0
 11
-36.7515
 21
81.726100000000002
 31
0.0
  0
ARC
  5
3B
  8
_________1
 62
     7
 10
-34.261365999999988
 20
81.466324999999998
 30
0.0
 40
0.25996
 50
2.1307099999999992
 51
87.869280000000003
  0
LINE
  5
3C
  8
_________1
 62
     7
 10
-24.668099999999999
 20
81.475999999999999
 30
0.0
 11
-24.668099999999999
 21
80.059399999999997
 31
0.0
  0
LINE
  5
3D
  8
_________1
 62
     7
 10
-24.668099999999999
 20
80.059399999999997
 30
0.0
 11
-34.001600000000003
 21
80.059399999999997
 31
0.0
  0
LINE
  5
3E
  8
_________1
 62
     7
 10
-34.001600000000003
 20
80.059399999999997
 30
0.0
 11
-34.001600000000003
 21
81.475999999999999
 31
0.0
  0
LINE
  5
3F
  8
_________1
 62
     7
 10
-21.918199999999999
 20
81.726100000000002
 30
0.0
 11
-36.7515
 21
81.726100000000002
 31
0.0
  0
LINE
  5
40
  8
_________1
 62
     7
 10
-36.918199999999999
 20
81.892799999999994
 30
0.0
 11
-36.918199999999999
 21
82.226299999999995
 31
0.0
  0
LINE
  5
41
  8
_________1
 62
     7
 10
-36.918199999999999
 20
82.226299999999995
 30
0.0
 11
-21.7514
 21
82.226299999999995
 31
0.0
  0
LINE
  5
42
  8
_________1
 62
     7
 10
-21.7514
 20
82.226299999999995
 30
0.0
 11
-21.7514
 21
81.892799999999994
 31
0.0
  0
LINE
  5
43
  8
_________1
 62
     7
 10
-21.7514
 20
82.226299999999995
 30
0.0
 11
-36.918199999999999
 21
82.226299999999995
 31
0.0
  0
LINE
  5
44
  8
_________1
 62
     7
 10
-36.918199999999999
 20
82.226299999999995
 30
0.0
 11
-36.918199999999999
 21
82.892600000000002
 31
0.0
  0
LINE
  5
45
  8
_________1
 62
     7
 10
-36.918199999999999
 20
82.892600000000002
 30
0.0
 11
-21.7514
 21
82.892600000000002
 31
0.0
  0
LINE
  5
46
  8
_________1
 62
     7
 10
-21.7514
 20
82.892600000000002
 30
0.0
 11
-21.7514
 21
82.226299999999995
 31
0.0
  0
ENDBLK
  5
47
  8
_________1
  0
BLOCK
  8
_________1
  2
AIGNBL02010004
 70
     0
 10
0.0
 20
0.0
 30
0.0
  3
AIGNBL02010004
  1

  0
LINE
  5
4A
  8
_________1
 62
     7
 10
68.055400000000006
 20
231.00299999999999
 30
0.0
 11
66.911199999999994
 21
229.02099999999999
 31
0.0
  0
LINE
  5
4B
  8
_________1
 62
     7
 10
66.911199999999994
 20
229.02099999999999
 30
0.0
 11
68.893199999999993
 21
230.16499999999999
 31
0.0
  0
LINE
  5
4C
  8
_________1
 62
     7
 10
68.893199999999993
 20
230.16499999999999
 30
0.0
 11
68.055400000000006
 21
231.00299999999999
 31
0.0
  0
LINE
  5
4D
  8
_________1
 62
     7
 10
74.016800000000003
 20
235.28800000000001
 30
0.0
 11
75.161299999999997
 21
237.27000000000001
 31
0.0
  0
LINE
  5
4E
  8
_________1
 62
     7
 10
75.161299999999997
 20
237.27000000000001
 30
0.0
 11
73.179299999999998
 21
236.126
 31
0.0
  0
LINE
  5
4F
  8
_________1
 62
     7
 10
73.179299999999998
 20
236.126
 30
0.0
 11
74.016800000000003
 21
235.28800000000001
 31
0.0
  0
LINE
  5
50
  8
_________1
 62
     7
 10
67.942700000000002
 20
230.053
 30
0.0
 11
75.161299999999997
 21
237.27000000000001
 31
0.0
  0
ENDBLK
  5
51
  8
_________1
  0
BLOCK
  8
_________1
  2
AIGNBL02010005
 70
     0
 10
0.0
 20
0.0
 30
0.0
  3
AIGNBL02010005
  1

  0
LINE
  5
54
  8
_________1
 62
     7
 10
64.372200000000007
 20
226.482
 30
0.0
 11
67.942700000000002
 21
230.053
 31
0.0
  0
ENDBLK
  5
55
  8
_________1
  0
BLOCK
  8
_________1
  2
AIGNBL02010006
 70
     0
 10
0.0
 20
0.0
 30
0.0
  3
AIGNBL02010006
  1

  0
ARC
  5
58
  8
_________1
 62
     7
 10
31.048054
 20
123.175957
 30
0.0
 40
12.07541
 50
243.14544100000001
 51
269.940496
  0
ENDBLK
  5
59
  8
_________1
  0
BLOCK
  8
_________1
  2
AIGNBL02010007
 70
     0
 10
0.0
 20
0.0
 30
0.0
  3
AIGNBL02010007
  1

  0
LINE
  5
5C
  8
_________1
 62
     7
 10
-11.116
 20
230.905
 30
0.0
 11
-11.5839
 21
233.14599999999999
 31
0.0
  0
LINE
  5
5D
  8
_________1
 62
     7
 10
-11.5839
 20
233.14599999999999
 30
0.0
 11
-12.299099999999999
 21
230.971
 31
0.0
  0
LINE
  5
5E
  8
_________1
 62
     7
 10
-12.299099999999999
 20
230.971
 30
0.0
 11
-11.116
 21
230.905
 31
0.0
  0
LINE
  5
5F
  8
_________1
 62
     7
 10
-27.157499999999999
 20
216.102
 30
0.0
 11
-29.334800000000001
 21
215.39500000000001
 31
0.0
  0
LINE
  5
60
  8
_________1
 62
     7
 10
-29.334800000000001
 20
215.39500000000001
 30
0.0
 11
-27.095500000000001
 21
214.91900000000001
 31
0.0
  0
LINE
  5
61
  8
_________1
 62
     7
 10
-27.095500000000001
 20
214.91900000000001
 30
0.0
 11
-27.157499999999999
 21
216.102
 31
0.0
  0
ARC
  5
62
  8
_________1
 62
     7
 10
-29.334831999999999
 20
233.14572999999999
 30
0.0
 40
17.750969999999999
 50
270.00002000000001
 51
359.99999000000003
  0
ENDBLK
  5
63
  8
_________1
  0
BLOCK
  8
_________1
  2
AIGNBL02010008
 70
     0
 10
0.0
 20
0.0
 30
0.0
  3
AIGNBL02010008
  1

  0
LINE
  5
66
  8
_________1
 62
     7
 10
68.825299999999999
 20
152.81100000000001
 30
0.0
 11
71.0364
 21
153.404
 31
0.0
  0
LINE
  5
67
  8
_________1
 62
     7
 10
71.0364
 20
153.404
 30
0.0
 11
68.825299999999999
 21
153.99700000000001
 31
0.0
  0
LINE
  5
68
  8
_________1
 62
     7
 10
68.825299999999999
 20
153.99700000000001
 30
0.0
 11
68.825299999999999
 21
152.81100000000001
 31
0.0
  0
LINE
  5
69
  8
_________1
 62
     7
 10
27.252400000000002
 20
153.982
 30
0.0
 11
25.041399999999999
 21
153.38999999999999
 31
0.0
  0
LINE
  5
6A
  8
_________1
 62
     7
 10
25.041399999999999
 20
153.38999999999999
 30
0.0
 11
27.252400000000002
 21
152.797
 31
0.0
  0
LINE
  5
6B
  8
_________1
 62
     7
 10
27.252400000000002
 20
152.797
 30
0.0
 11
27.252400000000002
 21
153.982
 31
0.0
  0
LINE
  5
6C
  8
_________1
 62
     7
 10
71.035700000000006
 20
153.39699999999999
 30
0.0
 11
25.042000000000002
 21
153.39699999999999
 31
0.0
  0
ENDBLK
  5
6D
  8
_________1
  0
BLOCK
  8
_________1
  2
AIGNBL02010009
 70
     0
 10
0.0
 20
0.0
 30
0.0
  3
AIGNBL02010009
  1

  0
LINE
  5
70
  8
_________1
 62
     7
 10
-14.196
 20
92.016000000000005
 30
0.0
 11
-13.603400000000001
 21
89.804199999999994
 31
0.0
  0
LINE
  5
71
  8
_________1
 62
     7
 10
-13.603400000000001
 20
89.804199999999994
 30
0.0
 11
-13.0108
 21
92.016000000000005
 31
0.0
  0
LINE
  5
72
  8
_________1
 62
     7
 10
-13.0108
 20
92.016000000000005
 30
0.0
 11
-14.196
 21
92.016000000000005
 31
0.0
  0
LINE
  5
73
  8
_________1
 62
     7
 10
-13.0253
 20
80.681500000000014
 30
0.0
 11
-13.617900000000001
 21
82.892600000000002
 31
0.0
  0
LINE
  5
74
  8
_________1
 62
     7
 10
-13.617900000000001
 20
82.892600000000002
 30
0.0
 11
-14.2104
 21
80.681500000000014
 31
0.0
  0
LINE
  5
75
  8
_________1
 62
     7
 10
-14.2104
 20
80.681500000000014
 30
0.0
 11
-13.0253
 21
80.681500000000014
 31
0.0
  0
LINE
  5
76
  8
_________1
 62
     7
 10
13.6251
 20
92.014600000000002
 30
0.0
 11
14.217700000000001
 21
89.802800000000005
 31
0.0
  0
LINE
  5
77
  8
_________1
 62
     7
 10
14.217700000000001
 20
89.802800000000005
 30
0.0
 11
14.8102
 21
92.014600000000002
 31
0.0
  0
LINE
  5
78
  8
_________1
 62
     7
 10
14.8102
 20
92.014600000000002
 30
0.0
 11
13.6251
 21
92.014600000000002
 31
0.0
  0
LINE
  5
79
  8
_________1
 62
     7
 10
14.7957
 20
120.89
 30
0.0
 11
14.203200000000001
 21
123.101
 31
0.0
  0
LINE
  5
7A
  8
_________1
 62
     7
 10
14.203200000000001
 20
123.101
 30
0.0
 11
13.6106
 21
120.89
 31
0.0
  0
LINE
  5
7B
  8
_________1
 62
     7
 10
13.6106
 20
120.89
 30
0.0
 11
14.7957
 21
120.89
 31
0.0
  0
LINE
  5
7C
  8
_________1
 62
     7
 10
14.2104
 20
89.804199999999994
 30
0.0
 11
14.2104
 21
123.09999999999999
 31
0.0
  0
ENDBLK
  5
7D
  8
_________1
  0
BLOCK
  8
_________1
  2
AIGNBL0201000A
 70
     0
 10
0.0
 20
0.0
 30
0.0
  3
AIGNBL0201000A
  1

  0
LINE
  5
80
  8
_________1
 62
     7
 10
21.620999999999999
 20
120.249
 30
0.0
 11
21.028500000000001
 21
122.45999999999999
 31
0.0
  0
LINE
  5
81
  8
_________1
 62
     7
 10
21.028500000000001
 20
122.45999999999999
 30
0.0
 11
20.4359
 21
120.249
 31
0.0
  0
LINE
  5
82
  8
_________1
 62
     7
 10
20.4359
 20
120.249
 30
0.0
 11
21.620999999999999
 21
120.249
 31
0.0
  0
LINE
  5
83
  8
_________1
 62
     7
 10
20.450399999999998
 20
92.014600000000002
 30
0.0
 11
21.042899999999999
 21
89.802800000000005
 31
0.0
  0
LINE
  5
84
  8
_________1
 62
     7
 10
21.042899999999999
 20
89.802800000000005
 30
0.0
 11
21.6355
 21
92.014600000000002
 31
0.0
  0
LINE
  5
85
  8
_________1
 62
     7
 10
21.6355
 20
92.014600000000002
 30
0.0
 11
20.450399999999998
 21
92.014600000000002
 31
0.0
  0
LINE
  5
86
  8
_________1
 62
     7
 10
21.035699999999999
 20
122.45999999999999
 30
0.0
 11
21.035699999999999
 21
89.804199999999994
 31
0.0
  0
ENDBLK
  5
87
  8
_________1
  0
BLOCK
  8
_________1
  2
AIGNBL0201000B
 70
     0
 10
0.0
 20
0.0
 30
0.0
  3
AIGNBL0201000B
  1

  0
LINE
  5
8A
  8
_________1
 62
     7
 10
76.649199999999993
 20
98.070400000000006
 30
0.0
 11
78.861000000000004
 21
98.662999999999997
 31
0.0
  0
LINE
  5
8B
  8
_________1
 62
     7
 10
78.861000000000004
 20
98.662999999999997
 30
0.0
 11
76.649199999999993
 21
99.255600000000001
 31
0.0
  0
LINE
  5
8C
  8
_________1
 62
     7
 10
76.649199999999993
 20
99.255600000000001
 30
0.0
 11
76.649199999999993
 21
98.070400000000006
 31
0.0
  0
LINE
  5
8D
  8
_________1
 62
     7
 10
65.421599999999984
 20
99.241100000000003
 30
0.0
 11
63.209800000000001
 21
98.648499999999999
 31
0.0
  0
LINE
  5
8E
  8
_________1
 62
     7
 10
63.209800000000001
 20
98.648499999999999
 30
0.0
 11
65.421599999999984
 21
98.055999999999997
 31
0.0
  0
LINE
  5
8F
  8
_________1
 62
     7
 10
65.421599999999984
 20
98.055999999999997
 30
0.0
 11
65.421599999999984
 21
99.241100000000003
 31
0.0
  0
LINE
  5
90
  8
_________1
 62
     7
 10
78.859899999999996
 20
98.656099999999995
 30
0.0
 11
63.210799999999999
 21
98.656099999999995
 31
0.0
  0
ENDBLK
  5
91
  8
_________1
  0
BLOCK
  8
_________1
  2
AIGNBL0201000C
 70
     0
 10
0.0
 20
0.0
 30
0.0
  3
AIGNBL0201000C
  1

  0
LINE
  5
94
  8
_________1
 62
     7
 10
74.152199999999993
 20
107.90900000000001
 30
0.0
 11
76.363600000000005
 21
108.502
 31
0.0
  0
LINE
  5
95
  8
_________1
 62
     7
 10
76.363600000000005
 20
108.502
 30
0.0
 11
74.152199999999993
 21
109.09399999999999
 31
0.0
  0
LINE
  5
96
  8
_________1
 62
     7
 10
74.152199999999993
 20
109.09399999999999
 30
0.0
 11
74.152199999999993
 21
107.90900000000001
 31
0.0
  0
LINE
  5
97
  8
_________1
 62
     7
 10
67.919600000000003
 20
109.09399999999999
 30
0.0
 11
65.708200000000005
 21
108.502
 31
0.0
  0
LINE
  5
98
  8
_________1
 62
     7
 10
65.708200000000005
 20
108.502
 30
0.0
 11
67.919600000000003
 21
107.90900000000001
 31
0.0
  0
LINE
  5
99
  8
_________1
 62
     7
 10
67.919600000000003
 20
107.90900000000001
 30
0.0
 11
67.919600000000003
 21
109.09399999999999
 31
0.0
  0
LINE
  5
9A
  8
_________1
 62
     7
 10
76.363600000000005
 20
108.502
 30
0.0
 11
65.708200000000005
 21
108.502
 31
0.0
  0
ENDBLK
  5
9B
  8
_________1
  0
BLOCK
  8
_________1
  2
AIGNBL0201000D
 70
     0
 10
0.0
 20
0.0
 30
0.0
  3
AIGNBL0201000D
  1

  0
LINE
  5
9E
  8
_________1
 62
     7
 10
86.734099999999998
 20
74.015199999999993
 30
0.0
 11
87.326700000000002
 21
71.8035
 31
0.0
  0
LINE
  5
9F
  8
_________1
 62
     7
 10
87.326700000000002
 20
71.8035
 30
0.0
 11
87.919200000000004
 21
74.015199999999993
 31
0.0
  0
LINE
  5
A0
  8
_________1
 62
     7
 10
87.919200000000004
 20
74.015199999999993
 30
0.0
 11
86.734099999999998
 21
74.015199999999993
 31
0.0
  0
LINE
  5
A1
  8
_________1
 62
     7
 10
86.734099999999998
 20
92.0077
 30
0.0
 11
87.326700000000002
 21
89.795899999999989
 31
0.0
  0
LINE
  5
A2
  8
_________1
 62
     7
 10
87.326700000000002
 20
89.795899999999989
 30
0.0
 11
87.919200000000004
 21
92.0077
 31
0.0
  0
LINE
  5
A3
  8
_________1
 62
     7
 10
87.919200000000004
 20
92.0077
 30
0.0
 11
86.734099999999998
 21
92.0077
 31
0.0
  0
LINE
  5
A4
  8
_________1
 62
     7
 10
87.919200000000004
 20
87.584199999999996
 30
0.0
 11
87.326700000000002
 21
89.795899999999989
 31
0.0
  0
LINE
  5
A5
  8
_________1
 62
     7
 10
87.326700000000002
 20
89.795899999999989
 30
0.0
 11
86.734099999999998
 21
87.584199999999996
 31
0.0
  0
LINE
  5
A6
  8
_________1
 62
     7
 10
86.734099999999998
 20
87.584199999999996
 30
0.0
 11
87.919200000000004
 21
87.584199999999996
 31
0.0
  0
LINE
  5
A7
  8
_________1
 62
     7
 10
87.912000000000006
 20
141.59399999999999
 30
0.0
 11
87.319399999999987
 21
143.80600000000001
 31
0.0
  0
LINE
  5
A8
  8
_________1
 62
     7
 10
87.319399999999987
 20
143.80600000000001
 30
0.0
 11
86.726900000000015
 21
141.59399999999999
 31
0.0
  0
LINE
  5
A9
  8
_________1
 62
     7
 10
86.726900000000015
 20
141.59399999999999
 30
0.0
 11
87.912000000000006
 21
141.59399999999999
 31
0.0
  0
LINE
  5
AA
  8
_________1
 62
     7
 10
87.326700000000002
 20
71.8035
 30
0.0
 11
87.326700000000002
 21
143.80500000000001
 31
0.0
  0
ENDBLK
  5
AB
  8
_________1
  0
BLOCK
  8
_________1
  2
AIGNBL0201000E
 70
     0
 10
0.0
 20
0.0
 30
0.0
  3
AIGNBL0201000E
  1

  0
LINE
  5
AE
  8
_________1
 62
     7
 10
33.246200000000002
 20
63.9148
 30
0.0
 11
31.034500000000001
 21
63.322299999999998
 31
0.0
  0
LINE
  5
AF
  8
_________1
 62
     7
 10
31.034500000000001
 20
63.322299999999998
 30
0.0
 11
33.246200000000002
 21
62.729700000000001
 31
0.0
  0
LINE
  5
B0
  8
_________1
 62
     7
 10
33.246200000000002
 20
62.729700000000001
 30
0.0
 11
33.246200000000002
 21
63.9148
 31
0.0
  0
LINE
  5
B1
  8
_________1
 62
     7
 10
68.825299999999999
 20
62.744199999999999
 30
0.0
 11
71.0364
 21
63.336799999999997
 31
0.0
  0
LINE
  5
B2
  8
_________1
 62
     7
 10
71.0364
 20
63.336799999999997
 30
0.0
 11
68.825299999999999
 21
63.929299999999991
 31
0.0
  0
LINE
  5
B3
  8
_________1
 62
     7
 10
68.825299999999999
 20
63.929299999999991
 30
0.0
 11
68.825299999999999
 21
62.744199999999999
 31
0.0
  0
LINE
  5
B4
  8
_________1
 62
     7
 10
31.035499999999999
 20
63.3292
 30
0.0
 11
71.035700000000006
 21
63.3292
 31
0.0
  0
ENDBLK
  5
B5
  8
_________1
  0
BLOCK
  8
_________1
  2
AIGNBL0201000F
 70
     0
 10
0.0
 20
0.0
 30
0.0
  3
AIGNBL0201000F
  1

  0
LINE
  5
B8
  8
_________1
 62
     7
 10
-30.620899999999999
 20
63.265799999999992
 30
0.0
 11
-32.832000000000001
 21
62.673200000000001
 31
0.0
  0
LINE
  5
B9
  8
_________1
 62
     7
 10
-32.832000000000001
 20
62.673200000000001
 30
0.0
 11
-30.620899999999999
 21
62.0807
 31
0.0
  0
LINE
  5
BA
  8
_________1
 62
     7
 10
-30.620899999999999
 20
62.0807
 30
0.0
 11
-30.620899999999999
 21
63.265799999999992
 31
0.0
  0
LINE
  5
BB
  8
_________1
 62
     7
 10
-28.049499999999998
 20
62.095100000000002
 30
0.0
 11
-25.837700000000002
 21
62.687699999999992
 31
0.0
  0
LINE
  5
BC
  8
_________1
 62
     7
 10
-25.837700000000002
 20
62.687699999999992
 30
0.0
 11
-28.049499999999998
 21
63.280299999999997
 31
0.0
  0
LINE
  5
BD
  8
_________1
 62
     7
 10
-28.049499999999998
 20
63.280299999999997
 30
0.0
 11
-28.049499999999998
 21
62.095100000000002
 31
0.0
  0
LINE
  5
BE
  8
_________1
 62
     7
 10
-32.831299999999999
 20
62.680100000000003
 30
0.0
 11
-25.838699999999999
 21
62.680100000000003
 31
0.0
  0
ENDBLK
  5
BF
  8
_________1
  0
BLOCK
  8
_________2
  2
AIGNBL03010002
 70
     0
 10
0.0
 20
0.0
 30
0.0
  3
AIGNBL03010002
  1

  0
LINE
  5
C2
  8
_________2
 62
     7
 10
186.649
 20
51.052199999999999
 30
0.0
 11
184.46299999999999
 21
51.052199999999999
 31
0.0
  0
LINE
  5
C3
  8
_________2
 62
     7
 10
187.142
 20
51.052199999999999
 30
0.0
 11
186.88900000000001
 21
51.052199999999999
 31
0.0
  0
LINE
  5
C4
  8
_________2
 62
     7
 10
187.63399999999999
 20
51.052199999999999
 30
0.0
 11
190.559
 21
51.052199999999999
 31
0.0
  0
LINE
  5
C5
  8
_________2
 62
     7
 10
187.142
 20
51.052199999999999
 30
0.0
 11
187.39400000000001
 21
51.052199999999999
 31
0.0
  0
LINE
  5
C6
  8
_________2
 62
     7
 10
180.745
 20
51.052199999999999
 30
0.0
 11
178.55799999999999
 21
51.052199999999999
 31
0.0
  0
LINE
  5
C7
  8
_________2
 62
     7
 10
181.23699999999999
 20
51.052199999999999
 30
0.0
 11
180.98599999999999
 21
51.052199999999999
 31
0.0
  0
LINE
  5
C8
  8
_________2
 62
     7
 10
181.23699999999999
 20
51.544800000000002
 30
0.0
 11
181.23699999999999
 21
53.7318
 31
0.0
  0
LINE
  5
C9
  8
_________2
 62
     7
 10
181.23699999999999
 20
51.052199999999999
 30
0.0
 11
181.23699999999999
 21
51.304299999999998
 31
0.0
  0
LINE
  5
CA
  8
_________2
 62
     7
 10
181.72999999999999
 20
51.052199999999999
 30
0.0
 11
183.917
 21
51.052199999999999
 31
0.0
  0
LINE
  5
CB
  8
_________2
 62
     7
 10
181.23699999999999
 20
51.052199999999999
 30
0.0
 11
181.489
 21
51.052199999999999
 31
0.0
  0
LINE
  5
CC
  8
_________2
 62
     7
 10
181.23699999999999
 20
50.560200000000002
 30
0.0
 11
181.23699999999999
 21
48.373199999999997
 31
0.0
  0
LINE
  5
CD
  8
_________2
 62
     7
 10
181.23699999999999
 20
51.052199999999999
 30
0.0
 11
181.23699999999999
 21
50.800699999999999
 31
0.0
  0
LINE
  5
CE
  8
_________2
 62
     7
 10
184.94799999999989
 20
49.832599999999999
 30
0.0
 11
190.12599999999989
 21
48.9679
 31
0.0
  0
LINE
  5
CF
  8
_________2
 62
     7
 10
184.94799999999989
 20
52.271700000000003
 30
0.0
 11
190.12599999999989
 21
53.137099999999997
 31
0.0
  0
LINE
  5
D0
  8
_________2
 62
     7
 10
190.12599999999989
 20
48.9679
 30
0.0
 11
190.12599999999989
 21
53.137099999999997
 31
0.0
  0
LINE
  5
D1
  8
_________2
 62
     7
 10
184.94799999999989
 20
49.832599999999999
 30
0.0
 11
184.94799999999989
 21
52.271700000000003
 31
0.0
  0
ARC
  5
D2
  8
_________2
 62
     7
 10
181.190651
 20
51.004810999999989
 30
0.0
 40
1.2677780000000001
 50
2.1403449999999991
 51
87.892005999999995
  0
ARC
  5
D3
  8
_________2
 62
     7
 10
181.28420199999999
 20
51.005241999999988
 30
0.0
 40
1.2673579999999991
 50
92.121564999999975
 51
177.87840600000001
  0
ARC
  5
D4
  8
_________2
 62
     7
 10
181.28381400000001
 20
51.098689
 30
0.0
 40
1.2669559999999991
 50
182.10473099999999
 51
267.89529900000002
  0
ARC
  5
D5
  8
_________2
 62
     7
 10
181.19038399999999
 20
51.099775000000001
 30
0.0
 40
1.268054
 50
272.11960599999998
 51
357.84804300000002
  0
ARC
  5
D6
  8
_________2
 62
     7
 10
181.23728399999999
 20
51.05215900000001
 30
0.0
 40
2.0849849999999992
 50
0.00001
 51
89.999980000000008
  0
ARC
  5
D7
  8
_________2
 62
     7
 10
181.317331
 20
50.972827000000002
 30
0.0
 40
2.1657969999999991
 50
92.118111999999996
 51
177.90079600000001
  0
ARC
  5
D8
  8
_________2
 62
     7
 10
181.31728799999999
 20
51.132162999999998
 30
0.0
 40
2.1657779999999991
 50
182.11700400000001
 51
267.88302499999998
  0
ARC
  5
D9
  8
_________2
 62
     7
 10
181.15730300000001
 20
51.132855999999997
 30
0.0
 40
2.166469999999999
 50
272.115725
 51
357.86534699999999
  0
ENDBLK
  5
DA
  8
_________2
  0
ENDSEC
  0
SECTION
  2
ENTITIES
  0
TEXT
  5
DB
  8
____
 62
     7
 10
58.123100000000001
 20
227.18700000000001
 30
0.0
 40
3.0923400000000001
  1
%%c35
 41
0.5
  0
TEXT
  5
DC
  8
____
 62
     7
 10
66.55204599999999
 20
217.27699999999999
 30
0.0
 40
3.0923400000000001
  1
水栓取付穴
 41
0.5
 72
     1
 11
70.984399999999994
 21
217.27699999999999
 31
0.0
  0
TEXT
  5
DD
  8
____
 62
     7
 10
-9.9588000000000001
 20
231.76499999999999
 30
0.0
 40
3.0923400000000001
  1
開
 41
0.5
  0
TEXT
  5
DE
  8
____
 62
     7
 10
-31.450013999999999
 20
213.86699999999999
 30
0.0
 40
3.0923400000000001
  1
閉
 41
0.5
 72
     2
 11
-30.109999999999999
 21
213.86699999999999
 31
0.0
  0
TEXT
  5
DF
  8
____
 62
     7
 10
-18.939517500000001
 20
221.53700000000001
 30
0.0
 40
3.0923400000000001
  1
90%%d
 41
0.5
 72
     1
 11
-17.264500000000002
 21
221.53700000000001
 31
0.0
  0
TEXT
  5
E0
  8
____
 62
     7
 10
68.974140000000006
 20
99.356099999999998
 30
0.0
 40
3.0923400000000001
  1
%%c47
 41
0.5
 72
     1
 11
71.035700000000006
 21
99.356099999999998
 31
0.0
  0
TEXT
  5
E1
  8
____
 62
     7
 10
68.974140000000006
 20
109.202
 30
0.0
 40
3.0923400000000001
  1
%%c32
 41
0.5
 72
     1
 11
71.035700000000006
 21
109.202
 31
0.0
  0
TEXT
  5
E2
  8
____
 62
     7
 10
46.235034999999989
 20
154.09700000000001
 30
0.0
 40
3.0923400000000001
  1
138
 41
0.5
 72
     1
 11
48.038899999999991
 21
154.09700000000001
 31
0.0
  0
TEXT
  5
E3
  8
____
 62
     7
 10
13.510400000000001
 20
104.90582999999999
 30
0.0
 40
3.0923400000000001
  1
100
 50
90.0
 41
0.5
 72
     1
 11
13.510400000000001
 21
106.452
 31
0.0
  0
TEXT
  5
E4
  8
____
 62
     7
 10
20.335699999999999
 20
104.843525
 30
0.0
 40
3.0923400000000001
  1
98
 50
90.0
 41
0.5
 72
     1
 11
20.335699999999999
 21
106.13200000000001
 31
0.0
  0
TEXT
  5
E5
  8
____
 62
     7
 10
86.626599999999996
 20
79.515024999999994
 30
0.0
 40
3.0923400000000001
  1
54
 50
90.0
 41
0.5
 72
     1
 11
86.626599999999996
 21
80.803500000000014
 31
0.0
  0
TEXT
  5
E6
  8
____
 62
     7
 10
86.626599999999996
 20
115.000135
 30
0.0
 40
3.0923400000000001
  1
162
 50
90.0
 41
0.5
 72
     1
 11
86.626599999999996
 21
116.804
 31
0.0
  0
TEXT
  5
E7
  8
____
 62
     7
 10
49.360482499999989
 20
64.029200000000003
 30
0.0
 40
3.0923400000000001
  1
120
 41
0.5
 72
     1
 11
51.035499999999999
 21
64.029200000000003
 31
0.0
  0
TEXT
  5
E8
  8
____
 62
     7
 10
-14.3034
 20
71.673900000000003
 30
0.0
 40
3.0923400000000001
  1
max.30
 50
90.0
 41
0.5
  0
TEXT
  5
E9
  8
____
 62
     7
 10
36.126677500000007
 20
111.801
 30
0.0
 40
3.0923400000000001
  1
10%%d
 41
0.5
 72
     1
 11
37.543999999999997
 21
111.801
 31
0.0
  0
TEXT
  5
EA
  8
____
 62
     7
 10
-31.911750000000001
 20
63.380200000000002
 30
0.0
 40
3.0923400000000001
  1
G1/2
 41
0.5
 72
     1
 11
-29.334800000000001
 21
63.380200000000002
 31
0.0
  0
INSERT
  5
EB
  8
_________1
 62
     7
  2
AIGNBL02010002
 10
0.0
 20
0.0
 30
0.0
  0
INSERT
  5
EC
  8
_________1
 62
     7
  2
AIGNBL02010003
 10
0.0
 20
0.0
 30
0.0
  0
LINE
  5
ED
  8
_________1
 62
     7
 10
76.369100000000003
 20
88.470299999999995
 30
0.0
 11
65.702299999999994
 21
88.470299999999995
 31
0.0
  0
LINE
  5
EE
  8
_________1
 62
     7
 10
65.702299999999994
 20
88.470299999999995
 30
0.0
 11
65.702299999999994
 21
89.137200000000007
 31
0.0
  0
LINE
  5
EF
  8
_________1
 62
     7
 10
65.702299999999994
 20
89.137200000000007
 30
0.0
 11
76.369100000000003
 21
89.137200000000007
 31
0.0
  0
LINE
  5
F0
  8
_________1
 62
     7
 10
76.369100000000003
 20
89.137200000000007
 30
0.0
 11
76.369100000000003
 21
88.470299999999995
 31
0.0
  0
LINE
  5
F1
  8
_________1
 62
     7
 10
67.706400000000002
 20
82.892600000000002
 30
0.0
 11
67.706400000000002
 21
88.470299999999995
 31
0.0
  0
LINE
  5
F2
  8
_________1
 62
     7
 10
74.365399999999994
 20
82.892600000000002
 30
0.0
 11
74.365399999999994
 21
88.470299999999995
 31
0.0
  0
LINE
  5
F3
  8
_________1
 62
     7
 10
74.531800000000004
 20
82.892600000000002
 30
0.0
 11
74.531800000000004
 21
88.470299999999995
 31
0.0
  0
LINE
  5
F4
  8
_________1
 62
     7
 10
67.539299999999997
 20
88.470299999999995
 30
0.0
 11
67.539299999999997
 21
82.892600000000002
 31
0.0
  0
LINE
  5
F5
  8
_________1
 62
     7
 10
-24.0014
 20
88.470299999999995
 30
0.0
 11
-34.668199999999999
 21
88.470299999999995
 31
0.0
  0
LINE
  5
F6
  8
_________1
 62
     7
 10
-34.668199999999999
 20
88.470299999999995
 30
0.0
 11
-34.668199999999999
 21
89.137200000000007
 31
0.0
  0
LINE
  5
F7
  8
_________1
 62
     7
 10
-34.668199999999999
 20
89.137200000000007
 30
0.0
 11
-24.0014
 21
89.137200000000007
 31
0.0
  0
LINE
  5
F8
  8
_________1
 62
     7
 10
-24.0014
 20
89.137200000000007
 30
0.0
 11
-24.0014
 21
88.470299999999995
 31
0.0
  0
ARC
  5
F9
  8
_________1
 62
     7
 10
60.649343999999992
 20
122.245676
 30
0.0
 40
10.730757000000001
 50
14.554619000000001
 51
15.717048999999999
  0
ARC
  5
FA
  8
_________1
 62
     7
 10
68.291758999999999
 20
124.304653
 30
0.0
 40
2.8177140000000001
 50
17.511548000000001
 51
21.345282999999998
  0
ARC
  5
FB
  8
_________1
 62
     7
 10
69.012757999999991
 20
124.609863
 30
0.0
 40
2.0351970000000001
 50
20.730443000000001
 51
26.101613
  0
ARC
  5
FC
  8
_________1
 62
     7
 10
69.341279
 20
124.825936
 30
0.0
 40
1.645859999999999
 50
24.378185999999999
 51
28.449957000000001
  0
ARC
  5
FD
  8
_________1
 62
     7
 10
68.499220999999991
 20
124.4218
 30
0.0
 40
2.5791590000000002
 50
27.432026
 51
31.332476
  0
ARC
  5
FE
  8
_________1
 62
     7
 10
68.322721999999999
 20
124.29776
 30
0.0
 40
2.7944559999999998
 50
31.623035999999999
 51
35.263697999999998
  0
ARC
  5
FF
  8
_________1
 62
     7
 10
68.970815000000002
 20
124.80457699999999
 30
0.0
 40
1.973077999999999
 50
34.112299999999998
 51
38.151165999999989
  0
ARC
  5
100
  8
_________1
 62
     7
 10
68.539238999999995
 20
124.500895
 30
0.0
 40
2.5002140000000002
 50
37.514285000000008
 51
42.290907000000011
  0
ARC
  5
101
  8
_________1
 62
     7
 10
68.286113
 20
124.290352
 30
0.0
 40
2.8291710000000001
 50
41.995628000000004
 51
46.294167000000002
  0
ARC
  5
102
  8
_________1
 62
     7
 10
68.354340000000008
 20
124.392742
 30
0.0
 40
2.7080969999999991
 50
45.840843
 51
49.008660999999989
  0
ARC
  5
103
  8
_________1
 62
     7
 10
67.533985999999999
 20
123.393621
 30
0.0
 40
4.0005119999999996
 50
49.526530999999999
 51
51.672136999999999
  0
ARC
  5
104
  8
_________1
 62
     7
 10
68.189026999999996
 20
124.191047
 30
0.0
 40
2.968783999999999
 50
52.045205000000003
 51
56.390072000000004
  0
ARC
  5
105
  8
_________1
 62
     7
 10
68.505469999999974
 20
124.67633600000001
 30
0.0
 40
2.3894660000000001
 50
56.268194999999992
 51
59.860703999999998
  0
ARC
  5
106
  8
_________1
 62
     7
 10
68.120891
 20
124.04400699999999
 30
0.0
 40
3.129443999999999
 50
59.584400000000002
 51
63.959567000000007
  0
ARC
  5
107
  8
_________1
 62
     7
 10
68.73469399999999
 20
125.361289
 30
0.0
 40
1.676636999999999
 50
63.043642000000013
 51
68.177216999999985
  0
ARC
  5
108
  8
_________1
 62
     7
 10
68.419277000000008
 20
124.735893
 30
0.0
 40
2.3752349999999991
 50
66.721741000000009
 51
70.356640999999996
  0
ARC
  5
109
  8
_________1
 62
     7
 10
68.302295999999998
 20
124.403898
 30
0.0
 40
2.7272340000000002
 50
70.386718999999999
 51
75.124578999999997
  0
ARC
  5
10A
  8
_________1
 62
     7
 10
68.316885999999997
 20
124.505922
 30
0.0
 40
2.6249119999999988
 50
74.860677999999993
 51
78.147839000000005
  0
ARC
  5
10B
  8
_________1
 62
     7
 10
68.350669999999994
 20
124.515804
 30
0.0
 40
2.6084860000000001
 50
78.829530000000005
 51
84.149235999999988
  0
ARC
  5
10C
  8
_________1
 62
     7
 10
68.382420999999994
 20
124.70665700000001
 30
0.0
 40
2.4154209999999989
 50
84.436970000000002
 51
89.022035000000002
  0
ARC
  5
10D
  8
_________1
 62
     7
 10
68.144468000000003
 20
118.175104
 30
0.0
 40
8.9509769999999982
 50
88.212659999999985
 51
89.833802000000006
  0
ARC
  5
10E
  8
_________1
 62
     7
 10
69.232384999999994
 20
915.12721699999997
 30
0.0
 40
788.00188900000001
 50
269.89912299999997
 51
269.92279500000001
  0
ARC
  5
10F
  8
_________1
 62
     7
 10
67.843366000000003
 20
162.86042399999999
 30
0.0
 40
35.733874999999998
 50
269.38372600000002
 51
270.00241599999998
  0
ARC
  5
110
  8
_________1
 62
     7
 10
67.069847999999993
 20
90.496081000000004
 30
0.0
 40
36.634603000000013
 50
89.391332000000006
 51
90.001813999999996
  0
INSERT
  5
111
  8
_________1
 62
     7
  2
AIGNBL02010004
 10
0.0
 20
0.0
 30
0.0
  0
ARC
  5
112
  8
_________1
 62
     7
 10
71.035732999999993
 20
233.14572799999999
 30
0.0
 40
5.8336180000000004
 50
270.00002000000001
 51
359.99999000000003
  0
ARC
  5
113
  8
_________1
 62
     7
 10
71.036078000000003
 20
233.14538200000001
 30
0.0
 40
5.833272
 50
179.99658600000001
 51
269.99663600000002
  0
ARC
  5
114
  8
_________1
 62
     7
 10
71.035820999999999
 20
233.14581200000001
 30
0.0
 40
5.8330149999999996
 50
90.000845999999996
 51
180.000856
  0
ARC
  5
115
  8
_________1
 62
     7
 10
71.035992000000007
 20
233.14546799999999
 30
0.0
 40
5.833359999999999
 50
0.002548
 51
90.002517999999995
  0
LINE
  5
116
  8
_________1
  6
AIGENLINE001
 62
     7
 10
79.198599999999985
 20
233.14599999999999
 30
0.0
 11
62.723399999999991
 21
233.14599999999999
 31
0.0
  0
LINE
  5
117
  8
_________1
  6
AIGENLINE001
 62
     7
 10
71.035700000000006
 20
224.958
 30
0.0
 11
71.035700000000006
 21
241.33699999999999
 31
0.0
  0
LINE
  5
118
  8
_________1
 62
     7
 10
64.372200000000007
 20
226.482
 30
0.0
 11
58.123100000000001
 21
226.482
 31
0.0
  0
INSERT
  5
119
  8
_________1
 62
     7
  2
AIGNBL02010005
 10
0.0
 20
0.0
 30
0.0
  0
LINE
  5
11A
  8
_________1
 62
     7
 10
33.246600000000001
 20
111.693
 30
0.0
 11
31.035499999999999
 21
111.101
 31
0.0
  0
LINE
  5
11B
  8
_________1
 62
     7
 10
31.035499999999999
 20
111.101
 30
0.0
 11
33.246600000000001
 21
110.508
 31
0.0
  0
LINE
  5
11C
  8
_________1
 62
     7
 10
33.246600000000001
 20
110.508
 30
0.0
 11
33.246600000000001
 21
111.693
 31
0.0
  0
LINE
  5
11D
  8
_________1
 62
     7
 10
26.664000000000001
 20
111.396
 30
0.0
 11
28.950900000000001
 21
111.282
 31
0.0
  0
LINE
  5
11E
  8
_________1
 62
     7
 10
28.950900000000001
 20
111.282
 30
0.0
 11
27.027799999999999
 21
112.524
 31
0.0
  0
LINE
  5
11F
  8
_________1
 62
     7
 10
27.027799999999999
 20
112.524
 30
0.0
 11
26.664000000000001
 21
111.396
 31
0.0
  0
INSERT
  5
120
  8
_________1
 62
     7
  2
AIGNBL02010006
 10
0.0
 20
0.0
 30
0.0
  0
INSERT
  5
121
  8
_________1
 62
     7
  2
AIGNBL02010007
 10
0.0
 20
0.0
 30
0.0
  0
INSERT
  5
122
  8
_________1
 62
     7
  2
AIGNBL02010008
 10
0.0
 20
0.0
 30
0.0
  0
LINE
  5
123
  8
_________1
 62
     7
 10
25.042000000000002
 20
130.79900000000001
 30
0.0
 11
25.042000000000002
 21
154.09700000000001
 31
0.0
  0
LINE
  5
124
  8
_________1
 62
     7
 10
71.035700000000006
 20
147.68000000000001
 30
0.0
 11
71.035700000000006
 21
154.09700000000001
 31
0.0
  0
INSERT
  5
125
  8
_________1
 62
     7
  2
AIGNBL02010009
 10
0.0
 20
0.0
 30
0.0
  0
LINE
  5
126
  8
_________1
 62
     7
 10
30.1691
 20
123.09999999999999
 30
0.0
 11
13.510400000000001
 21
123.09999999999999
 31
0.0
  0
LINE
  5
127
  8
_________1
 62
     7
 10
62.3444
 20
89.804199999999994
 30
0.0
 11
13.510400000000001
 21
89.804199999999994
 31
0.0
  0
INSERT
  5
128
  8
_________1
 62
     7
  2
AIGNBL0201000A
 10
0.0
 20
0.0
 30
0.0
  0
LINE
  5
129
  8
_________1
 62
     7
 10
31.035499999999999
 20
111.101
 30
0.0
 11
39.101599999999998
 21
111.101
 31
0.0
  0
LINE
  5
12A
  8
_________1
 62
     7
 10
32.423900000000003
 20
122.45999999999999
 30
0.0
 11
20.328399999999998
 21
122.45999999999999
 31
0.0
  0
INSERT
  5
12B
  8
_________1
 62
     7
  2
AIGNBL0201000B
 10
0.0
 20
0.0
 30
0.0
  0
LINE
  5
12C
  8
_________1
 62
     7
 10
78.859899999999996
 20
91.502700000000004
 30
0.0
 11
78.859899999999996
 21
99.356099999999998
 31
0.0
  0
LINE
  5
12D
  8
_________1
 62
     7
 10
63.210799999999999
 20
91.502700000000004
 30
0.0
 11
63.210799999999999
 21
99.356099999999998
 31
0.0
  0
INSERT
  5
12E
  8
_________1
 62
     7
  2
AIGNBL0201000C
 10
0.0
 20
0.0
 30
0.0
  0
INSERT
  5
12F
  8
_________1
 62
     7
  2
AIGNBL0201000D
 10
0.0
 20
0.0
 30
0.0
  0
LINE
  5
130
  8
_________1
 62
     7
 10
76.963399999999993
 20
143.80500000000001
 30
0.0
 11
88.026700000000005
 21
143.80500000000001
 31
0.0
  0
LINE
  5
131
  8
_________1
 62
     7
 10
75.3459
 20
71.8035
 30
0.0
 11
88.026700000000005
 21
71.8035
 31
0.0
  0
LINE
  5
132
  8
_________1
 62
     7
 10
79.727400000000003
 20
89.804199999999994
 30
0.0
 11
88.026700000000005
 21
89.804199999999994
 31
0.0
  0
INSERT
  5
133
  8
_________1
 62
     7
  2
AIGNBL0201000E
 10
0.0
 20
0.0
 30
0.0
  0
LINE
  5
134
  8
_________1
 62
     7
 10
71.035700000000006
 20
62.629100000000001
 30
0.0
 11
71.035700000000006
 21
68.923999999999992
 31
0.0
  0
LINE
  5
135
  8
_________1
 62
     7
 10
31.035499999999999
 20
118.61199999999999
 30
0.0
 11
31.035499999999999
 21
62.629100000000001
 31
0.0
  0
LINE
  5
136
  8
_________1
 62
     7
 10
-13.603400000000001
 20
93.797799999999995
 30
0.0
 11
-13.603400000000001
 21
71.673900000000003
 31
0.0
  0
LINE
  5
137
  8
_________1
 62
     7
 10
-20.976600000000001
 20
82.892600000000002
 30
0.0
 11
-12.9033
 21
82.892600000000002
 31
0.0
  0
LINE
  5
138
  8
_________1
 62
     7
 10
-20.6431
 20
89.804199999999994
 30
0.0
 11
-12.9033
 21
89.804199999999994
 31
0.0
  0
INSERT
  5
139
  8
_________1
 62
     7
  2
AIGNBL0201000F
 10
0.0
 20
0.0
 30
0.0
  0
LINE
  5
13A
  8
_________1
 62
     7
 10
-25.838699999999999
 20
71.103399999999993
 30
0.0
 11
-25.838699999999999
 21
61.9801
 31
0.0
  0
LINE
  5
13B
  8
_________1
 62
     7
 10
-32.831299999999999
 20
71.103399999999993
 30
0.0
 11
-32.831299999999999
 21
61.9801
 31
0.0
  0
LINE
  5
13C
  8
_________1
 62
     7
 10
-19.4191
 20
233.14599999999999
 30
0.0
 11
-10.883800000000001
 21
233.14599999999999
 31
0.0
  0
LINE
  5
13D
  8
_________1
 62
     7
 10
30.453299999999999
 20
119.8
 30
0.0
 11
28.8169
 21
110.52200000000001
 31
0.0
  0
LINE
  5
13E
  8
_________1
  6
AIGENLINE001
 62
     7
 10
32.128
 20
129.29499999999999
 30
0.0
 11
30.582100000000001
 21
120.53100000000001
 31
0.0
  0
LINE
  5
13F
  8
_________1
  6
AIGENLINE001
 62
     7
 10
31.035499999999999
 20
133.36799999999999
 30
0.0
 11
31.035499999999999
 21
119.312
 31
0.0
  0
LINE
  5
140
  8
_________1
  6
AIGENLINE001
 62
     7
 10
71.035700000000006
 20
69.624099999999999
 30
0.0
 11
71.035700000000006
 21
97.466800000000006
 31
0.0
  0
LINE
  5
141
  8
_________1
  6
AIGENLINE001
 62
     7
 10
71.035700000000006
 20
103.376
 30
0.0
 11
71.035700000000006
 21
107.845
 31
0.0
  0
LINE
  5
142
  8
_________1
  6
AIGENLINE001
 62
     7
 10
71.035700000000006
 20
113.43000000000001
 30
0.0
 11
71.035700000000006
 21
146.97999999999999
 31
0.0
  0
LINE
  5
143
  8
_________1
  6
AIGENLINE001
 62
     7
 10
-20.285499999999999
 20
233.14599999999999
 30
0.0
 11
-39.2423
 21
233.14599999999999
 31
0.0
  0
LINE
  5
144
  8
_________1
  6
AIGENLINE001
 62
     7
 10
-29.334800000000001
 20
183.16200000000001
 30
0.0
 11
-29.334800000000001
 21
241.59700000000001
 31
0.0
  0
ARC
  5
145
  8
_________1
 62
     7
 10
-24.284145000000009
 20
143.527861
 30
0.0
 40
0.2770329999999999
 50
2.1087349999999989
 51
87.891255000000001
  0
ARC
  5
146
  8
_________1
 62
     7
 10
-24.180617999999999
 20
130.65884399999999
 30
0.0
 40
0.173443
 50
272.286472
 51
357.83204000000001
  0
LINE
  5
147
  8
_________1
 62
     7
 10
-24.007300000000001
 20
143.53800000000001
 30
0.0
 11
-24.007300000000001
 21
130.65199999999999
 31
0.0
  0
LINE
  5
148
  8
_________1
  6
AIGENLINE001
 62
     7
 10
-29.334800000000001
 20
146.48500000000001
 30
0.0
 11
-29.334800000000001
 21
69.716399999999993
 31
0.0
  0
LINE
  5
149
  8
_________1
 62
     7
 10
-29.1374
 20
93.063299999999998
 30
0.0
 11
-29.338999999999999
 21
93.063299999999998
 31
0.0
  0
LINE
  5
14A
  8
_________1
 62
     7
 10
-29.338999999999999
 20
93.063299999999998
 30
0.0
 11
-29.338999999999999
 21
93.236199999999997
 31
0.0
  0
LINE
  5
14B
  8
_________1
 62
     7
 10
-29.338999999999999
 20
93.236199999999997
 30
0.0
 11
-29.1374
 21
93.236199999999997
 31
0.0
  0
LINE
  5
14C
  8
_________1
 62
     7
 10
-29.1374
 20
93.236199999999997
 30
0.0
 11
-29.1374
 21
93.063299999999998
 31
0.0
  0
LINE
  5
14D
  8
_________1
 62
     7
 10
-29.125699999999998
 20
93.310699999999997
 30
0.0
 11
-29.413
 21
93.310699999999997
 31
0.0
  0
LINE
  5
14E
  8
_________1
 62
     7
 10
-29.413
 20
93.310699999999997
 30
0.0
 11
-29.413
 21
92.988900000000001
 31
0.0
  0
LINE
  5
14F
  8
_________1
 62
     7
 10
-29.413
 20
92.988900000000001
 30
0.0
 11
-29.125699999999998
 21
92.988900000000001
 31
0.0
  0
ARC
  5
150
  8
_________1
 62
     7
 10
-29.127952000000001
 20
93.05346999999999
 30
0.0
 40
0.064626
 50
271.98787299999998
 51
358.32781599999998
  0
LINE
  5
151
  8
_________1
 62
     7
 10
-29.063400000000001
 20
93.051599999999979
 30
0.0
 11
-29.063400000000001
 21
93.24799999999999
 31
0.0
  0
ARC
  5
152
  8
_________1
 62
     7
 10
-29.128367999999998
 20
93.245656000000011
 30
0.0
 40
0.065055
 50
2.0255740000000002
 51
87.658737999999985
  0
LINE
  5
153
  8
_________1
 62
     7
 10
-29.408899999999999
 20
94.654300000000006
 30
0.0
 11
-29.721
 21
94.654300000000006
 31
0.0
  0
ARC
  5
154
  8
_________1
 62
     7
 10
-29.705798999999999
 20
94.240410999999995
 30
0.0
 40
0.414121
 50
92.107282000000012
 51
177.84314499999999
  0
LINE
  5
155
  8
_________1
 62
     7
 10
-30.119599999999998
 20
94.256000000000014
 30
0.0
 11
-30.119599999999998
 21
93.536699999999996
 31
0.0
  0
ARC
  5
156
  8
_________1
 62
     7
 10
-30.053163999999999
 20
93.538993000000005
 30
0.0
 40
0.066504
 50
182.01365100000001
 51
267.05475999999999
  0
LINE
  5
157
  8
_________1
 62
     7
 10
-30.0566
 20
93.4726
 30
0.0
 11
-29.408899999999999
 21
93.4726
 31
0.0
  0
ARC
  5
158
  8
_________1
 62
     7
 10
-29.411470999999999
 20
93.538515000000004
 30
0.0
 40
0.065988
 50
272.23356899999999
 51
358.38584800000001
  0
LINE
  5
159
  8
_________1
 62
     7
 10
-29.345500000000001
 20
93.536699999999996
 30
0.0
 11
-29.345500000000001
 21
93.609700000000004
 31
0.0
  0
ARC
  5
15A
  8
_________1
 62
     7
 10
-29.410658000000002
 20
93.607220999999996
 30
0.0
 40
0.065196
 50
2.1725039999999991
 51
88.453663000000006
  0
LINE
  5
15B
  8
_________1
 62
     7
 10
-29.408899999999999
 20
93.672399999999996
 30
0.0
 11
-29.924299999999999
 21
93.672399999999996
 31
0.0
  0
LINE
  5
15C
  8
_________1
 62
     7
 10
-29.924299999999999
 20
93.672399999999996
 30
0.0
 11
-29.924299999999999
 21
93.963200000000015
 31
0.0
  0
LINE
  5
15D
  8
_________1
 62
     7
 10
-29.924299999999999
 20
93.963200000000015
 30
0.0
 11
-29.472300000000001
 21
93.963200000000015
 31
0.0
  0
ARC
  5
15E
  8
_________1
 62
     7
 10
-29.474861000000001
 20
94.0291
 30
0.0
 40
0.065988
 50
272.23356899999999
 51
358.38584800000001
  0
LINE
  5
15F
  8
_________1
 62
     7
 10
-29.408899999999999
 20
94.027199999999993
 30
0.0
 11
-29.408899999999999
 21
94.100300000000004
 31
0.0
  0
ARC
  5
160
  8
_________1
 62
     7
 10
-29.474755999999999
 20
94.097810999999993
 30
0.0
 40
0.065903
 50
2.1448269999999998
 51
87.855163000000005
  0
LINE
  5
161
  8
_________1
 62
     7
 10
-29.472300000000001
 20
94.163700000000006
 30
0.0
 11
-29.924299999999999
 21
94.163700000000006
 31
0.0
  0
LINE
  5
162
  8
_________1
 62
     7
 10
-29.924299999999999
 20
94.163700000000006
 30
0.0
 11
-29.924299999999999
 21
94.453699999999998
 31
0.0
  0
LINE
  5
163
  8
_________1
 62
     7
 10
-29.924299999999999
 20
94.453699999999998
 30
0.0
 11
-29.408899999999999
 21
94.453699999999998
 31
0.0
  0
ARC
  5
164
  8
_________1
 62
     7
 10
-29.411470999999999
 20
94.519683999999998
 30
0.0
 40
0.065988
 50
272.23356899999999
 51
358.38584800000001
  0
LINE
  5
165
  8
_________1
 62
     7
 10
-29.345500000000001
 20
94.517799999999994
 30
0.0
 11
-29.345500000000001
 21
94.590199999999996
 31
0.0
  0
ARC
  5
166
  8
_________1
 62
     7
 10
-29.412081000000001
 20
94.587710999999985
 30
0.0
 40
0.066617
 50
2.1179999999999999
 51
87.262582999999992
  0
LINE
  5
167
  8
_________1
 62
     7
 10
-30.307400000000001
 20
94.654300000000006
 30
0.0
 11
-30.621600000000001
 21
94.654300000000006
 31
0.0
  0
ARC
  5
168
  8
_________1
 62
     7
 10
-30.606321000000001
 20
94.241451999999995
 30
0.0
 40
0.413082
 50
92.117039000000005
 51
177.982145
  0
LINE
  5
169
  8
_________1
 62
     7
 10
-31.019100000000002
 20
94.256000000000014
 30
0.0
 11
-31.019100000000002
 21
93.536699999999996
 31
0.0
  0
ARC
  5
16A
  8
_________1
 62
     7
 10
-30.952684000000001
 20
93.538993000000005
 30
0.0
 40
0.066504
 50
182.01365100000001
 51
267.05475999999999
  0
LINE
  5
16B
  8
_________1
 62
     7
 10
-30.956099999999999
 20
93.4726
 30
0.0
 11
-30.307400000000001
 21
93.4726
 31
0.0
  0
ARC
  5
16C
  8
_________1
 62
     7
 10
-30.309957000000001
 20
93.538515000000004
 30
0.0
 40
0.065988
 50
272.23356899999999
 51
358.38584800000001
  0
LINE
  5
16D
  8
_________1
 62
     7
 10
-30.244
 20
93.536699999999996
 30
0.0
 11
-30.244
 21
93.609700000000004
 31
0.0
  0
ARC
  5
16E
  8
_________1
 62
     7
 10
-30.309145000000001
 20
93.607220999999996
 30
0.0
 40
0.065196
 50
2.1725039999999991
 51
88.453663000000006
  0
LINE
  5
16F
  8
_________1
 62
     7
 10
-30.307400000000001
 20
93.672399999999996
 30
0.0
 11
-30.824200000000001
 21
93.672399999999996
 31
0.0
  0
LINE
  5
170
  8
_________1
 62
     7
 10
-30.824200000000001
 20
93.672399999999996
 30
0.0
 11
-30.824200000000001
 21
94.453699999999998
 31
0.0
  0
LINE
  5
171
  8
_________1
 62
     7
 10
-30.824200000000001
 20
94.453699999999998
 30
0.0
 11
-30.307400000000001
 21
94.453699999999998
 31
0.0
  0
ARC
  5
172
  8
_________1
 62
     7
 10
-30.309957000000001
 20
94.519683999999998
 30
0.0
 40
0.065988
 50
272.23356899999999
 51
358.38584800000001
  0
LINE
  5
173
  8
_________1
 62
     7
 10
-30.244
 20
94.517799999999994
 30
0.0
 11
-30.244
 21
94.590199999999996
 31
0.0
  0
ARC
  5
174
  8
_________1
 62
     7
 10
-30.310566999999999
 20
94.587710999999985
 30
0.0
 40
0.066617
 50
2.1179999999999999
 51
87.262582999999992
  0
LINE
  5
175
  8
_________1
 62
     7
 10
-30.2013
 20
93.178399999999996
 30
0.0
 11
-30.400700000000001
 21
93.178399999999996
 31
0.0
  0
LINE
  5
176
  8
_________1
 62
     7
 10
-30.400700000000001
 20
93.178399999999996
 30
0.0
 11
-30.400700000000001
 21
93.236199999999997
 31
0.0
  0
LINE
  5
177
  8
_________1
 62
     7
 10
-30.400700000000001
 20
93.236199999999997
 30
0.0
 11
-30.2013
 21
93.236199999999997
 31
0.0
  0
LINE
  5
178
  8
_________1
 62
     7
 10
-30.2013
 20
93.236199999999997
 30
0.0
 11
-30.2013
 21
93.178399999999996
 31
0.0
  0
LINE
  5
179
  8
_________1
 62
     7
 10
-30.1892
 20
93.310699999999997
 30
0.0
 11
-30.474799999999998
 21
93.310699999999997
 31
0.0
  0
LINE
  5
17A
  8
_________1
 62
     7
 10
-30.474799999999998
 20
93.310699999999997
 30
0.0
 11
-30.474799999999998
 21
92.988900000000001
 31
0.0
  0
LINE
  5
17B
  8
_________1
 62
     7
 10
-30.474799999999998
 20
92.988900000000001
 30
0.0
 11
-30.400700000000001
 21
92.988900000000001
 31
0.0
  0
LINE
  5
17C
  8
_________1
 62
     7
 10
-30.400700000000001
 20
92.988900000000001
 30
0.0
 11
-30.400700000000001
 21
93.103300000000004
 31
0.0
  0
LINE
  5
17D
  8
_________1
 62
     7
 10
-30.400700000000001
 20
93.103300000000004
 30
0.0
 11
-30.2013
 21
93.103300000000004
 31
0.0
  0
LINE
  5
17E
  8
_________1
 62
     7
 10
-30.2013
 20
93.103300000000004
 30
0.0
 11
-30.2013
 21
92.988900000000001
 31
0.0
  0
LINE
  5
17F
  8
_________1
 62
     7
 10
-30.2013
 20
92.988900000000001
 30
0.0
 11
-30.1265
 21
92.988900000000001
 31
0.0
  0
LINE
  5
180
  8
_________1
 62
     7
 10
-30.1265
 20
92.988900000000001
 30
0.0
 11
-30.1265
 21
93.097099999999998
 31
0.0
  0
ARC
  5
181
  8
_________1
 62
     7
 10
-30.175409999999999
 20
93.096337000000005
 30
0.0
 40
0.048898
 50
0.8468899999999999
 51
68.543408999999997
  0
ARC
  5
182
  8
_________1
 62
     7
 10
-30.176877999999999
 20
93.192114000000004
 30
0.0
 40
0.050666
 50
292.45909899999998
 51
6.2809109999999988
  0
LINE
  5
183
  8
_________1
 62
     7
 10
-30.1265
 20
93.197699999999998
 30
0.0
 11
-30.1265
 21
93.24799999999999
 31
0.0
  0
ARC
  5
184
  8
_________1
 62
     7
 10
-30.191541999999998
 20
93.245632000000001
 30
0.0
 40
0.065066
 50
2.0466579999999999
 51
87.953331999999989
  0
LINE
  5
185
  8
_________1
 62
     7
 10
-31.000499999999999
 20
93.236199999999997
 30
0.0
 11
-30.853400000000001
 21
93.236199999999997
 31
0.0
  0
LINE
  5
186
  8
_________1
 62
     7
 10
-30.853400000000001
 20
93.236199999999997
 30
0.0
 11
-30.853400000000001
 21
92.988900000000001
 31
0.0
  0
LINE
  5
187
  8
_________1
 62
     7
 10
-30.853400000000001
 20
92.988900000000001
 30
0.0
 11
-30.778700000000001
 21
92.988900000000001
 31
0.0
  0
LINE
  5
188
  8
_________1
 62
     7
 10
-30.778700000000001
 20
92.988900000000001
 30
0.0
 11
-30.778700000000001
 21
93.236199999999997
 31
0.0
  0
LINE
  5
189
  8
_________1
 62
     7
 10
-30.778700000000001
 20
93.236199999999997
 30
0.0
 11
-30.631599999999999
 21
93.236199999999997
 31
0.0
  0
LINE
  5
18A
  8
_________1
 62
     7
 10
-30.631599999999999
 20
93.236199999999997
 30
0.0
 11
-30.631599999999999
 21
93.310699999999997
 31
0.0
  0
LINE
  5
18B
  8
_________1
 62
     7
 10
-30.631599999999999
 20
93.310699999999997
 30
0.0
 11
-31.000499999999999
 21
93.310699999999997
 31
0.0
  0
LINE
  5
18C
  8
_________1
 62
     7
 10
-31.000499999999999
 20
93.310699999999997
 30
0.0
 11
-31.000499999999999
 21
93.236199999999997
 31
0.0
  0
LINE
  5
18D
  8
_________1
 62
     7
 10
-29.836400000000001
 20
93.130099999999999
 30
0.0
 11
-29.77300000000001
 21
93.250699999999995
 31
0.0
  0
LINE
  5
18E
  8
_________1
 62
     7
 10
-29.77300000000001
 20
93.250699999999995
 30
0.0
 11
-29.7103
 21
93.130099999999999
 31
0.0
  0
LINE
  5
18F
  8
_________1
 62
     7
 10
-29.7103
 20
93.130099999999999
 30
0.0
 11
-29.836400000000001
 21
93.130099999999999
 31
0.0
  0
LINE
  5
190
  8
_________1
 62
     7
 10
-29.8109
 20
93.310699999999997
 30
0.0
 11
-29.997299999999999
 21
92.988900000000001
 31
0.0
  0
LINE
  5
191
  8
_________1
 62
     7
 10
-29.997299999999999
 20
92.988900000000001
 30
0.0
 11
-29.910499999999999
 21
92.988900000000001
 31
0.0
  0
LINE
  5
192
  8
_________1
 62
     7
 10
-29.910499999999999
 20
92.988900000000001
 30
0.0
 11
-29.875399999999999
 21
93.056399999999996
 31
0.0
  0
LINE
  5
193
  8
_________1
 62
     7
 10
-29.875399999999999
 20
93.056399999999996
 30
0.0
 11
-29.670400000000001
 21
93.056399999999996
 31
0.0
  0
LINE
  5
194
  8
_________1
 62
     7
 10
-29.670400000000001
 20
93.056399999999996
 30
0.0
 11
-29.6356
 21
92.988900000000001
 31
0.0
  0
LINE
  5
195
  8
_________1
 62
     7
 10
-29.6356
 20
92.988900000000001
 30
0.0
 11
-29.549499999999998
 21
92.988900000000001
 31
0.0
  0
LINE
  5
196
  8
_________1
 62
     7
 10
-29.549499999999998
 20
92.988900000000001
 30
0.0
 11
-29.7348
 21
93.310699999999997
 31
0.0
  0
LINE
  5
197
  8
_________1
 62
     7
 10
-29.7348
 20
93.310699999999997
 30
0.0
 11
-29.8109
 21
93.310699999999997
 31
0.0
  0
LINE
  5
198
  8
_________1
 62
     7
 10
-27.713200000000001
 20
94.654300000000006
 30
0.0
 11
-28.0946
 21
94.654300000000006
 31
0.0
  0
ARC
  5
199
  8
_________1
 62
     7
 10
-28.079308000000001
 20
94.241789999999995
 30
0.0
 40
0.412745
 50
92.121420999999984
 51
178.027434
  0
LINE
  5
19A
  8
_________1
 62
     7
 10
-28.491800000000001
 20
94.256000000000014
 30
0.0
 11
-28.491800000000001
 21
93.536699999999996
 31
0.0
  0
ARC
  5
19B
  8
_________1
 62
     7
 10
-28.425350999999999
 20
93.538968999999994
 30
0.0
 40
0.066498
 50
181.99320800000001
 51
266.76130999999998
  0
LINE
  5
19C
  8
_________1
 62
     7
 10
-28.429099999999998
 20
93.4726
 30
0.0
 11
-28.360199999999999
 21
93.4726
 31
0.0
  0
ARC
  5
19D
  8
_________1
 62
     7
 10
-28.362929000000001
 20
93.538664999999995
 30
0.0
 40
0.066144
 50
272.36007000000001
 51
358.25934799999999
  0
LINE
  5
19E
  8
_________1
 62
     7
 10
-28.296800000000001
 20
93.536699999999996
 30
0.0
 11
-28.296800000000001
 21
93.963200000000015
 31
0.0
  0
LINE
  5
19F
  8
_________1
 62
     7
 10
-28.296800000000001
 20
93.963200000000015
 30
0.0
 11
-27.845500000000001
 21
93.963200000000015
 31
0.0
  0
LINE
  5
1A0
  8
_________1
 62
     7
 10
-27.845500000000001
 20
93.963200000000015
 30
0.0
 11
-27.845500000000001
 21
93.536699999999996
 31
0.0
  0
ARC
  5
1A1
  8
_________1
 62
     7
 10
-27.779035
 20
93.539016999999987
 30
0.0
 40
0.066511
 50
182.03414900000001
 51
267.346473
  0
LINE
  5
1A2
  8
_________1
 62
     7
 10
-27.7821
 20
93.4726
 30
0.0
 11
-27.713200000000001
 21
93.4726
 31
0.0
  0
ARC
  5
1A3
  8
_________1
 62
     7
 10
-27.715935999999999
 20
93.538664999999995
 30
0.0
 40
0.066144
 50
272.36007000000001
 51
358.25934799999999
  0
LINE
  5
1A4
  8
_________1
 62
     7
 10
-27.649799999999999
 20
93.536699999999996
 30
0.0
 11
-27.649799999999999
 21
94.590199999999996
 31
0.0
  0
ARC
  5
1A5
  8
_________1
 62
     7
 10
-27.716394000000001
 20
94.587710999999985
 30
0.0
 40
0.066617
 50
2.1179999999999999
 51
87.262582999999992
  0
LINE
  5
1A6
  8
_________1
 62
     7
 10
-28.618200000000002
 20
94.654300000000006
 30
0.0
 11
-28.803899999999999
 21
94.654300000000006
 31
0.0
  0
ARC
  5
1A7
  8
_________1
 62
     7
 10
-28.788699999999999
 20
94.240759999999995
 30
0.0
 40
0.413773
 50
92.110294999999979
 51
177.88967500000001
  0
LINE
  5
1A8
  8
_________1
 62
     7
 10
-29.202200000000001
 20
94.256000000000014
 30
0.0
 11
-29.202200000000001
 21
93.536699999999996
 31
0.0
  0
ARC
  5
1A9
  8
_________1
 62
     7
 10
-29.135722999999999
 20
93.539016999999987
 30
0.0
 40
0.066511
 50
182.03414900000001
 51
267.346473
  0
LINE
  5
1AA
  8
_________1
 62
     7
 10
-29.1388
 20
93.4726
 30
0.0
 11
-29.070599999999999
 21
93.4726
 31
0.0
  0
ARC
  5
1AB
  8
_________1
 62
     7
 10
-29.073312000000001
 20
93.538664999999995
 30
0.0
 40
0.066144
 50
272.36007000000001
 51
358.25934799999999
  0
LINE
  5
1AC
  8
_________1
 62
     7
 10
-29.007200000000001
 20
93.536699999999996
 30
0.0
 11
-29.007200000000001
 21
94.453699999999998
 31
0.0
  0
LINE
  5
1AD
  8
_________1
 62
     7
 10
-29.007200000000001
 20
94.453699999999998
 30
0.0
 11
-28.618200000000002
 21
94.453699999999998
 31
0.0
  0
ARC
  5
1AE
  8
_________1
 62
     7
 10
-28.620958000000002
 20
94.519469999999998
 30
0.0
 40
0.06578
 50
272.36429399999997
 51
358.56733400000002
  0
LINE
  5
1AF
  8
_________1
 62
     7
 10
-28.555199999999999
 20
94.517799999999994
 30
0.0
 11
-28.555199999999999
 21
94.590199999999996
 31
0.0
  0
ARC
  5
1B0
  8
_________1
 62
     7
 10
-28.621765
 20
94.587734999999995
 30
0.0
 40
0.06661
 50
2.0975909999999991
 51
86.970781000000002
  0
LINE
  5
1B1
  8
_________1
 62
     7
 10
-28.3003
 20
93.072900000000004
 30
0.0
 11
-28.533799999999999
 21
93.310699999999997
 31
0.0
  0
LINE
  5
1B2
  8
_________1
 62
     7
 10
-28.533799999999999
 20
93.310699999999997
 30
0.0
 11
-28.6083
 21
93.310699999999997
 31
0.0
  0
LINE
  5
1B3
  8
_________1
 62
     7
 10
-28.6083
 20
93.310699999999997
 30
0.0
 11
-28.6083
 21
92.988900000000001
 31
0.0
  0
LINE
  5
1B4
  8
_________1
 62
     7
 10
-28.6083
 20
92.988900000000001
 30
0.0
 11
-28.533799999999999
 21
92.988900000000001
 31
0.0
  0
LINE
  5
1B5
  8
_________1
 62
     7
 10
-28.533799999999999
 20
92.988900000000001
 30
0.0
 11
-28.533799999999999
 21
93.226600000000005
 31
0.0
  0
LINE
  5
1B6
  8
_________1
 62
     7
 10
-28.533799999999999
 20
93.226600000000005
 30
0.0
 11
-28.3003
 21
92.988900000000001
 31
0.0
  0
LINE
  5
1B7
  8
_________1
 62
     7
 10
-28.3003
 20
92.988900000000001
 30
0.0
 11
-28.2258
 21
92.988900000000001
 31
0.0
  0
LINE
  5
1B8
  8
_________1
 62
     7
 10
-28.2258
 20
92.988900000000001
 30
0.0
 11
-28.2258
 21
93.310699999999997
 31
0.0
  0
LINE
  5
1B9
  8
_________1
 62
     7
 10
-28.2258
 20
93.310699999999997
 30
0.0
 11
-28.3003
 21
93.310699999999997
 31
0.0
  0
LINE
  5
1BA
  8
_________1
 62
     7
 10
-28.3003
 20
93.310699999999997
 30
0.0
 11
-28.3003
 21
93.072900000000004
 31
0.0
  0
LINE
  5
1BB
  8
_________1
 62
     7
 10
-28.875900000000001
 20
92.988900000000001
 30
0.0
 11
-28.801200000000001
 21
92.988900000000001
 31
0.0
  0
LINE
  5
1BC
  8
_________1
 62
     7
 10
-28.801200000000001
 20
92.988900000000001
 30
0.0
 11
-28.801200000000001
 21
93.310699999999997
 31
0.0
  0
LINE
  5
1BD
  8
_________1
 62
     7
 10
-28.801200000000001
 20
93.310699999999997
 30
0.0
 11
-28.875900000000001
 21
93.310699999999997
 31
0.0
  0
LINE
  5
1BE
  8
_________1
 62
     7
 10
-28.875900000000001
 20
93.310699999999997
 30
0.0
 11
-28.875900000000001
 21
92.988900000000001
 31
0.0
  0
LINE
  5
1BF
  8
_________1
 62
     7
 10
-27.6891
 20
93.236199999999997
 30
0.0
 11
-27.6891
 21
93.310699999999997
 31
0.0
  0
LINE
  5
1C0
  8
_________1
 62
     7
 10
-27.6891
 20
93.310699999999997
 30
0.0
 11
-27.976400000000002
 21
93.310699999999997
 31
0.0
  0
ARC
  5
1C1
  8
_________1
 62
     7
 10
-27.97416500000001
 20
93.245700999999997
 30
0.0
 40
0.064995
 50
91.987795999999989
 51
178.01217399999999
  0
LINE
  5
1C2
  8
_________1
 62
     7
 10
-28.039100000000001
 20
93.24799999999999
 30
0.0
 11
-28.039100000000001
 21
93.051599999999979
 31
0.0
  0
ARC
  5
1C3
  8
_________1
 62
     7
 10
-27.974095999999999
 20
93.053906999999995
 30
0.0
 40
0.065066
 50
182.04666
 51
267.95336900000012
  0
LINE
  5
1C4
  8
_________1
 62
     7
 10
-27.976400000000002
 20
92.988900000000001
 30
0.0
 11
-27.6891
 21
92.988900000000001
 31
0.0
  0
LINE
  5
1C5
  8
_________1
 62
     7
 10
-27.6891
 20
92.988900000000001
 30
0.0
 11
-27.6891
 21
93.151499999999999
 31
0.0
  0
LINE
  5
1C6
  8
_________1
 62
     7
 10
-27.6891
 20
93.151499999999999
 30
0.0
 11
-27.763500000000001
 21
93.151499999999999
 31
0.0
  0
LINE
  5
1C7
  8
_________1
 62
     7
 10
-27.763500000000001
 20
93.151499999999999
 30
0.0
 11
-27.763500000000001
 21
93.063299999999998
 31
0.0
  0
LINE
  5
1C8
  8
_________1
 62
     7
 10
-27.763500000000001
 20
93.063299999999998
 30
0.0
 11
-27.963999999999999
 21
93.063299999999998
 31
0.0
  0
LINE
  5
1C9
  8
_________1
 62
     7
 10
-27.963999999999999
 20
93.063299999999998
 30
0.0
 11
-27.963999999999999
 21
93.236199999999997
 31
0.0
  0
LINE
  5
1CA
  8
_________1
 62
     7
 10
-27.963999999999999
 20
93.236199999999997
 30
0.0
 11
-27.6891
 21
93.236199999999997
 31
0.0
  0
LINE
  5
1CB
  8
_________1
 62
     7
 10
-27.845500000000001
 20
94.163700000000006
 30
0.0
 11
-28.296800000000001
 21
94.163700000000006
 31
0.0
  0
LINE
  5
1CC
  8
_________1
 62
     7
 10
-28.296800000000001
 20
94.163700000000006
 30
0.0
 11
-28.296800000000001
 21
94.453699999999998
 31
0.0
  0
LINE
  5
1CD
  8
_________1
 62
     7
 10
-28.296800000000001
 20
94.453699999999998
 30
0.0
 11
-27.845500000000001
 21
94.453699999999998
 31
0.0
  0
LINE
  5
1CE
  8
_________1
 62
     7
 10
-27.845500000000001
 20
94.453699999999998
 30
0.0
 11
-27.845500000000001
 21
94.163700000000006
 31
0.0
  0
ARC
  5
1CF
  8
_________1
 62
     7
 10
-26.982119999999998
 20
93.820053000000016
 30
0.0
 40
0.644201
 50
0.165385
 51
32.982123999999999
  0
ARC
  5
1D0
  8
_________1
 62
     7
 10
-27.286833000000001
 20
93.651558999999992
 30
0.0
 40
0.991834
 50
31.564371000000001
 51
45.192852000000009
  0
ARC
  5
1D1
  8
_________1
 62
     7
 10
-27.637362
 20
93.315146999999996
 30
0.0
 40
1.477584
 50
44.742364000000002
 51
55.043641000000001
  0
ARC
  5
1D2
  8
_________1
 62
     7
 10
-28.061723000000001
 20
92.730085000000017
 30
0.0
 40
2.200269
 50
54.715817999999999
 51
63.863422000000007
  0
ARC
  5
1D3
  8
_________1
 62
     7
 10
-28.610935999999999
 20
91.652179000000004
 30
0.0
 40
3.4099390000000001
 50
63.557218999999989
 51
74.846788000000004
  0
ARC
  5
1D4
  8
_________1
 62
     7
 10
-29.174811999999999
 20
89.792529999999985
 30
0.0
 40
5.3526419999999986
 50
74.224264000000005
 51
86.031385999999983
  0
ARC
  5
1D5
  8
_________1
 62
     7
 10
-29.330950000000001
 20
88.466793999999993
 30
0.0
 40
6.6863119999999991
 50
85.482870000000005
 51
90.033229000000006
  0
ARC
  5
1D6
  8
_________1
 62
     7
 10
-29.335602999999999
 20
88.692166999999998
 30
0.0
 40
6.4609389999999989
 50
89.993123999999995
 51
102.182683
  0
ARC
  5
1D7
  8
_________1
 62
     7
 10
-29.729471000000011
 20
90.708184999999986
 30
0.0
 40
4.4073900000000004
 50
102.70843600000001
 51
112.305984
  0
ARC
  5
1D8
  8
_________1
 62
     7
 10
-30.380459999999999
 20
92.348406000000011
 30
0.0
 40
2.6429
 50
112.74553299999999
 51
125.032346
  0
ARC
  5
1D9
  8
_________1
 62
     7
 10
-31.059911
 20
93.356735999999984
 30
0.0
 40
1.427395999999999
 50
125.934219
 51
141.30392900000001
  0
ARC
  5
1DA
  8
_________1
 62
     7
 10
-31.53416
 20
93.756867000000014
 30
0.0
 40
0.807254
 50
142.425175
 51
165.562545
  0
ARC
  5
1DB
  8
_________1
 62
     7
 10
-31.719885999999999
 20
93.821453000000005
 30
0.0
 40
0.611506
 50
167.08436800000001
 51
179.956965
  0
ARC
  5
1DC
  8
_________1
 62
     7
 10
-31.688137000000001
 20
93.823581000000004
 30
0.0
 40
0.6432570000000001
 50
180.1487149999999
 51
213.00165799999999
  0
ARC
  5
1DD
  8
_________1
 62
     7
 10
-31.381297
 20
93.992978000000008
 30
0.0
 40
0.9931700000000001
 50
211.555848
 51
225.16836799999999
  0
ARC
  5
1DE
  8
_________1
 62
     7
 10
-31.030428000000011
 20
94.329339000000004
 30
0.0
 40
1.4791289999999999
 50
224.71564900000001
 51
235.008634
  0
ARC
  5
1DF
  8
_________1
 62
     7
 10
-30.606380999999999
 20
94.912959000000001
 30
0.0
 40
2.2004609999999998
 50
234.67753099999999
 51
243.826289
  0
ARC
  5
1E0
  8
_________1
 62
     7
 10
-30.057165000000001
 20
95.988061999999999
 30
0.0
 40
3.4076319999999991
 50
243.51223100000001
 51
254.81095400000001
  0
ARC
  5
1E1
  8
_________1
 62
     7
 10
-29.494519
 20
97.837330000000009
 30
0.0
 40
5.3400339999999993
 50
254.18355600000001
 51
266.01862
  0
ARC
  5
1E2
  8
_________1
 62
     7
 10
-29.338467000000001
 20
99.157398999999998
 30
0.0
 40
6.6680589999999986
 50
265.46851900000001
 51
270.031274
  0
ARC
  5
1E3
  8
_________1
 62
     7
 10
-29.334008999999998
 20
98.932381000000007
 30
0.0
 40
6.443041
 50
269.99271499999998
 51
282.217333
  0
ARC
  5
1E4
  8
_________1
 62
     7
 10
-28.941991000000002
 20
96.932387000000006
 30
0.0
 40
4.4055660000000003
 50
282.73885200000001
 51
292.34335800000002
  0
ARC
  5
1E5
  8
_________1
 62
     7
 10
-28.292418999999999
 20
95.298393999999973
 30
0.0
 40
2.6473889999999991
 50
292.78419100000002
 51
305.05592100000001
  0
ARC
  5
1E6
  8
_________1
 62
     7
 10
-27.611456
 20
94.288658999999996
 30
0.0
 40
1.4298779999999991
 50
305.95900699999999
 51
321.3090160000001
  0
ARC
  5
1E7
  8
_________1
 62
     7
 10
-27.135406
 20
93.887281999999999
 30
0.0
 40
0.8075499999999999
 50
322.422887
 51
345.55125800000002
  0
ARC
  5
1E8
  8
_________1
 62
     7
 10
-26.949262999999998
 20
93.822473000000016
 30
0.0
 40
0.6113420000000001
 50
347.08035999999998
 51
359.94739399999997
  0
LINE
  5
1E9
  8
_________1
 62
     7
 10
67.540000000000006
 20
80.059399999999997
 30
0.0
 11
67.540000000000006
 21
71.970200000000006
 31
0.0
  0
LINE
  5
1EA
  8
_________1
 62
     7
 10
71.035700000000006
 20
89.137200000000007
 30
0.0
 11
78.6935
 21
89.137200000000007
 31
0.0
  0
LINE
  5
1EB
  8
_________1
 62
     7
 10
78.6935
 20
89.137200000000007
 30
0.0
 11
78.6935
 21
89.804199999999994
 31
0.0
  0
LINE
  5
1EC
  8
_________1
 62
     7
 10
63.377200000000002
 20
89.804199999999994
 30
0.0
 11
63.377200000000002
 21
89.137200000000007
 31
0.0
  0
LINE
  5
1ED
  8
_________1
 62
     7
 10
63.377200000000002
 20
89.137200000000007
 30
0.0
 11
71.035700000000006
 21
89.137200000000007
 31
0.0
  0
LINE
  5
1EE
  8
_________1
 62
     7
 10
74.365399999999994
 20
71.8035
 30
0.0
 11
74.531800000000004
 21
71.970200000000006
 31
0.0
  0
LINE
  5
1EF
  8
_________1
 62
     7
 10
67.540000000000006
 20
71.970200000000006
 30
0.0
 11
67.706400000000002
 21
71.8035
 31
0.0
  0
LINE
  5
1F0
  8
_________1
 62
     7
 10
67.540000000000006
 20
71.970200000000006
 30
0.0
 11
74.531800000000004
 21
71.970200000000006
 31
0.0
  0
LINE
  5
1F1
  8
_________1
 62
     7
 10
74.365399999999994
 20
71.8035
 30
0.0
 11
67.706400000000002
 21
71.8035
 31
0.0
  0
LINE
  5
1F2
  8
_________1
 62
     7
 10
67.706400000000002
 20
71.8035
 30
0.0
 11
67.706400000000002
 21
80.059399999999997
 31
0.0
  0
LINE
  5
1F3
  8
_________1
 62
     7
 10
74.365399999999994
 20
71.8035
 30
0.0
 11
74.365399999999994
 21
80.059399999999997
 31
0.0
  0
LINE
  5
1F4
  8
_________1
 62
     7
 10
74.531800000000004
 20
71.970200000000006
 30
0.0
 11
74.531800000000004
 21
80.059399999999997
 31
0.0
  0
ARC
  5
1F5
  8
_________1
 62
     7
 10
36.881005000000002
 20
123.609144
 30
0.0
 40
1.7160859999999989
 50
91.351358000000005
 51
165.63501199999999
  0
ARC
  5
1F6
  8
_________1
 62
     7
 10
27.528580999999999
 20
124.005605
 30
0.0
 40
0.27496
 50
174.60505499999999
 51
258.09968400000002
  0
ARC
  5
1F7
  8
_________1
 62
     7
 10
34.635653000000012
 20
122.73737
 30
0.0
 40
0.2762469999999999
 50
261.827654
 51
345.13504
  0
LINE
  5
1F8
  8
_________1
 62
     7
 10
27.471900000000002
 20
123.73699999999999
 30
0.0
 11
34.596400000000003
 21
122.464
 31
0.0
  0
ARC
  5
1F9
  8
_________1
 62
     7
 10
25.619978
 20
124.747176
 30
0.0
 40
1.7105239999999999
 50
354.06383299999999
 51
60.479739000000002
  0
ARC
  5
1FA
  8
_________1
 62
     7
 10
29.260165000000001
 20
133.33463699999999
 30
0.0
 40
7.6302649999999987
 50
244.15042800000001
 51
248.4931
  0
ARC
  5
1FB
  8
_________1
 62
     7
 10
27.625025000000001
 20
130.40334300000001
 30
0.0
 40
4.2837040000000002
 50
232.91644700000001
 51
246.73884899999999
  0
ARC
  5
1FC
  8
_________1
 62
     7
 10
25.313361
 20
127.122805
 30
0.0
 40
0.271435
 50
178.33673999999999
 51
232.507544
  0
LINE
  5
1FD
  8
_________1
 62
     7
 10
78.859899999999996
 20
89.804199999999994
 30
0.0
 11
63.210799999999999
 21
89.804199999999994
 31
0.0
  0
LINE
  5
1FE
  8
_________1
 62
     7
 10
63.377200000000002
 20
90.802599999999998
 30
0.0
 11
78.6935
 21
90.802599999999998
 31
0.0
  0
ARC
  5
1FF
  8
_________1
 62
     7
 10
66.817051000000006
 20
143.52785600000001
 30
0.0
 40
0.277038
 50
92.109700000000004
 51
177.89027100000001
  0
LINE
  5
200
  8
_________1
 62
     7
 10
66.584999999999994
 20
130.48599999999999
 30
0.0
 11
66.540199999999999
 21
130.48599999999999
 31
0.0
  0
LINE
  5
201
  8
_________1
 62
     7
 10
66.540199999999999
 20
130.48599999999999
 30
0.0
 11
66.540199999999999
 21
143.53800000000001
 31
0.0
  0
LINE
  5
202
  8
_________1
 62
     7
 10
66.806899999999999
 20
143.80500000000001
 30
0.0
 11
76.096999999999994
 21
143.80500000000001
 31
0.0
  0
LINE
  5
203
  8
_________1
 62
     7
 10
66.584999999999994
 20
130.48599999999999
 30
0.0
 11
76.363600000000005
 21
130.48599999999999
 31
0.0
  0
LINE
  5
204
  8
_________1
 62
     7
 10
36.840499999999999
 20
125.325
 30
0.0
 11
63.044400000000003
 21
125.325
 31
0.0
  0
LINE
  5
205
  8
_________1
 62
     7
 10
71.035700000000006
 20
129.98599999999999
 30
0.0
 11
76.096999999999994
 21
129.98599999999999
 31
0.0
  0
LINE
  5
206
  8
_________1
 62
     7
 10
31.035499999999999
 20
129.98599999999999
 30
0.0
 11
71.035700000000006
 21
129.98599999999999
 31
0.0
  0
LINE
  5
207
  8
_________1
 62
     7
 10
25.042000000000002
 20
129.72
 30
0.0
 11
25.042000000000002
 21
127.134
 31
0.0
  0
LINE
  5
208
  8
_________1
 62
     7
 10
25.874000000000009
 20
129.98599999999999
 30
0.0
 11
31.035499999999999
 21
129.98599999999999
 31
0.0
  0
ARC
  5
209
  8
_________1
 62
     7
 10
25.317506000000002
 20
129.71055699999999
 30
0.0
 40
0.275628
 50
92.118967999999995
 51
178.02963
  0
LINE
  5
20A
  8
_________1
 62
     7
 10
25.307300000000001
 20
129.98599999999999
 30
0.0
 11
25.874000000000009
 21
129.98599999999999
 31
0.0
  0
LINE
  5
20B
  8
_________1
 62
     7
 10
25.042000000000002
 20
127.131
 30
0.0
 11
67.068700000000007
 21
127.131
 31
0.0
  0
LINE
  5
20C
  8
_________1
 62
     7
 10
63.210799999999999
 20
90.635900000000007
 30
0.0
 11
63.210799999999999
 21
89.804199999999994
 31
0.0
  0
LINE
  5
20D
  8
_________1
 62
     7
 10
78.859899999999996
 20
89.804199999999994
 30
0.0
 11
78.859899999999996
 21
90.635900000000007
 31
0.0
  0
ARC
  5
20E
  8
_________1
 62
     7
 10
63.383439000000003
 20
90.630024000000006
 30
0.0
 40
0.172699
 50
92.057590999999988
 51
178.06088199999999
  0
ARC
  5
20F
  8
_________1
 62
     7
 10
78.686621000000002
 20
90.629305999999985
 30
0.0
 40
0.173443
 50
2.167959999999999
 51
87.713527999999997
  0
ARC
  5
210
  8
_________1
 62
     7
 10
76.086767000000009
 20
143.5278659999999
 30
0.0
 40
0.277028
 50
2.1077449999999991
 51
87.892244999999988
  0
LINE
  5
211
  8
_________1
 62
     7
 10
76.363600000000005
 20
130.48599999999999
 30
0.0
 11
76.363600000000005
 21
143.53800000000001
 31
0.0
  0
LINE
  5
212
  8
_________1
 62
     7
 10
74.6982
 20
129.98599999999999
 30
0.0
 11
74.686199999999999
 21
130.48599999999999
 31
0.0
  0
LINE
  5
213
  8
_________1
 62
     7
 10
67.384299999999996
 20
130.48599999999999
 30
0.0
 11
67.372500000000002
 21
129.98599999999999
 31
0.0
  0
LINE
  5
214
  8
_________1
 62
     7
 10
34.90270000000001
 20
122.667
 30
0.0
 11
35.218600000000002
 21
124.035
 31
0.0
  0
LINE
  5
215
  8
_________1
 62
     7
 10
27.321300000000001
 20
124.56999999999999
 30
0.0
 11
27.254799999999999
 21
124.03100000000001
 31
0.0
  0
ARC
  5
216
  8
_________1
 62
     7
 10
76.087443999999991
 20
129.70980700000001
 30
0.0
 40
0.276354
 50
2.1208029999999991
 51
88.027428999999998
  0
LINE
  5
217
  8
_________1
 62
     7
 10
65.708200000000005
 20
122.661
 30
0.0
 11
65.708200000000005
 21
90.802599999999998
 31
0.0
  0
LINE
  5
218
  8
_________1
 62
     7
 10
76.363600000000005
 20
90.802599999999998
 30
0.0
 11
76.363600000000005
 21
129.72
 31
0.0
  0
LINE
  5
219
  8
_________1
 62
     7
 10
73.533100000000005
 20
130.48599999999999
 30
0.0
 11
73.533100000000005
 21
129.98599999999999
 31
0.0
  0
LINE
  5
21A
  8
_________1
 62
     7
 10
68.538399999999996
 20
130.48599999999999
 30
0.0
 11
68.538399999999996
 21
129.98599999999999
 31
0.0
  0
LINE
  5
21B
  8
_________1
 62
     7
 10
76.363600000000005
 20
143.53800000000001
 30
0.0
 11
76.363600000000005
 21
130.48599999999999
 31
0.0
  0
LINE
  5
21C
  8
_________1
 62
     7
 10
66.540199999999999
 20
130.48599999999999
 30
0.0
 11
76.363600000000005
 21
130.48599999999999
 31
0.0
  0
LINE
  5
21D
  8
_________1
 62
     7
 10
27.254799999999999
 20
124.03100000000001
 30
0.0
 11
27.321300000000001
 21
124.56999999999999
 31
0.0
  0
LINE
  5
21E
  8
_________1
 62
     7
 10
66.540199999999999
 20
143.53800000000001
 30
0.0
 11
66.540199999999999
 21
130.48599999999999
 31
0.0
  0
LINE
  5
21F
  8
_________1
 62
     7
 10
76.363600000000005
 20
90.802599999999998
 30
0.0
 11
78.6935
 21
90.802599999999998
 31
0.0
  0
LINE
  5
220
  8
_________1
 62
     7
 10
71.035700000000006
 20
143.80500000000001
 30
0.0
 11
76.096999999999994
 21
143.80500000000001
 31
0.0
  0
LINE
  5
221
  8
_________1
 62
     7
 10
71.035700000000006
 20
143.80500000000001
 30
0.0
 11
66.806899999999999
 21
143.80500000000001
 31
0.0
  0
LINE
  5
222
  8
_________1
 62
     7
 10
25.042000000000002
 20
129.72
 30
0.0
 11
25.042000000000002
 21
126.986
 31
0.0
  0
LINE
  5
223
  8
_________1
 62
     7
 10
65.708200000000005
 20
129.98599999999999
 30
0.0
 11
25.307300000000001
 21
129.98599999999999
 31
0.0
  0
LINE
  5
224
  8
_________1
 62
     7
 10
76.363600000000005
 20
129.72
 30
0.0
 11
76.363600000000005
 21
90.802599999999998
 31
0.0
  0
LINE
  5
225
  8
_________1
 62
     7
 10
65.708200000000005
 20
129.98599999999999
 30
0.0
 11
76.096999999999994
 21
129.98599999999999
 31
0.0
  0
LINE
  5
226
  8
_________1
 62
     7
 10
65.708200000000005
 20
90.802599999999998
 30
0.0
 11
65.708200000000005
 21
122.661
 31
0.0
  0
LINE
  5
227
  8
_________1
 62
     7
 10
78.859899999999996
 20
89.804199999999994
 30
0.0
 11
78.859899999999996
 21
90.635900000000007
 31
0.0
  0
LINE
  5
228
  8
_________1
 62
     7
 10
63.377200000000002
 20
90.802599999999998
 30
0.0
 11
65.708200000000005
 21
90.802599999999998
 31
0.0
  0
LINE
  5
229
  8
_________1
 62
     7
 10
63.210799999999999
 20
89.804199999999994
 30
0.0
 11
63.210799999999999
 21
90.635900000000007
 31
0.0
  0
LINE
  5
22A
  8
_________1
 62
     7
 10
63.210799999999999
 20
89.804199999999994
 30
0.0
 11
78.859899999999996
 21
89.804199999999994
 31
0.0
  0
ARC
  5
22B
  8
_________1
 62
     7
 10
62.942555000000013
 20
122.559104
 30
0.0
 40
2.7675259999999988
 50
2.1097899999999998
 51
87.890199999999979
  0
LINE
  5
22C
  8
_________1
 62
     7
 10
-29.334800000000001
 20
123.57899999999999
 30
0.0
 11
-28.7822
 21
123.572
 31
0.0
  0
LINE
  5
22D
  8
_________1
 62
     7
 10
-28.7822
 20
123.572
 30
0.0
 11
-28.242699999999999
 21
123.551
 31
0.0
  0
LINE
  5
22E
  8
_________1
 62
     7
 10
-28.242699999999999
 20
123.551
 30
0.0
 11
-27.7273
 21
123.51600000000001
 31
0.0
  0
LINE
  5
22F
  8
_________1
 62
     7
 10
-27.7273
 20
123.51600000000001
 30
0.0
 11
-27.248100000000001
 21
123.468
 31
0.0
  0
LINE
  5
230
  8
_________1
 62
     7
 10
-27.248100000000001
 20
123.468
 30
0.0
 11
-26.814699999999998
 21
123.408
 31
0.0
  0
LINE
  5
231
  8
_________1
 62
     7
 10
-26.814699999999998
 20
123.408
 30
0.0
 11
-26.4389
 21
123.33799999999999
 31
0.0
  0
LINE
  5
232
  8
_________1
 62
     7
 10
-26.4389
 20
123.33799999999999
 30
0.0
 11
-26.1264
 21
123.258
 31
0.0
  0
LINE
  5
233
  8
_________1
 62
     7
 10
-26.1264
 20
123.258
 30
0.0
 11
-25.886600000000001
 21
123.172
 31
0.0
  0
LINE
  5
234
  8
_________1
 62
     7
 10
-25.886600000000001
 20
123.172
 30
0.0
 11
-25.734999999999999
 21
123.087
 31
0.0
  0
LINE
  5
235
  8
_________1
 62
     7
 10
-32.831299999999999
 20
80.059399999999997
 30
0.0
 11
-32.831299999999999
 21
71.970200000000006
 31
0.0
  0
LINE
  5
236
  8
_________1
 62
     7
 10
-32.664200000000001
 20
82.892600000000002
 30
0.0
 11
-32.664200000000001
 21
88.470299999999995
 31
0.0
  0
LINE
  5
237
  8
_________1
 62
     7
 10
-26.005099999999999
 20
82.892600000000002
 30
0.0
 11
-26.005099999999999
 21
88.470299999999995
 31
0.0
  0
ARC
  5
238
  8
_________1
 62
     7
 10
-33.798006000000001
 20
188.00984
 30
0.0
 40
0.8649319999999999
 50
182.098254
 51
267.90177599999998
  0
LINE
  5
239
  8
_________1
 62
     7
 10
-34.662399999999998
 20
187.97800000000001
 30
0.0
 11
-34.662399999999998
 21
193.19
 31
0.0
  0
LINE
  5
23A
  8
_________1
 62
     7
 10
-34.662399999999998
 20
193.19
 30
0.0
 11
-34.662399999999998
 21
233.14599999999999
 31
0.0
  0
LINE
  5
23B
  8
_________1
 62
     7
 10
-26.553899999999999
 20
228.65000000000001
 30
0.0
 11
-32.115400000000001
 21
228.65000000000001
 31
0.0
  0
ARC
  5
23C
  8
_________1
 62
     7
 10
-26.554749999999999
 20
228.91431499999999
 30
0.0
 40
0.264123
 50
270.17780299999998
 51
303.79012599999999
  0
ARC
  5
23D
  8
_________1
 62
     7
 10
-29.335864000000001
 20
233.14568199999999
 30
0.0
 40
7.8261399999999988
 50
312.914917
 51
42.903295
  0
ARC
  5
23E
  8
_________1
 62
     7
 10
-29.380590999999999
 20
233.03652600000001
 30
0.0
 40
7.9333669999999987
 50
43.260852999999997
 51
89.669486000000006
  0
ARC
  5
23F
  8
_________1
 62
     7
 10
-24.871293000000001
 20
188.009826
 30
0.0
 40
0.8649180000000001
 50
272.09732600000001
 51
357.90268400000002
  0
LINE
  5
240
  8
_________1
 62
     7
 10
-24.007000000000001
 20
187.97800000000001
 30
0.0
 11
-24.007000000000001
 21
193.19
 31
0.0
  0
LINE
  5
241
  8
_________1
 62
     7
 10
-24.007000000000001
 20
193.19
 30
0.0
 11
-24.007000000000001
 21
233.14599999999999
 31
0.0
  0
ARC
  5
242
  8
_________1
 62
     7
 10
-29.615152999999999
 20
233.20360600000001
 30
0.0
 40
5.5331729999999997
 50
305.42582900000002
 51
31.229234000000002
  0
ARC
  5
243
  8
_________1
 62
     7
 10
-29.393401000000001
 20
232.86302800000001
 30
0.0
 40
5.5350549999999998
 50
35.437757000000012
 51
121.217371
  0
ARC
  5
244
  8
_________1
 62
     7
 10
-29.333814
 20
233.14500100000001
 30
0.0
 40
5.3284399999999996
 50
123.33725200000001
 51
213.32152199999999
  0
ARC
  5
245
  8
_________1
 62
     7
 10
-29.336206000000001
 20
233.14685299999999
 30
0.0
 40
5.3274589999999993
 50
213.35229699999999
 51
236.686599
  0
ARC
  5
246
  8
_________1
 62
     7
 10
-29.335258
 20
233.145295
 30
0.0
 40
7.8244660000000001
 50
89.996847000000017
 51
179.99681699999999
  0
ARC
  5
247
  8
_________1
 62
     7
 10
-29.230771000000001
 20
233.19060400000001
 30
0.0
 40
7.929079999999999
 50
180.32430400000001
 51
226.762745
  0
LINE
  5
248
  8
_________1
 62
     7
 10
-24.839600000000001
 20
187.14500000000001
 30
0.0
 11
-33.829700000000003
 21
187.14500000000001
 31
0.0
  0
ARC
  5
249
  8
_________1
 62
     7
 10
-32.114576
 20
228.91654700000001
 30
0.0
 40
0.266355
 50
236.35600400000001
 51
269.82646099999999
  0
ARC
  5
24A
  8
_________1
 62
     7
 10
-34.385513000000003
 20
143.527861
 30
0.0
 40
0.2770329999999999
 50
92.108707999999993
 51
177.89126200000001
  0
LINE
  5
24B
  8
_________1
 62
     7
 10
-34.395699999999998
 20
143.80500000000001
 30
0.0
 11
-24.274000000000001
 21
143.80500000000001
 31
0.0
  0
ARC
  5
24C
  8
_________1
 62
     7
 10
-29.75188
 20
135.95412200000001
 30
0.0
 40
10.705731
 50
297.99309
 51
299.43409100000002
  0
ARC
  5
24D
  8
_________1
 62
     7
 10
-25.623449000000001
 20
128.59828899999999
 30
0.0
 40
2.270656999999999
 50
299.92053499999997
 51
304.40489500000001
  0
ARC
  5
24E
  8
_________1
 62
     7
 10
-25.431376
 20
128.30719099999999
 30
0.0
 40
1.9219630000000001
 50
304.58403299999998
 51
311.02156400000001
  0
LINE
  5
24F
  8
_________1
 62
     7
 10
-24.007000000000001
 20
127.127
 30
0.0
 11
-24.007000000000001
 21
129.72
 31
0.0
  0
LINE
  5
250
  8
_________1
 62
     7
 10
-24.096900000000002
 20
126.907
 30
0.0
 11
-29.334800000000001
 21
126.911
 31
0.0
  0
LINE
  5
251
  8
_________1
 62
     7
 10
-24.169899999999998
 20
126.857
 30
0.0
 11
-24.096900000000002
 21
126.907
 31
0.0
  0
ARC
  5
252
  8
_________1
 62
     7
 10
-24.274025000000002
 20
127.107085
 30
0.0
 40
0.267071
 50
335.82243
 51
359.88901700000002
  0
ARC
  5
253
  8
_________1
 62
     7
 10
-24.283456999999999
 20
127.114507
 30
0.0
 40
0.27873
 50
312.02149200000002
 51
335.22473300000001
  0
LINE
  5
254
  8
_________1
 62
     7
 10
-24.007000000000001
 20
127.127
 30
0.0
 11
-24.007000000000001
 21
127.10599999999999
 31
0.0
  0
ARC
  5
255
  8
_________1
 62
     7
 10
-24.28312
 20
129.70980700000001
 30
0.0
 40
0.276354
 50
2.1208029999999991
 51
88.027428999999998
  0
ARC
  5
256
  8
_________1
 62
     7
 10
-40.37786599999999
 20
129.88011700000001
 30
0.0
 40
14.706295000000001
 50
1.0514629999999989
 51
2.3593919999999988
  0
ARC
  5
257
  8
_________1
 62
     7
 10
-25.500741999999999
 20
130.159436
 30
0.0
 40
0.173563
 50
183.12160600000001
 51
267.83333099999999
  0
LINE
  5
258
  8
_________1
 62
     7
 10
-24.273599999999998
 20
129.98599999999999
 30
0.0
 11
-24.839600000000001
 21
129.98599999999999
 31
0.0
  0
LINE
  5
259
  8
_________1
 62
     7
 10
-29.334800000000001
 20
123.53700000000001
 30
0.0
 11
-28.806000000000001
 21
123.53100000000001
 31
0.0
  0
LINE
  5
25A
  8
_________1
 62
     7
 10
-28.806000000000001
 20
123.53100000000001
 30
0.0
 11
-28.289899999999999
 21
123.51000000000001
 31
0.0
  0
LINE
  5
25B
  8
_________1
 62
     7
 10
-28.289899999999999
 20
123.51000000000001
 30
0.0
 11
-27.798300000000001
 21
123.47499999999999
 31
0.0
  0
LINE
  5
25C
  8
_________1
 62
     7
 10
-27.798300000000001
 20
123.47499999999999
 30
0.0
 11
-27.342500000000001
 21
123.428
 31
0.0
  0
LINE
  5
25D
  8
_________1
 62
     7
 10
-27.342500000000001
 20
123.428
 30
0.0
 11
-26.933199999999999
 21
123.369
 31
0.0
  0
LINE
  5
25E
  8
_________1
 62
     7
 10
-26.933199999999999
 20
123.369
 30
0.0
 11
-26.581099999999999
 21
123.301
 31
0.0
  0
LINE
  5
25F
  8
_________1
 62
     7
 10
-26.581099999999999
 20
123.301
 30
0.0
 11
-26.2928
 21
123.224
 31
0.0
  0
LINE
  5
260
  8
_________1
 62
     7
 10
-26.2928
 20
123.224
 30
0.0
 11
-26.075700000000001
 21
123.14
 31
0.0
  0
LINE
  5
261
  8
_________1
 62
     7
 10
-26.075700000000001
 20
123.14
 30
0.0
 11
-25.935199999999998
 21
123.05
 31
0.0
  0
LINE
  5
262
  8
_________1
 62
     7
 10
-25.935199999999998
 20
123.05
 30
0.0
 11
-25.896599999999999
 21
123.008
 31
0.0
  0
LINE
  5
263
  8
_________1
 62
     7
 10
-24.007000000000001
 20
124.764
 30
0.0
 11
-24.007000000000001
 21
124.688
 31
0.0
  0
LINE
  5
264
  8
_________1
 62
     7
 10
-24.007000000000001
 20
124.16
 30
0.0
 11
-24.0076
 21
124.172
 31
0.0
  0
ARC
  5
265
  8
_________1
 62
     7
 10
-24.619926
 20
124.167197
 30
0.0
 40
0.6123
 50
0.451019
 51
3.8711389999999999
  0
LINE
  5
266
  8
_________1
 62
     7
 10
-24.009
 20
124.209
 30
0.0
 11
-24.009399999999999
 21
124.262
 31
0.0
  0
LINE
  5
267
  8
_________1
 62
     7
 10
-24.009399999999999
 20
124.262
 30
0.0
 11
-24.010100000000001
 21
124.325
 31
0.0
  0
LINE
  5
268
  8
_________1
 62
     7
 10
-24.007000000000001
 20
124.492
 30
0.0
 11
-24.0076
 21
124.48399999999999
 31
0.0
  0
ARC
  5
269
  8
_________1
 62
     7
 10
-24.251432999999999
 20
124.483193
 30
0.0
 40
0.243791
 50
355.68546900000001
 51
0.223715
  0
LINE
  5
26A
  8
_________1
 62
     7
 10
-24.008299999999998
 20
124.465
 30
0.0
 11
-24.009
 21
124.434
 31
0.0
  0
LINE
  5
26B
  8
_________1
 62
     7
 10
-24.009
 20
124.434
 30
0.0
 11
-24.009399999999999
 21
124.395
 31
0.0
  0
LINE
  5
26C
  8
_________1
 62
     7
 10
-24.009399999999999
 20
124.395
 30
0.0
 11
-24.010100000000001
 21
124.34999999999999
 31
0.0
  0
LINE
  5
26D
  8
_________1
 62
     7
 10
-24.010100000000001
 20
124.34999999999999
 30
0.0
 11
-24.010100000000001
 21
124.325
 31
0.0
  0
LINE
  5
26E
  8
_________1
 62
     7
 10
-24.0076
 20
124.157
 30
0.0
 11
-24.0076
 21
124.495
 31
0.0
  0
LINE
  5
26F
  8
_________1
 62
     7
 10
-24.007000000000001
 20
124.688
 30
0.0
 11
-24.007000000000001
 21
124.492
 31
0.0
  0
LINE
  5
270
  8
_________1
 62
     7
 10
-24.009399999999999
 20
124.465
 30
0.0
 11
-24.0076
 21
124.688
 31
0.0
  0
LINE
  5
271
  8
_________1
 62
     7
 10
-25.3581
 20
125.277
 30
0.0
 11
-25.355699999999999
 21
125.29900000000001
 31
0.0
  0
LINE
  5
272
  8
_________1
 62
     7
 10
-25.896599999999999
 20
123.008
 30
0.0
 11
-25.874600000000001
 21
122.959
 31
0.0
  0
LINE
  5
273
  8
_________1
 62
     7
 10
-25.874600000000001
 20
122.959
 30
0.0
 11
-25.8949
 21
122.867
 31
0.0
  0
LINE
  5
274
  8
_________1
 62
     7
 10
-25.8949
 20
122.867
 30
0.0
 11
-25.948599999999999
 21
122.81100000000001
 31
0.0
  0
LINE
  5
275
  8
_________1
 62
     7
 10
-25.811499999999999
 20
122.73699999999999
 30
0.0
 11
-25.722999999999999
 21
122.79300000000001
 31
0.0
  0
LINE
  5
276
  8
_________1
 62
     7
 10
-25.722999999999999
 20
122.79300000000001
 30
0.0
 11
-25.640599999999999
 21
122.88800000000001
 31
0.0
  0
LINE
  5
277
  8
_________1
 62
     7
 10
-25.640599999999999
 20
122.88800000000001
 30
0.0
 11
-25.640599999999999
 21
122.98399999999999
 31
0.0
  0
LINE
  5
278
  8
_________1
 62
     7
 10
-25.640599999999999
 20
122.98399999999999
 30
0.0
 11
-25.722999999999999
 21
123.08
 31
0.0
  0
LINE
  5
279
  8
_________1
 62
     7
 10
-25.722999999999999
 20
123.08
 30
0.0
 11
-25.734999999999999
 21
123.087
 31
0.0
  0
ARC
  5
27A
  8
_________1
 62
     7
 10
-26.238054000000002
 20
123.809259
 30
0.0
 40
1.1617230000000001
 50
296.68055800000002
 51
301.76361700000001
  0
ARC
  5
27B
  8
_________1
 62
     7
 10
-25.851416
 20
123.15110300000001
 30
0.0
 40
0.399003
 50
304.31098500000002
 51
326.05986999999999
  0
ARC
  5
27C
  8
_________1
 62
     7
 10
-25.910746
 20
123.208522
 30
0.0
 40
0.4805010000000001
 50
324.32931200000002
 51
331.55629299999998
  0
ARC
  5
27D
  8
_________1
 62
     7
 10
-25.670622000000002
 20
123.077304
 30
0.0
 40
0.206868
 50
331.83551399999999
 51
352.30301500000002
  0
ARC
  5
27E
  8
_________1
 62
     7
 10
-25.619185999999999
 20
123.07344500000001
 30
0.0
 40
0.155409
 50
351.17305199999998
 51
4.4217519999999988
  0
LINE
  5
27F
  8
_________1
 62
     7
 10
-25.464200000000002
 20
123.08499999999999
 30
0.0
 11
-25.3461
 21
125.29900000000001
 31
0.0
  0
LINE
  5
280
  8
_________1
 62
     7
 10
-24.007000000000001
 20
127.051
 30
0.0
 11
-24.007000000000001
 21
126.98
 31
0.0
  0
LINE
  5
281
  8
_________1
 62
     7
 10
-24.007000000000001
 20
126.98
 30
0.0
 11
-24.007000000000001
 21
126.789
 31
0.0
  0
LINE
  5
282
  8
_________1
 62
     7
 10
-24.007000000000001
 20
126.789
 30
0.0
 11
-24.007000000000001
 21
126.223
 31
0.0
  0
LINE
  5
283
  8
_________1
 62
     7
 10
-24.007000000000001
 20
126.223
 30
0.0
 11
-24.007000000000001
 21
125.78100000000001
 31
0.0
  0
LINE
  5
284
  8
_________1
 62
     7
 10
-24.007000000000001
 20
125.78100000000001
 30
0.0
 11
-24.007000000000001
 21
125.375
 31
0.0
  0
LINE
  5
285
  8
_________1
 62
     7
 10
-24.007000000000001
 20
125.375
 30
0.0
 11
-24.007000000000001
 21
125.03700000000001
 31
0.0
  0
LINE
  5
286
  8
_________1
 62
     7
 10
-24.007000000000001
 20
125.03700000000001
 30
0.0
 11
-24.007000000000001
 21
124.764
 31
0.0
  0
ARC
  5
287
  8
_________1
 62
     7
 10
-18.581999
 20
124.56665700000001
 30
0.0
 40
6.8132130000000002
 50
172.19625300000001
 51
174.01951399999999
  0
ARC
  5
288
  8
_________1
 62
     7
 10
-23.625745999999999
 20
125.241231
 30
0.0
 40
1.724661
 50
165.13310200000001
 51
171.64764700000001
  0
ARC
  5
289
  8
_________1
 62
     7
 10
-23.857365000000001
 20
125.283874
 30
0.0
 40
1.489965999999999
 50
148.51668100000001
 51
164.432738
  0
ARC
  5
28A
  8
_________1
 62
     7
 10
-23.625679999999999
 20
125.186037
 30
0.0
 40
1.739045999999999
 50
141.320256
 51
149.75433699999999
  0
ARC
  5
28B
  8
_________1
 62
     7
 10
-24.100519999999999
 20
125.550988
 30
0.0
 40
1.140339999999999
 50
132.834193
 51
140.724413
  0
ARC
  5
28C
  8
_________1
 62
     7
 10
-24.206379999999999
 20
125.665138
 30
0.0
 40
0.98466
 50
121.918673
 51
132.83291399999999
  0
ARC
  5
28D
  8
_________1
 62
     7
 10
-37.18114400000001
 20
123.550245
 30
0.0
 40
4.2506019999999989
 50
51.002429000000006
 51
52.122957
  0
ARC
  5
28E
  8
_________1
 62
     7
 10
-32.799807000000001
 20
128.956253
 30
0.0
 40
2.7079219999999991
 50
230.936365
 51
235.541584
  0
ARC
  5
28F
  8
_________1
 62
     7
 10
-33.217583000000012
 20
128.36896300000001
 30
0.0
 40
1.9873359999999991
 50
235.89268999999999
 51
239.350008
  0
ARC
  5
290
  8
_________1
 62
     7
 10
-31.576094000000001
 20
131.14697899999999
 30
0.0
 40
5.2140769999999987
 50
239.39443399999999
 51
243.006944
  0
LINE
  5
291
  8
_________1
 62
     7
 10
-34.662399999999998
 20
127.127
 30
0.0
 11
-34.662399999999998
 21
129.72
 31
0.0
  0
LINE
  5
292
  8
_________1
 62
     7
 10
-34.662399999999998
 20
127.127
 30
0.0
 11
-34.662399999999998
 21
127.10599999999999
 31
0.0
  0
ARC
  5
293
  8
_________1
 62
     7
 10
-34.403328000000002
 20
127.101135
 30
0.0
 40
0.257586
 50
203.84245200000001
 51
228.76073199999999
  0
ARC
  5
294
  8
_________1
 62
     7
 10
-34.395859000000002
 20
127.106273
 30
0.0
 40
0.266499
 50
180.08481800000001
 51
204.20377500000001
  0
LINE
  5
295
  8
_________1
 62
     7
 10
-24.1737
 20
130.48599999999999
 30
0.0
 11
-34.496000000000002
 21
130.48599999999999
 31
0.0
  0
ARC
  5
296
  8
_________1
 62
     7
 10
-33.168365000000001
 20
130.158513
 30
0.0
 40
0.172621
 50
271.99554599999999
 51
357.16804400000001
  0
ARC
  5
297
  8
_________1
 62
     7
 10
-34.489435
 20
130.65844899999999
 30
0.0
 40
0.173033
 50
182.04240100000001
 51
267.83912600000002
  0
LINE
  5
298
  8
_________1
 62
     7
 10
-34.395699999999998
 20
129.98599999999999
 30
0.0
 11
-33.829700000000003
 21
129.98599999999999
 31
0.0
  0
ARC
  5
299
  8
_________1
 62
     7
 10
-34.385561000000003
 20
129.70917299999999
 30
0.0
 40
0.27701
 50
92.098832000000016
 51
177.75289599999999
  0
ARC
  5
29A
  8
_________1
 62
     7
 10
-19.557493999999998
 20
129.90400500000001
 30
0.0
 40
13.440712
 50
177.52021400000001
 51
178.951348
  0
ARC
  5
29B
  8
_________1
 62
     7
 10
-32.798403999999998
 20
122.923238
 30
0.0
 40
0.214302
 50
131.65320600000001
 51
142.868042
  0
ARC
  5
29C
  8
_________1
 62
     7
 10
-30.683426000000001
 20
120.99653499999999
 30
0.0
 40
3.074479999999999
 50
138.02912000000001
 51
139.72286700000001
  0
LINE
  5
29D
  8
_________1
 62
     7
 10
-33.029000000000011
 20
122.98399999999999
 30
0.0
 11
-33.029000000000011
 21
122.88800000000001
 31
0.0
  0
LINE
  5
29E
  8
_________1
 62
     7
 10
-33.029000000000011
 20
122.88800000000001
 30
0.0
 11
-32.946300000000001
 21
122.79300000000001
 31
0.0
  0
LINE
  5
29F
  8
_________1
 62
     7
 10
-32.946300000000001
 20
122.79300000000001
 30
0.0
 11
-32.783000000000001
 21
122.702
 31
0.0
  0
LINE
  5
2A0
  8
_________1
 62
     7
 10
-32.783000000000001
 20
122.702
 30
0.0
 11
-32.698599999999999
 21
122.667
 31
0.0
  0
ARC
  5
2A1
  8
_________1
 62
     7
 10
-34.245680999999998
 20
122.906057
 30
0.0
 40
1.0559529999999999
 50
6.3057759999999989
 51
9.780011
  0
ARC
  5
2A2
  8
_________1
 62
     7
 10
-32.972816000000002
 20
123.069064
 30
0.0
 40
0.228199
 50
191.89283699999999
 51
225.75480999999999
  0
ARC
  5
2A3
  8
_________1
 62
     7
 10
-32.688772
 20
123.286883
 30
0.0
 40
0.5846940000000001
 50
220.70169200000001
 51
234.32987900000001
  0
ARC
  5
2A4
  8
_________1
 62
     7
 10
-32.562244
 20
123.44986
 30
0.0
 40
0.790913
 50
233.76810900000001
 51
248.35189199999999
  0
ARC
  5
2A5
  8
_________1
 62
     7
 10
-32.019216999999998
 20
124.851136
 30
0.0
 40
2.293709999999999
 50
248.65695600000001
 51
251.37685500000001
  0
LINE
  5
2A6
  8
_________1
 62
     7
 10
-33.311199999999999
 20
125.277
 30
0.0
 11
-33.313600000000001
 21
125.29900000000001
 31
0.0
  0
LINE
  5
2A7
  8
_________1
 62
     7
 10
-34.662399999999998
 20
124.764
 30
0.0
 11
-34.662399999999998
 21
124.688
 31
0.0
  0
LINE
  5
2A8
  8
_________1
 62
     7
 10
-34.662399999999998
 20
124.16
 30
0.0
 11
-34.661700000000003
 21
124.172
 31
0.0
  0
LINE
  5
2A9
  8
_________1
 62
     7
 10
-34.661700000000003
 20
124.172
 30
0.0
 11
-34.661299999999997
 21
124.209
 31
0.0
  0
ARC
  5
2AA
  8
_________1
 62
     7
 10
-36.102296000000003
 20
124.272373
 30
0.0
 40
1.4423840000000001
 50
357.46335499999998
 51
359.59904399999999
  0
ARC
  5
2AB
  8
_________1
 62
     7
 10
-31.956116000000002
 20
124.263921
 30
0.0
 40
2.7038310000000001
 50
178.70599000000001
 51
180.03481300000001
  0
ARC
  5
2AC
  8
_________1
 62
     7
 10
-34.613812000000003
 20
124.492296
 30
0.0
 40
0.048546
 50
179.861503
 51
189.66578000000001
  0
ARC
  5
2AD
  8
_________1
 62
     7
 10
-34.174712
 20
124.48319100000001
 30
0.0
 40
0.4869590000000001
 50
179.88776299999989
 51
182.15829699999989
  0
LINE
  5
2AE
  8
_________1
 62
     7
 10
-34.661299999999997
 20
124.465
 30
0.0
 11
-34.660600000000009
 21
124.434
 31
0.0
  0
LINE
  5
2AF
  8
_________1
 62
     7
 10
-34.660600000000009
 20
124.434
 30
0.0
 11
-34.6599
 21
124.395
 31
0.0
  0
LINE
  5
2B0
  8
_________1
 62
     7
 10
-34.6599
 20
124.395
 30
0.0
 11
-34.659300000000002
 21
124.34999999999999
 31
0.0
  0
LINE
  5
2B1
  8
_________1
 62
     7
 10
-34.659300000000002
 20
124.34999999999999
 30
0.0
 11
-34.659300000000002
 21
124.325
 31
0.0
  0
LINE
  5
2B2
  8
_________1
 62
     7
 10
-34.662399999999998
 20
124.495
 30
0.0
 11
-34.661700000000003
 21
124.157
 31
0.0
  0
LINE
  5
2B3
  8
_________1
 62
     7
 10
-33.3232
 20
125.29900000000001
 30
0.0
 11
-33.205100000000002
 21
123.08499999999999
 31
0.0
  0
LINE
  5
2B4
  8
_________1
 62
     7
 10
-34.662399999999998
 20
124.688
 30
0.0
 11
-34.662399999999998
 21
124.492
 31
0.0
  0
LINE
  5
2B5
  8
_________1
 62
     7
 10
-34.661700000000003
 20
124.688
 30
0.0
 11
-34.6599
 21
124.465
 31
0.0
  0
LINE
  5
2B6
  8
_________1
 62
     7
 10
-32.7517
 20
122.839
 30
0.0
 11
-32.7744
 21
122.867
 31
0.0
  0
LINE
  5
2B7
  8
_________1
 62
     7
 10
-32.7744
 20
122.867
 30
0.0
 11
-32.795099999999998
 21
122.959
 31
0.0
  0
LINE
  5
2B8
  8
_________1
 62
     7
 10
-32.795099999999998
 20
122.959
 30
0.0
 11
-32.753399999999999
 21
123.032
 31
0.0
  0
LINE
  5
2B9
  8
_________1
 62
     7
 10
-34.662399999999998
 20
127.10599999999999
 30
0.0
 11
-34.662399999999998
 21
126.98
 31
0.0
  0
LINE
  5
2BA
  8
_________1
 62
     7
 10
-34.662399999999998
 20
126.98
 30
0.0
 11
-34.662399999999998
 21
126.789
 31
0.0
  0
LINE
  5
2BB
  8
_________1
 62
     7
 10
-34.662399999999998
 20
126.789
 30
0.0
 11
-34.662399999999998
 21
126.223
 31
0.0
  0
LINE
  5
2BC
  8
_________1
 62
     7
 10
-34.662399999999998
 20
126.223
 30
0.0
 11
-34.662399999999998
 21
125.78100000000001
 31
0.0
  0
LINE
  5
2BD
  8
_________1
 62
     7
 10
-34.662399999999998
 20
125.78100000000001
 30
0.0
 11
-34.662399999999998
 21
125.375
 31
0.0
  0
LINE
  5
2BE
  8
_________1
 62
     7
 10
-34.662399999999998
 20
125.375
 30
0.0
 11
-34.662399999999998
 21
125.03700000000001
 31
0.0
  0
LINE
  5
2BF
  8
_________1
 62
     7
 10
-34.662399999999998
 20
125.03700000000001
 30
0.0
 11
-34.662399999999998
 21
124.764
 31
0.0
  0
ARC
  5
2C0
  8
_________1
 62
     7
 10
-39.813961999999997
 20
124.595359
 30
0.0
 40
6.5383569999999986
 50
5.9798929999999988
 51
7.851767999999999
  0
ARC
  5
2C1
  8
_________1
 62
     7
 10
-35.071978999999999
 20
125.23393
 30
0.0
 40
1.7536609999999999
 50
8.3490929999999999
 51
14.862162
  0
ARC
  5
2C2
  8
_________1
 62
     7
 10
-34.796537999999998
 20
125.290733
 30
0.0
 40
1.4729490000000001
 50
15.4747
 51
31.575842000000002
  0
ARC
  5
2C3
  8
_________1
 62
     7
 10
-35.038868999999998
 20
125.191889
 30
0.0
 40
1.7316869999999991
 50
30.163513999999999
 51
38.520937000000004
  0
ARC
  5
2C4
  8
_________1
 62
     7
 10
-34.546783000000012
 20
125.567347
 30
0.0
 40
1.112924
 50
39.175806999999999
 51
47.450184
  0
ARC
  5
2C5
  8
_________1
 62
     7
 10
-34.470314999999999
 20
125.65797499999999
 30
0.0
 40
0.994462
 50
47.164863999999987
 51
57.955362999999991
  0
ARC
  5
2C6
  8
_________1
 62
     7
 10
-22.343321
 20
-9002.3989999999994
 30
0.0
 40
9129.3119999999999
 50
90.043869000000001
 51
90.076733999999988
  0
LINE
  5
2C7
  8
_________1
 62
     7
 10
-33.205100000000002
 20
123.08499999999999
 30
0.0
 11
-33.2027
 21
123.116
 31
0.0
  0
LINE
  5
2C8
  8
_________1
 62
     7
 10
-33.2027
 20
123.116
 30
0.0
 11
-33.141300000000001
 21
123.214
 31
0.0
  0
LINE
  5
2C9
  8
_________1
 62
     7
 10
-33.141300000000001
 20
123.214
 30
0.0
 11
-32.998399999999997
 21
123.309
 31
0.0
  0
LINE
  5
2CA
  8
_________1
 62
     7
 10
-32.998399999999997
 20
123.309
 30
0.0
 11
-32.776800000000001
 21
123.399
 31
0.0
  0
LINE
  5
2CB
  8
_________1
 62
     7
 10
-32.776800000000001
 20
123.399
 30
0.0
 11
-32.482599999999998
 21
123.483
 31
0.0
  0
LINE
  5
2CC
  8
_________1
 62
     7
 10
-32.482599999999998
 20
123.483
 30
0.0
 11
-32.121600000000001
 21
123.559
 31
0.0
  0
LINE
  5
2CD
  8
_________1
 62
     7
 10
-32.121600000000001
 20
123.559
 30
0.0
 11
-31.700600000000001
 21
123.624
 31
0.0
  0
LINE
  5
2CE
  8
_________1
 62
     7
 10
-31.700600000000001
 20
123.624
 30
0.0
 11
-31.229299999999999
 21
123.678
 31
0.0
  0
LINE
  5
2CF
  8
_________1
 62
     7
 10
-31.229299999999999
 20
123.678
 30
0.0
 11
-30.717400000000001
 21
123.71899999999999
 31
0.0
  0
LINE
  5
2D0
  8
_________1
 62
     7
 10
-30.717400000000001
 20
123.71899999999999
 30
0.0
 11
-30.176500000000001
 21
123.748
 31
0.0
  0
LINE
  5
2D1
  8
_________1
 62
     7
 10
-30.176500000000001
 20
123.748
 30
0.0
 11
-29.6173
 21
123.762
 31
0.0
  0
LINE
  5
2D2
  8
_________1
 62
     7
 10
-29.6173
 20
123.762
 30
0.0
 11
-29.052
 21
123.762
 31
0.0
  0
LINE
  5
2D3
  8
_________1
 62
     7
 10
-29.052
 20
123.762
 30
0.0
 11
-28.492799999999999
 21
123.748
 31
0.0
  0
LINE
  5
2D4
  8
_________1
 62
     7
 10
-28.492799999999999
 20
123.748
 30
0.0
 11
-27.952300000000001
 21
123.71899999999999
 31
0.0
  0
LINE
  5
2D5
  8
_________1
 62
     7
 10
-27.952300000000001
 20
123.71899999999999
 30
0.0
 11
-27.4404
 21
123.678
 31
0.0
  0
LINE
  5
2D6
  8
_________1
 62
     7
 10
-27.4404
 20
123.678
 30
0.0
 11
-26.9694
 21
123.624
 31
0.0
  0
LINE
  5
2D7
  8
_________1
 62
     7
 10
-26.9694
 20
123.624
 30
0.0
 11
-26.548400000000001
 21
123.559
 31
0.0
  0
LINE
  5
2D8
  8
_________1
 62
     7
 10
-26.548400000000001
 20
123.559
 30
0.0
 11
-26.186699999999998
 21
123.483
 31
0.0
  0
LINE
  5
2D9
  8
_________1
 62
     7
 10
-26.186699999999998
 20
123.483
 30
0.0
 11
-25.892499999999998
 21
123.399
 31
0.0
  0
LINE
  5
2DA
  8
_________1
 62
     7
 10
-25.892499999999998
 20
123.399
 30
0.0
 11
-25.671299999999999
 21
123.309
 31
0.0
  0
LINE
  5
2DB
  8
_________1
 62
     7
 10
-25.671299999999999
 20
123.309
 30
0.0
 11
-25.528300000000002
 21
123.214
 31
0.0
  0
LINE
  5
2DC
  8
_________1
 62
     7
 10
-25.528300000000002
 20
123.214
 30
0.0
 11
-25.466699999999999
 21
123.116
 31
0.0
  0
LINE
  5
2DD
  8
_________1
 62
     7
 10
-25.466699999999999
 20
123.116
 30
0.0
 11
-25.464200000000002
 21
123.08499999999999
 31
0.0
  0
LINE
  5
2DE
  8
_________1
 62
     7
 10
-32.753399999999999
 20
123.032
 30
0.0
 11
-32.734099999999998
 21
123.05
 31
0.0
  0
LINE
  5
2DF
  8
_________1
 62
     7
 10
-32.734099999999998
 20
123.05
 30
0.0
 11
-32.593600000000002
 21
123.14
 31
0.0
  0
LINE
  5
2E0
  8
_________1
 62
     7
 10
-32.593600000000002
 20
123.14
 30
0.0
 11
-32.3765
 21
123.224
 31
0.0
  0
LINE
  5
2E1
  8
_________1
 62
     7
 10
-32.3765
 20
123.224
 30
0.0
 11
-32.088900000000002
 21
123.301
 31
0.0
  0
LINE
  5
2E2
  8
_________1
 62
     7
 10
-32.088900000000002
 20
123.301
 30
0.0
 11
-31.7364
 21
123.369
 31
0.0
  0
LINE
  5
2E3
  8
_________1
 62
     7
 10
-31.7364
 20
123.369
 30
0.0
 11
-31.326799999999999
 21
123.428
 31
0.0
  0
LINE
  5
2E4
  8
_________1
 62
     7
 10
-31.326799999999999
 20
123.428
 30
0.0
 11
-30.870999999999999
 21
123.47499999999999
 31
0.0
  0
LINE
  5
2E5
  8
_________1
 62
     7
 10
-30.870999999999999
 20
123.47499999999999
 30
0.0
 11
-30.3797
 21
123.51000000000001
 31
0.0
  0
LINE
  5
2E6
  8
_________1
 62
     7
 10
-30.3797
 20
123.51000000000001
 30
0.0
 11
-29.863700000000001
 21
123.53100000000001
 31
0.0
  0
LINE
  5
2E7
  8
_________1
 62
     7
 10
-29.863700000000001
 20
123.53100000000001
 30
0.0
 11
-29.334800000000001
 21
123.53700000000001
 31
0.0
  0
LINE
  5
2E8
  8
_________1
 62
     7
 10
-29.334800000000001
 20
123.57899999999999
 30
0.0
 11
-29.8871
 21
123.572
 31
0.0
  0
LINE
  5
2E9
  8
_________1
 62
     7
 10
-29.8871
 20
123.572
 30
0.0
 11
-30.426600000000001
 21
123.551
 31
0.0
  0
LINE
  5
2EA
  8
_________1
 62
     7
 10
-30.426600000000001
 20
123.551
 30
0.0
 11
-30.942299999999999
 21
123.51600000000001
 31
0.0
  0
LINE
  5
2EB
  8
_________1
 62
     7
 10
-30.942299999999999
 20
123.51600000000001
 30
0.0
 11
-31.421500000000002
 21
123.468
 31
0.0
  0
LINE
  5
2EC
  8
_________1
 62
     7
 10
-31.421500000000002
 20
123.468
 30
0.0
 11
-31.854199999999999
 21
123.408
 31
0.0
  0
LINE
  5
2ED
  8
_________1
 62
     7
 10
-31.854199999999999
 20
123.408
 30
0.0
 11
-32.230499999999999
 21
123.33799999999999
 31
0.0
  0
LINE
  5
2EE
  8
_________1
 62
     7
 10
-32.230499999999999
 20
123.33799999999999
 30
0.0
 11
-32.54290000000001
 21
123.258
 31
0.0
  0
LINE
  5
2EF
  8
_________1
 62
     7
 10
-32.54290000000001
 20
123.258
 30
0.0
 11
-32.783000000000001
 21
123.172
 31
0.0
  0
LINE
  5
2F0
  8
_________1
 62
     7
 10
-32.783000000000001
 20
123.172
 30
0.0
 11
-32.94080000000001
 21
123.083
 31
0.0
  0
LINE
  5
2F1
  8
_________1
 62
     7
 10
-25.948599999999999
 20
122.81100000000001
 30
0.0
 11
-25.9955
 21
122.777
 31
0.0
  0
LINE
  5
2F2
  8
_________1
 62
     7
 10
-25.9955
 20
122.777
 30
0.0
 11
-26.174600000000002
 21
122.69
 31
0.0
  0
LINE
  5
2F3
  8
_________1
 62
     7
 10
-26.174600000000002
 20
122.69
 30
0.0
 11
-26.427800000000001
 21
122.60899999999999
 31
0.0
  0
LINE
  5
2F4
  8
_________1
 62
     7
 10
-26.427800000000001
 20
122.60899999999999
 30
0.0
 11
-26.749300000000002
 21
122.536
 31
0.0
  0
LINE
  5
2F5
  8
_________1
 62
     7
 10
-26.749300000000002
 20
122.536
 30
0.0
 11
-27.131699999999999
 21
122.47199999999999
 31
0.0
  0
LINE
  5
2F6
  8
_________1
 62
     7
 10
-27.131699999999999
 20
122.47199999999999
 30
0.0
 11
-27.565100000000001
 21
122.419
 31
0.0
  0
LINE
  5
2F7
  8
_________1
 62
     7
 10
-27.565100000000001
 20
122.419
 30
0.0
 11
-28.040199999999999
 21
122.379
 31
0.0
  0
LINE
  5
2F8
  8
_________1
 62
     7
 10
-28.040199999999999
 20
122.379
 30
0.0
 11
-28.5456
 21
122.34999999999999
 31
0.0
  0
LINE
  5
2F9
  8
_________1
 62
     7
 10
-28.5456
 20
122.34999999999999
 30
0.0
 11
-29.069199999999999
 21
122.337
 31
0.0
  0
LINE
  5
2FA
  8
_________1
 62
     7
 10
-29.069199999999999
 20
122.337
 30
0.0
 11
-29.599799999999998
 21
122.337
 31
0.0
  0
LINE
  5
2FB
  8
_________1
 62
     7
 10
-29.599799999999998
 20
122.337
 30
0.0
 11
-30.124099999999999
 21
122.34999999999999
 31
0.0
  0
LINE
  5
2FC
  8
_________1
 62
     7
 10
-30.124099999999999
 20
122.34999999999999
 30
0.0
 11
-30.629200000000001
 21
122.379
 31
0.0
  0
LINE
  5
2FD
  8
_________1
 62
     7
 10
-30.629200000000001
 20
122.379
 30
0.0
 11
-31.104600000000001
 21
122.419
 31
0.0
  0
LINE
  5
2FE
  8
_________1
 62
     7
 10
-31.104600000000001
 20
122.419
 30
0.0
 11
-31.538
 21
122.47199999999999
 31
0.0
  0
LINE
  5
2FF
  8
_________1
 62
     7
 10
-31.538
 20
122.47199999999999
 30
0.0
 11
-31.920400000000001
 21
122.536
 31
0.0
  0
LINE
  5
300
  8
_________1
 62
     7
 10
-31.920400000000001
 20
122.536
 30
0.0
 11
-32.241500000000002
 21
122.60899999999999
 31
0.0
  0
LINE
  5
301
  8
_________1
 62
     7
 10
-32.241500000000002
 20
122.60899999999999
 30
0.0
 11
-32.494700000000002
 21
122.69
 31
0.0
  0
LINE
  5
302
  8
_________1
 62
     7
 10
-32.494700000000002
 20
122.69
 30
0.0
 11
-32.6738
 21
122.777
 31
0.0
  0
LINE
  5
303
  8
_________1
 62
     7
 10
-32.6738
 20
122.777
 30
0.0
 11
-32.7517
 21
122.839
 31
0.0
  0
LINE
  5
304
  8
_________1
 62
     7
 10
-32.698599999999999
 20
122.667
 30
0.0
 11
-32.54290000000001
 21
122.61499999999999
 31
0.0
  0
LINE
  5
305
  8
_________1
 62
     7
 10
-32.54290000000001
 20
122.61499999999999
 30
0.0
 11
-32.230499999999999
 21
122.536
 31
0.0
  0
LINE
  5
306
  8
_________1
 62
     7
 10
-32.230499999999999
 20
122.536
 30
0.0
 11
-31.854199999999999
 21
122.465
 31
0.0
  0
LINE
  5
307
  8
_________1
 62
     7
 10
-31.854199999999999
 20
122.465
 30
0.0
 11
-31.421500000000002
 21
122.405
 31
0.0
  0
LINE
  5
308
  8
_________1
 62
     7
 10
-31.421500000000002
 20
122.405
 30
0.0
 11
-30.942299999999999
 21
122.35599999999999
 31
0.0
  0
LINE
  5
309
  8
_________1
 62
     7
 10
-30.942299999999999
 20
122.35599999999999
 30
0.0
 11
-30.426600000000001
 21
122.322
 31
0.0
  0
LINE
  5
30A
  8
_________1
 62
     7
 10
-30.426600000000001
 20
122.322
 30
0.0
 11
-29.8871
 21
122.301
 31
0.0
  0
LINE
  5
30B
  8
_________1
 62
     7
 10
-29.8871
 20
122.301
 30
0.0
 11
-29.334800000000001
 21
122.29300000000001
 31
0.0
  0
LINE
  5
30C
  8
_________1
 62
     7
 10
-29.334800000000001
 20
122.29300000000001
 30
0.0
 11
-28.7822
 21
122.301
 31
0.0
  0
LINE
  5
30D
  8
_________1
 62
     7
 10
-28.7822
 20
122.301
 30
0.0
 11
-28.242699999999999
 21
122.322
 31
0.0
  0
LINE
  5
30E
  8
_________1
 62
     7
 10
-28.242699999999999
 20
122.322
 30
0.0
 11
-27.7273
 21
122.35599999999999
 31
0.0
  0
LINE
  5
30F
  8
_________1
 62
     7
 10
-27.7273
 20
122.35599999999999
 30
0.0
 11
-27.248100000000001
 21
122.405
 31
0.0
  0
LINE
  5
310
  8
_________1
 62
     7
 10
-27.248100000000001
 20
122.405
 30
0.0
 11
-26.814699999999998
 21
122.465
 31
0.0
  0
LINE
  5
311
  8
_________1
 62
     7
 10
-26.814699999999998
 20
122.465
 30
0.0
 11
-26.4389
 21
122.536
 31
0.0
  0
LINE
  5
312
  8
_________1
 62
     7
 10
-26.4389
 20
122.536
 30
0.0
 11
-26.1264
 21
122.61499999999999
 31
0.0
  0
LINE
  5
313
  8
_________1
 62
     7
 10
-26.1264
 20
122.61499999999999
 30
0.0
 11
-25.886600000000001
 21
122.702
 31
0.0
  0
LINE
  5
314
  8
_________1
 62
     7
 10
-25.886600000000001
 20
122.702
 30
0.0
 11
-25.811499999999999
 21
122.73699999999999
 31
0.0
  0
LINE
  5
315
  8
_________1
 62
     7
 10
-33.829700000000003
 20
129.98599999999999
 30
0.0
 11
-24.839600000000001
 21
129.98599999999999
 31
0.0
  0
LINE
  5
316
  8
_________1
 62
     7
 10
-32.127099999999999
 20
143.80500000000001
 30
0.0
 11
-32.127099999999999
 21
130.48599999999999
 31
0.0
  0
LINE
  5
317
  8
_________1
 62
     7
 10
-26.5426
 20
143.80500000000001
 30
0.0
 11
-26.5426
 21
130.48599999999999
 31
0.0
  0
LINE
  5
318
  8
_________1
 62
     7
 10
-34.662399999999998
 20
143.53800000000001
 30
0.0
 11
-34.662399999999998
 21
130.65199999999999
 31
0.0
  0
ARC
  5
319
  8
_________1
 62
     7
 10
-21.683596999999999
 20
90.629305999999985
 30
0.0
 40
0.173443
 50
2.167959999999999
 51
87.713527999999997
  0
LINE
  5
31A
  8
_________1
 62
     7
 10
-29.334800000000001
 20
89.137200000000007
 30
0.0
 11
-21.6767
 21
89.137200000000007
 31
0.0
  0
LINE
  5
31B
  8
_________1
 62
     7
 10
-21.6767
 20
89.137200000000007
 30
0.0
 11
-21.6767
 21
89.804199999999994
 31
0.0
  0
LINE
  5
31C
  8
_________1
 62
     7
 10
-21.510300000000001
 20
89.804199999999994
 30
0.0
 11
-21.510300000000001
 21
90.635900000000007
 31
0.0
  0
LINE
  5
31D
  8
_________1
 62
     7
 10
-36.99260000000001
 20
89.804199999999994
 30
0.0
 11
-36.99260000000001
 21
89.137200000000007
 31
0.0
  0
LINE
  5
31E
  8
_________1
 62
     7
 10
-37.158999999999999
 20
90.635900000000007
 30
0.0
 11
-37.158999999999999
 21
89.804199999999994
 31
0.0
  0
ARC
  5
31F
  8
_________1
 62
     7
 10
-36.986453000000012
 20
90.630041999999989
 30
0.0
 40
0.17268
 50
92.051859999999976
 51
178.06661199999999
  0
LINE
  5
320
  8
_________1
 62
     7
 10
-36.99260000000001
 20
89.137200000000007
 30
0.0
 11
-29.334800000000001
 21
89.137200000000007
 31
0.0
  0
LINE
  5
321
  8
_________1
 62
     7
 10
-21.510300000000001
 20
89.804199999999994
 30
0.0
 11
-37.158999999999999
 21
89.804199999999994
 31
0.0
  0
LINE
  5
322
  8
_________1
 62
     7
 10
-36.99260000000001
 20
90.802599999999998
 30
0.0
 11
-21.6767
 21
90.802599999999998
 31
0.0
  0
LINE
  5
323
  8
_________1
 62
     7
 10
-24.007000000000001
 20
90.802599999999998
 30
0.0
 11
-34.662399999999998
 21
90.802599999999998
 31
0.0
  0
LINE
  5
324
  8
_________1
 62
     7
 10
-26.005099999999999
 20
71.8035
 30
0.0
 11
-25.838699999999999
 21
71.970200000000006
 31
0.0
  0
LINE
  5
325
  8
_________1
 62
     7
 10
-32.831299999999999
 20
71.970200000000006
 30
0.0
 11
-32.664200000000001
 21
71.8035
 31
0.0
  0
LINE
  5
326
  8
_________1
 62
     7
 10
-32.831299999999999
 20
71.970200000000006
 30
0.0
 11
-25.838699999999999
 21
71.970200000000006
 31
0.0
  0
LINE
  5
327
  8
_________1
 62
     7
 10
-26.005099999999999
 20
71.8035
 30
0.0
 11
-32.664200000000001
 21
71.8035
 31
0.0
  0
LINE
  5
328
  8
_________1
 62
     7
 10
-32.664200000000001
 20
71.8035
 30
0.0
 11
-32.664200000000001
 21
80.059399999999997
 31
0.0
  0
LINE
  5
329
  8
_________1
 62
     7
 10
-26.005099999999999
 20
71.8035
 30
0.0
 11
-26.005099999999999
 21
80.059399999999997
 31
0.0
  0
LINE
  5
32A
  8
_________1
 62
     7
 10
-25.838699999999999
 20
82.892600000000002
 30
0.0
 11
-25.838699999999999
 21
88.470299999999995
 31
0.0
  0
LINE
  5
32B
  8
_________1
 62
     7
 10
-32.831299999999999
 20
88.470299999999995
 30
0.0
 11
-32.831299999999999
 21
82.892600000000002
 31
0.0
  0
LINE
  5
32C
  8
_________1
 62
     7
 10
-25.838699999999999
 20
71.970200000000006
 30
0.0
 11
-25.838699999999999
 21
80.059399999999997
 31
0.0
  0
LINE
  5
32D
  8
_________1
 62
     7
 10
-24.007000000000001
 20
90.802599999999998
 30
0.0
 11
-24.007000000000001
 21
124.16
 31
0.0
  0
LINE
  5
32E
  8
_________1
 62
     7
 10
-34.662399999999998
 20
124.16
 30
0.0
 11
-34.662399999999998
 21
90.802599999999998
 31
0.0
  0
TEXT
  5
32F
  8
_________2
 62
     7
 10
177.69399999999999
 20
34.465299999999999
 30
0.0
 40
3.6545800000000002
  1
20.02.26
 41
0.5
  0
TEXT
  5
330
  8
_________2
 62
     7
 10
169.50999999999999
 20
85.566000000000017
 30
0.0
 40
3.9357000000000002
  1
0.60MPa（静水圧）
 41
0.5
  0
TEXT
  5
331
  8
_________2
 62
     7
 10
219.08699999999999
 20
45.473100000000002
 30
0.0
 40
3.9357000000000002
  1
C1　立水栓
 41
0.5
  0
TEXT
  5
332
  8
_________2
 62
     7
 10
200.4570586666666
 20
34.465299999999999
 30
0.0
 40
3.6545800000000002
  1
1 ： 3
 41
0.5
 72
     1
 11
203.86799999999999
 21
34.465299999999999
 31
0.0
  0
TEXT
  5
333
  8
_________2
 62
     7
 10
246.0785625
 20
30.3553
 30
0.0
 40
3.9357000000000002
  1
CET3550R
 41
0.5
 72
     1
 11
253.458
 21
30.3553
 31
0.0
  0
TEXT
  5
334
  8
_________2
 62
     7
 10
149.3328003333333
 20
34.850499999999997
 30
0.0
 40
3.6545800000000002
  1
井田
 41
0.5
 72
     1
 11
151.221
 21
34.850499999999997
 31
0.0
  0
TEXT
  5
335
  8
_________2
 62
     7
 10
130.69789066666669
 20
34.850499999999997
 30
0.0
 40
3.6545800000000002
  1
恋塚
 41
0.5
 72
     1
 11
132.64699999999999
 21
34.850499999999997
 31
0.0
  0
TEXT
  5
336
  8
_________2
 62
     7
 10
290.64778333333328
 20
12.808299999999999
 30
0.0
 40
3.3734599999999988
  1
A3
 41
0.5
 72
     2
 11
293.459
 21
12.808299999999999
 31
0.0
  0
TEXT
  5
337
  8
_________2
 62
     7
 10
134.495
 20
21.954699999999999
 30
0.0
 40
3.9357000000000002
  1
（JIS）
 41
0.5
  0
LINE
  5
338
  8
_________2
 62
     7
 10
315.209
 20
148.65899999999999
 30
0.0
 11
293.459
 21
148.65899999999999
 31
0.0
  0
LINE
  5
339
  8
_________2
 62
     7
 10
105.20699999999999
 20
17.156300000000002
 30
0.0
 11
105.20699999999999
 21
0.176045
 31
0.0
  0
LINE
  5
33A
  8
_________2
 62
     7
 10
105.20699999999999
 20
297.178
 30
0.0
 11
105.20699999999999
 21
280.15800000000002
 31
0.0
  0
LINE
  5
33B
  8
_________2
 62
     7
 10
-83.043899999999994
 20
148.65899999999999
 30
0.0
 11
-104.794
 21
148.65899999999999
 31
0.0
  0
INSERT
  5
33C
  8
_________2
 62
     7
  2
AIGNBL03010002
 10
0.0
 20
0.0
 30
0.0
  0
TEXT
  5
33D
  8
_________2
 62
     7
 10
214.51300000000001
 20
22.9269
 30
0.0
 40
3.0923400000000001
  1
図番
 41
0.5
  0
LINE
  5
33E
  8
_________2
 62
     7
 10
213.458
 20
27.156099999999999
 30
0.0
 11
293.459
 21
27.156099999999999
 31
0.0
  0
TEXT
  5
33F
  8
_________2
 62
     7
 10
214.51300000000001
 20
32.926699999999997
 30
0.0
 40
3.0923400000000001
  1
品番
 41
0.5
  0
TEXT
  5
340
  8
_________2
 62
     7
 10
214.51300000000001
 20
53.0655
 30
0.0
 40
3.0923400000000001
  1
名称
 41
0.5
  0
TEXT
  5
341
  8
_________2
 62
     7
 10
201.75325833333329
 20
48.069400000000002
 30
0.0
 40
3.6545800000000002
  1
mm
 41
0.5
 72
     1
 11
203.27600000000001
 21
48.069400000000002
 31
0.0
  0
TEXT
  5
342
  8
_________2
 62
     7
 10
195.55099999999999
 20
53.0655
 30
0.0
 40
3.0923400000000001
  1
単位
 41
0.5
  0
TEXT
  5
343
  8
_________2
 62
     7
 10
195.55099999999999
 20
40.658200000000001
 30
0.0
 40
3.0923400000000001
  1
尺度
 41
0.5
  0
TEXT
  5
344
  8
_________2
 62
     7
 10
246.0785625
 20
20.354800000000001
 30
0.0
 40
3.9357000000000002
  1
CET3550R
 41
0.5
 72
     1
 11
253.458
 21
20.354800000000001
 31
0.0
  0
TEXT
  5
345
  8
_________2
 62
     7
 10
129.49600000000001
 20
93.187999999999988
 30
0.0
 40
3.9357000000000002
  1
給水圧力
 41
0.5
  0
TEXT
  5
346
  8
_________2
 62
     7
 10
129.49600000000001
 20
100.95099999999999
 30
0.0
 40
3.9357000000000002
  1
用途
 41
0.5
  0
TEXT
  5
347
  8
_________2
 62
     7
 10
169.50999999999999
 20
100.95099999999999
 30
0.0
 40
3.9357000000000002
  1
一般住宅用（屋内用）
 41
0.5
  0
LINE
  5
348
  8
_________2
 62
     7
 10
145.64099999999999
 20
98.842500000000015
 30
0.0
 11
145.64099999999999
 21
83.317400000000006
 31
0.0
  0
LINE
  5
349
  8
_________2
 62
     7
 10
166.97200000000001
 20
106.605
 30
0.0
 11
166.97200000000001
 21
61.980800000000002
 31
0.0
  0
LINE
  5
34A
  8
_________2
 62
     7
 10
290.16199999999998
 20
106.605
 30
0.0
 11
126.95699999999999
 21
106.605
 31
0.0
  0
LINE
  5
34B
  8
_________2
 62
     7
 10
126.95699999999999
 20
106.605
 30
0.0
 11
126.95699999999999
 21
61.980800000000002
 31
0.0
  0
LINE
  5
34C
  8
_________2
 62
     7
 10
126.95699999999999
 20
61.980800000000002
 30
0.0
 11
290.16199999999998
 21
61.980800000000002
 31
0.0
  0
LINE
  5
34D
  8
_________2
 62
     7
 10
290.16199999999998
 20
61.980800000000002
 30
0.0
 11
290.16199999999998
 21
106.605
 31
0.0
  0
TEXT
  5
34E
  8
_________2
 62
     7
 10
147.41499999999999
 20
93.187999999999988
 30
0.0
 40
3.9357000000000002
  1
最低必要水圧
 41
0.5
  0
TEXT
  5
34F
  8
_________2
 62
     7
 10
169.50999999999999
 20
93.187999999999988
 30
0.0
 40
3.9357000000000002
  1
0.05MPa（流動圧）
 41
0.5
  0
LINE
  5
350
  8
_________2
 62
     7
 10
126.95699999999999
 20
98.842500000000015
 30
0.0
 11
290.16199999999998
 21
98.842500000000015
 31
0.0
  0
TEXT
  5
351
  8
_________2
 62
     7
 10
129.49600000000001
 20
77.662899999999993
 30
0.0
 40
3.9357000000000002
  1
使用可能水質
 41
0.5
  0
TEXT
  5
352
  8
_________2
 62
     7
 10
169.50999999999999
 20
77.662899999999993
 30
0.0
 40
3.9357000000000002
  1
水道水
 41
0.5
  0
LINE
  5
353
  8
_________2
 62
     7
 10
126.95699999999999
 20
83.317400000000006
 30
0.0
 11
290.16199999999998
 21
83.317400000000006
 31
0.0
  0
TEXT
  5
354
  8
_________2
 62
     7
 10
147.41499999999999
 20
85.566000000000017
 30
0.0
 40
3.9357000000000002
  1
最高水圧
 41
0.5
  0
LINE
  5
355
  8
_________2
 62
     7
 10
145.64099999999999
 20
91.079899999999995
 30
0.0
 11
290.16199999999998
 21
91.079899999999995
 31
0.0
  0
TEXT
  5
356
  8
_________2
 62
     7
 10
129.49600000000001
 20
70.040999999999997
 30
0.0
 40
3.9357000000000002
  1
使用環境温度
 41
0.5
  0
TEXT
  5
357
  8
_________2
 62
     7
 10
169.50999999999999
 20
70.040999999999997
 30
0.0
 40
3.9357000000000002
  1
1～40℃
 41
0.5
  0
TEXT
  5
358
  8
_________2
 62
     7
 10
169.50999999999999
 20
65.121300000000005
 30
0.0
 40
3.9357000000000002
  1
※寒冷地仕様ではありません、凍結が予想される場合は凍結予防をしてください。
 41
0.5
  0
LINE
  5
359
  8
_________2
 62
     7
 10
126.95699999999999
 20
75.554900000000004
 30
0.0
 11
290.16199999999998
 21
75.554900000000004
 31
0.0
  0
TEXT
  5
35A
  8
_________2
 62
     7
 10
176.501
 20
40.658200000000001
 30
0.0
 40
3.0923400000000001
  1
日付
 41
0.5
  0
TEXT
  5
35B
  8
_________2
 62
     7
 10
139.547
 20
40.658200000000001
 30
0.0
 40
3.0923400000000001
  1
検図
 41
0.5
  0
TEXT
  5
35C
  8
_________2
 62
     7
 10
127.929
 20
26.4588
 30
0.0
 40
3.0923400000000001
  1
備考
 41
0.5
  0
TEXT
  5
35D
  8
_________2
 62
     7
 10
127.929
 20
40.658200000000001
 30
0.0
 40
3.0923400000000001
  1
製図
 41
0.5
  0
TEXT
  5
35E
  8
_________2
 62
     7
 10
133.69596533333331
 20
49.184199999999997
 30
0.0
 40
4.4979399999999989
  1
セラトレーディング株式会社
 41
0.5
 72
     1
 11
151.08799999999999
 21
49.184199999999997
 31
0.0
  0
LINE
  5
35F
  8
_________2
 62
     7
 10
293.459
 20
17.156300000000002
 30
0.0
 11
-83.043899999999994
 21
17.156300000000002
 31
0.0
  0
LINE
  5
360
  8
_________2
 62
     7
 10
-83.043899999999994
 20
17.156300000000002
 30
0.0
 11
-83.043899999999994
 21
280.15800000000002
 31
0.0
  0
LINE
  5
361
  8
_________2
 62
     7
 10
-83.043899999999994
 20
280.15800000000002
 30
0.0
 11
293.459
 21
280.15800000000002
 31
0.0
  0
LINE
  5
362
  8
_________2
 62
     7
 10
293.459
 20
280.15800000000002
 30
0.0
 11
293.459
 21
17.156300000000002
 31
0.0
  0
LINE
  5
363
  8
_________2
 62
     7
 10
175.458
 20
30.656400000000001
 30
0.0
 11
175.458
 21
57.156199999999998
 31
0.0
  0
LINE
  5
364
  8
_________2
 62
     7
 10
194.458
 20
30.656400000000001
 30
0.0
 11
194.458
 21
57.156199999999998
 31
0.0
  0
LINE
  5
365
  8
_________2
 62
     7
 10
126.95699999999999
 20
17.156300000000002
 30
0.0
 11
126.95699999999999
 21
57.156199999999998
 31
0.0
  0
LINE
  5
366
  8
_________2
 62
     7
 10
213.458
 20
17.156300000000002
 30
0.0
 11
213.458
 21
57.156199999999998
 31
0.0
  0
LINE
  5
367
  8
_________2
 62
     7
 10
138.45699999999999
 20
30.656400000000001
 30
0.0
 11
138.45699999999999
 21
44.65659999999999
 31
0.0
  0
LINE
  5
368
  8
_________2
 62
     7
 10
126.95699999999999
 20
30.656400000000001
 30
0.0
 11
213.458
 21
30.656400000000001
 31
0.0
  0
LINE
  5
369
  8
_________2
 62
     7
 10
126.95699999999999
 20
44.65659999999999
 30
0.0
 11
213.458
 21
44.65659999999999
 31
0.0
  0
LINE
  5
36A
  8
_________2
 62
     7
 10
213.458
 20
37.15590000000001
 30
0.0
 11
293.459
 21
37.15590000000001
 31
0.0
  0
LINE
  5
36B
  8
_________2
 62
     7
 10
126.95699999999999
 20
57.156199999999998
 30
0.0
 11
293.459
 21
57.156199999999998
 31
0.0
  0
ENDSEC
  0
EOF
