  0
SECTION
  2
HEADER
  9
$ACADVER
  1
AC1009
  9
$INSBASE
 10
0.0
 20
0.0
 30
0.0
  9
$EXTMIN
 10
-4.70052
 20
-21.071400000000001
 30
0.0
  9
$EXTMAX
 10
205.30099999999999
 20
275.93000000000001
 30
0.0
  9
$LIMMIN
 10
0.0
 20
0.0
  9
$LIMMAX
 10
12.0
 20
9.0
  9
$ORTHOMODE
 70
     0
  9
$REGENMODE
 70
     1
  9
$FILLMODE
 70
     1
  9
$QTEXTMODE
 70
     0
  9
$MIRRTEXT
 70
     1
  9
$DRAGMODE
 70
     2
  9
$LTSCALE
 40
1.0
  9
$OSMODE
 70
    37
  9
$ATTMODE
 70
     1
  9
$TEXTSIZE
 40
0.0
  9
$TRACEWID
 40
0.05
  9
$TEXTSTYLE
  7
STANDARD
  9
$CLAYER
  8
0
  9
$CELTYPE
  6
CONTINUOUS
  9
$CECOLOR
 62
   256
  9
$DIMSCALE
 40
1.0
  9
$DIMASZ
 40
0.18
  9
$DIMEXO
 40
0.0625
  9
$DIMDLI
 40
0.38
  9
$DIMRND
 40
0.0
  9
$DIMDLE
 40
0.0
  9
$DIMEXE
 40
0.18
  9
$DIMTP
 40
0.0
  9
$DIMTM
 40
0.0
  9
$DIMTXT
 40
0.18
  9
$DIMCEN
 40
0.09
  9
$DIMTSZ
 40
0.0
  9
$DIMTOL
 70
     0
  9
$DIMLIM
 70
     0
  9
$DIMTIH
 70
     1
  9
$DIMTOH
 70
     1
  9
$DIMSE1
 70
     0
  9
$DIMSE2
 70
     0
  9
$DIMTAD
 70
     0
  9
$DIMZIN
 70
     0
  9
$DIMBLK
  1

  9
$DIMASO
 70
     1
  9
$DIMSHO
 70
     1
  9
$DIMPOST
  1

  9
$DIMAPOST
  1

  9
$DIMALT
 70
     0
  9
$DIMALTD
 70
     2
  9
$DIMALTF
 40
25.399999999999999
  9
$DIMLFAC
 40
1.0
  9
$DIMTOFL
 70
     0
  9
$DIMTVP
 40
0.0
  9
$DIMTIX
 70
     0
  9
$DIMSOXD
 70
     0
  9
$DIMSAH
 70
     0
  9
$DIMBLK1
  1

  9
$DIMBLK2
  1

  9
$DIMSTYLE
  2
STANDARD
  9
$DIMCLRD
 70
     0
  9
$DIMCLRE
 70
     0
  9
$DIMCLRT
 70
     0
  9
$DIMTFAC
 40
1.0
  9
$DIMGAP
 40
0.09
  9
$LUNITS
 70
     2
  9
$LUPREC
 70
     4
  9
$SKETCHINC
 40
0.1
  9
$FILLETRAD
 40
0.0
  9
$AUNITS
 70
     0
  9
$AUPREC
 70
     0
  9
$MENU
  1
.
  9
$ELEVATION
 40
0.0
  9
$PELEVATION
 40
0.0
  9
$THICKNESS
 40
0.0
  9
$LIMCHECK
 70
     0
  9
$BLIPMODE
 70
     0
  9
$CHAMFERA
 40
0.0
  9
$CHAMFERB
 40
0.0
  9
$SKPOLY
 70
     0
  9
$TDCREATE
 40
2444972.375
  9
$TDUPDATE
 40
2457152.2483870839
  9
$TDINDWG
 40
0.000030787
  9
$TDUSRTIMER
 40
0.000030787
  9
$USRTIMER
 70
     1
  9
$ANGBASE
 50
0.0
  9
$ANGDIR
 70
     0
  9
$PDMODE
 70
     0
  9
$PDSIZE
 40
0.0
  9
$PLINEWID
 40
0.0
  9
$COORDS
 70
     1
  9
$SPLFRAME
 70
     0
  9
$SPLINETYPE
 70
     6
  9
$SPLINESEGS
 70
     8
  9
$ATTDIA
 70
     1
  9
$ATTREQ
 70
     1
  9
$HANDLING
 70
     1
  9
$HANDSEED
  5
3E7
  9
$SURFTAB1
 70
     6
  9
$SURFTAB2
 70
     6
  9
$SURFTYPE
 70
     6
  9
$SURFU
 70
     6
  9
$SURFV
 70
     6
  9
$UCSNAME
  2

  9
$UCSORG
 10
0.0
 20
0.0
 30
0.0
  9
$UCSXDIR
 10
1.0
 20
0.0
 30
0.0
  9
$UCSYDIR
 10
0.0
 20
1.0
 30
0.0
  9
$PUCSNAME
  2

  9
$PUCSORG
 10
0.0
 20
0.0
 30
0.0
  9
$PUCSXDIR
 10
1.0
 20
0.0
 30
0.0
  9
$PUCSYDIR
 10
0.0
 20
1.0
 30
0.0
  9
$USERI1
 70
     0
  9
$USERI2
 70
     0
  9
$USERI3
 70
     0
  9
$USERI4
 70
     0
  9
$USERI5
 70
     0
  9
$USERR1
 40
0.0
  9
$USERR2
 40
0.0
  9
$USERR3
 40
0.0
  9
$USERR4
 40
0.0
  9
$USERR5
 40
0.0
  9
$WORLDVIEW
 70
     1
  9
$SHADEDGE
 70
     3
  9
$SHADEDIF
 70
    70
  9
$TILEMODE
 70
     1
  9
$MAXACTVP
 70
    48
  9
$PLIMCHECK
 70
     0
  9
$PEXTMIN
 10
1.0000000000000000E+020
 20
1.0000000000000000E+020
 30
1.0000000000000000E+020
  9
$PEXTMAX
 10
-1.0000000000000000E+020
 20
-1.0000000000000000E+020
 30
-1.0000000000000000E+020
  9
$PLIMMIN
 10
0.0
 20
0.0
  9
$PLIMMAX
 10
12.0
 20
9.0
  9
$UNITMODE
 70
     0
  9
$VISRETAIN
 70
     1
  9
$PLINEGEN
 70
     0
  9
$PSLTSCALE
 70
     1
  0
ENDSEC
  0
SECTION
  2
TABLES
  0
TABLE
  2
VPORT
 70
     1
  0
VPORT
  2
*ACTIVE
 70
     0
 10
0.0
 20
0.0
 11
1.0
 21
1.0
 12
162.69054381768001
 22
127.4293
 13
0.0
 23
0.0
 14
1.0
 24
1.0
 15
0.0
 25
0.0
 16
0.0
 26
0.0
 36
1.0
 17
0.0
 27
0.0
 37
0.0
 40
289.76607286897053
 41
2.1063583815028899
 42
50.0
 43
0.0
 44
0.0
 50
0.0
 51
0.0
 71
     0
 72
   100
 73
     1
 74
     1
 75
     0
 76
     0
 77
     0
 78
     0
  0
ENDTAB
  0
TABLE
  2
LTYPE
 70
     2
  0
LTYPE
  2
CONTINUOUS
 70
     0
  3
Solid line
 72
    65
 73
     0
 40
0.0
  0
LTYPE
  2
AIGENLINE001
 70
     0
  3
generate AI->DXF Converter
 72
    65
 73
     4
 40
5.8561449999999988
 49
3.5278
 49
-0.776115
 49
0.776115
 49
-0.776115
  0
ENDTAB
  0
TABLE
  2
LAYER
 70
     2
  0
LAYER
  2
0
 70
     0
 62
     7
  6
CONTINUOUS
  0
LAYER
  2
_________2
 70
     0
 62
     7
  6
CONTINUOUS
  0
ENDTAB
  0
TABLE
  2
STYLE
 70
     1
  0
STYLE
  2
STANDARD
 70
     0
 40
0.0
 41
0.0
 50
0.0
 71
     0
 42
0.0
  3
TXT
  4
EXTFONT.SHX
  0
ENDTAB
  0
TABLE
  2
VIEW
 70
     0
  0
ENDTAB
  0
TABLE
  2
UCS
 70
     0
  0
ENDTAB
  0
TABLE
  2
APPID
 70
     3
  0
APPID
  2
ACAD
 70
     0
  0
APPID
  2
ACAD_NAV_VCDISPLAY
 70
     0
  0
APPID
  2
ACAD_MLEADERVER
 70
     0
  0
ENDTAB
  0
TABLE
  2
DIMSTYLE
 70
     1
  0
DIMSTYLE
  2
STANDARD
 70
     0
  3

  4

  5

  6

  7

 40
1.0
 41
0.18
 42
0.0625
 43
0.38
 44
0.18
 45
0.0
 46
0.0
 47
0.0
 48
0.0
140
0.18
141
0.09
142
0.0
143
25.399999999999999
144
1.0
145
0.0
146
1.0
147
0.09
 71
     0
 72
     0
 73
     1
 74
     1
 75
     0
 76
     0
 77
     0
 78
     0
170
     0
171
     2
172
     0
173
     0
174
     0
175
     0
176
     0
177
     0
178
     0
  0
ENDTAB
  0
ENDSEC
  0
SECTION
  2
BLOCKS
  0
BLOCK
  8
0
  2
$MODEL_SPACE
 70
     0
 10
0.0
 20
0.0
 30
0.0
  3
$MODEL_SPACE
  1

  0
ENDBLK
  5
1A
  8
0
  0
BLOCK
 67
     1
  8
0
  2
$PAPER_SPACE
 70
     0
 10
0.0
 20
0.0
 30
0.0
  3
$PAPER_SPACE
  1

  0
ENDBLK
  5
17
 67
     1
  8
0
  0
ENDSEC
  0
SECTION
  2
ENTITIES
  0
TEXT
  5
22
  8
0
 62
     7
 10
132.70699999999999
 20
216.065
 30
0.0
 40
3.660169999999999
  1
%%c35
 41
0.5
  0
TEXT
  5
23
  8
0
 62
     7
 10
140.3217563333333
 20
206.155
 30
0.0
 40
3.660169999999999
  1
水栓取付穴
 41
0.5
 72
     1
 11
145.56800000000001
 21
206.155
 31
0.0
  0
TEXT
  5
24
  8
0
 62
     7
 10
79.061700000000002
 20
220.643
 30
0.0
 40
3.660169999999999
  1
開
 41
0.5
  0
TEXT
  5
25
  8
0
 62
     7
 10
57.324426333333342
 20
202.744
 30
0.0
 40
3.660169999999999
  1
閉
 41
0.5
 72
     2
 11
58.910499999999992
 21
202.744
 31
0.0
  0
TEXT
  5
26
  8
0
 62
     7
 10
69.773307916666667
 20
210.41499999999999
 30
0.0
 40
3.660169999999999
  1
90%%d
 41
0.5
 72
     1
 11
71.755899999999997
 21
210.41499999999999
 31
0.0
  0
TEXT
  5
27
  8
0
 62
     7
 10
143.1798866666667
 20
105.282
 30
0.0
 40
3.660169999999999
  1
%%c47
 41
0.5
 72
     1
 11
145.62
 21
105.282
 31
0.0
  0
TEXT
  5
28
  8
0
 62
     7
 10
143.1798866666667
 20
115.128
 30
0.0
 40
3.660169999999999
  1
%%c32
 41
0.5
 72
     1
 11
145.62
 21
115.128
 31
0.0
  0
TEXT
  5
29
  8
0
 62
     7
 10
120.4879008333333
 20
160.023
 30
0.0
 40
3.660169999999999
  1
138
 41
0.5
 72
     1
 11
122.623
 21
160.023
 31
0.0
  0
TEXT
  5
2A
  8
0
 62
     7
 10
88.094200000000015
 20
110.547915
 30
0.0
 40
3.660169999999999
  1
100
 50
90.0
 41
0.5
 72
     1
 11
88.094200000000015
 21
112.378
 31
0.0
  0
TEXT
  5
2B
  8
0
 62
     7
 10
94.919499999999999
 20
110.53292916666661
 30
0.0
 40
3.660169999999999
  1
98
 50
90.0
 41
0.5
 72
     1
 11
94.919499999999999
 21
112.05800000000001
 31
0.0
  0
TEXT
  5
2C
  8
0
 62
     7
 10
161.21000000000001
 20
85.205029166666662
 30
0.0
 40
3.660169999999999
  1
54
 50
90.0
 41
0.5
 72
     1
 11
161.21000000000001
 21
86.730099999999993
 31
0.0
  0
TEXT
  5
2D
  8
0
 62
     7
 10
161.21000000000001
 20
120.5959008333333
 30
0.0
 40
3.660169999999999
  1
162
 50
90.0
 41
0.5
 72
     1
 11
161.21000000000001
 21
122.73099999999999
 31
0.0
  0
TEXT
  5
2E
  8
0
 62
     7
 10
123.6364079166667
 20
69.955899999999986
 30
0.0
 40
3.660169999999999
  1
120
 41
0.5
 72
     1
 11
125.619
 21
69.955899999999986
 31
0.0
  0
TEXT
  5
2F
  8
0
 62
     7
 10
74.716999999999999
 20
77.600200000000001
 30
0.0
 40
3.660169999999999
  1
max.30
 50
90.0
 41
0.5
  0
TEXT
  5
30
  8
0
 62
     7
 10
110.45042208333329
 20
117.727
 30
0.0
 40
3.660169999999999
  1
10%%d
 41
0.5
 72
     1
 11
112.128
 21
117.727
 31
0.0
  0
TEXT
  5
31
  8
0
 62
     7
 10
56.635458333333332
 20
69.306799999999996
 30
0.0
 40
3.660169999999999
  1
G1/2
 41
0.5
 72
     1
 11
59.685600000000001
 21
69.306799999999996
 31
0.0
  0
LINE
  5
32
  8
0
 62
     7
 10
150.953
 20
94.396600000000007
 30
0.0
 11
140.286
 21
94.396600000000007
 31
0.0
  0
LINE
  5
33
  8
0
 62
     7
 10
140.286
 20
94.396600000000007
 30
0.0
 11
140.286
 21
95.063500000000005
 31
0.0
  0
LINE
  5
34
  8
0
 62
     7
 10
140.286
 20
95.063500000000005
 30
0.0
 11
150.953
 21
95.063500000000005
 31
0.0
  0
LINE
  5
35
  8
0
 62
     7
 10
150.953
 20
95.063500000000005
 30
0.0
 11
150.953
 21
94.396600000000007
 31
0.0
  0
LINE
  5
36
  8
0
 62
     7
 10
142.28999999999999
 20
88.819299999999998
 30
0.0
 11
142.28999999999999
 21
94.396600000000007
 31
0.0
  0
LINE
  5
37
  8
0
 62
     7
 10
148.9489999999999
 20
88.819299999999998
 30
0.0
 11
148.9489999999999
 21
94.396600000000007
 31
0.0
  0
LINE
  5
38
  8
0
 62
     7
 10
149.11600000000001
 20
88.819299999999998
 30
0.0
 11
149.11600000000001
 21
94.396600000000007
 31
0.0
  0
LINE
  5
39
  8
0
 62
     7
 10
142.12299999999999
 20
94.396600000000007
 30
0.0
 11
142.12299999999999
 21
88.819299999999998
 31
0.0
  0
LINE
  5
3A
  8
0
 62
     7
 10
65.018999999999991
 20
94.396600000000007
 30
0.0
 11
54.352200000000011
 21
94.396600000000007
 31
0.0
  0
LINE
  5
3B
  8
0
 62
     7
 10
54.352200000000011
 20
94.396600000000007
 30
0.0
 11
54.352200000000011
 21
95.063500000000005
 31
0.0
  0
LINE
  5
3C
  8
0
 62
     7
 10
54.352200000000011
 20
95.063500000000005
 30
0.0
 11
65.018999999999991
 21
95.063500000000005
 31
0.0
  0
LINE
  5
3D
  8
0
 62
     7
 10
65.018999999999991
 20
95.063500000000005
 30
0.0
 11
65.018999999999991
 21
94.396600000000007
 31
0.0
  0
ARC
  5
3E
  8
0
 62
     7
 10
136.13577599999999
 20
128.41409299999989
 30
0.0
 40
9.7963490000000011
 50
14.511511
 51
15.783849
  0
ARC
  5
3F
  8
0
 62
     7
 10
142.634601
 20
130.14915300000001
 30
0.0
 40
3.0721780000000001
 50
17.613712
 51
21.138894000000001
  0
ARC
  5
40
  8
0
 62
     7
 10
143.486795
 20
130.48910900000001
 30
0.0
 40
2.154752999999999
 50
20.879552000000011
 51
25.952504000000001
  0
ARC
  5
41
  8
0
 62
     7
 10
143.95490699999999
 20
130.76626200000001
 30
0.0
 40
1.6131669999999989
 50
24.377243
 51
28.526088999999999
  0
ARC
  5
42
  8
0
 62
     7
 10
142.70396299999999
 20
130.13321500000001
 30
0.0
 40
3.0148450000000002
 50
27.742982000000001
 51
31.076737999999999
  0
ARC
  5
43
  8
0
 62
     7
 10
143.010704
 20
130.29478499999999
 30
0.0
 40
2.668801999999999
 50
31.505141999999999
 51
35.320366
  0
ARC
  5
44
  8
0
 62
     7
 10
143.36206000000001
 20
130.59058999999999
 30
0.0
 40
2.211431999999999
 50
34.330036
 51
37.933430999999999
  0
ARC
  5
45
  8
0
 62
     7
 10
142.83490399999999
 20
130.18653900000001
 30
0.0
 40
2.875607
 50
37.826211000000001
 51
41.97898
  0
ARC
  5
46
  8
0
 62
     7
 10
142.92192499999999
 20
130.26741000000001
 30
0.0
 40
2.7568259999999989
 50
41.939199000000002
 51
46.350596000000003
  0
ARC
  5
47
  8
0
 62
     7
 10
143.17571100000001
 20
130.571799
 30
0.0
 40
2.3615499999999989
 50
45.708410000000001
 51
49.335583
  0
ARC
  5
48
  8
0
 62
     7
 10
142.58537000000001
 20
129.898346
 30
0.0
 40
3.257086999999999
 50
49.178028000000012
 51
51.817295999999999
  0
ARC
  5
49
  8
0
 62
     7
 10
142.80354500000001
 20
130.15703400000001
 30
0.0
 40
2.9188990000000001
 50
52.044637000000002
 51
56.461817000000011
  0
ARC
  5
4A
  8
0
 62
     7
 10
142.99749399999999
 20
130.465047
 30
0.0
 40
2.5550239999999991
 50
56.270882999999998
 51
59.634632999999987
  0
ARC
  5
4B
  8
0
 62
     7
 10
142.70475200000001
 20
129.97081399999999
 30
0.0
 40
3.129443999999999
 50
59.584400000000002
 51
63.959567000000007
  0
ARC
  5
4C
  8
0
 62
     7
 10
143.11636100000001
 20
130.84214700000001
 30
0.0
 40
2.1659029999999988
 50
63.623731999999997
 51
67.597126000000003
  0
ARC
  5
4D
  8
0
 62
     7
 10
142.804373
 20
130.1311419999999
 30
0.0
 40
2.9422019999999991
 50
67.257013999999998
 51
70.18762199999999
  0
ARC
  5
4E
  8
0
 62
     7
 10
142.829767
 20
130.162971
 30
0.0
 40
2.9036799999999992
 50
70.446155000000005
 51
74.897984999999991
  0
ARC
  5
4F
  8
0
 62
     7
 10
142.89039299999999
 20
130.36355900000001
 30
0.0
 40
2.6942309999999998
 50
75.031366000000006
 51
78.232229000000004
  0
ARC
  5
50
  8
0
 62
     7
 10
142.95911100000001
 20
130.62950799999999
 30
0.0
 40
2.419891999999999
 50
78.54084300000001
 51
84.276688000000007
  0
ARC
  5
51
  8
0
 62
     7
 10
142.95860099999999
 20
130.45841999999999
 30
0.0
 40
2.590231999999999
 50
84.642864000000003
 51
88.918126999999998
  0
ARC
  5
52
  8
0
 62
     7
 10
142.74633700000001
 20
125.28088
 30
0.0
 40
7.7716989999999999
 50
88.074189000000004
 51
89.874679999999984
  0
ARC
  5
53
  8
0
 62
     7
 10
142.487495
 20
3.3106919999999991
 30
0.0
 40
129.74216100000001
 50
89.878175999999996
 51
90.025942999999984
  0
ARC
  5
54
  8
0
 62
     7
 10
142.42722499999999
 20
161.64026100000001
 30
0.0
 40
28.587420000000002
 50
269.22965799999997
 51
270.00301899999999
  0
ARC
  5
55
  8
0
 62
     7
 10
141.42284799999999
 20
45.535145
 30
0.0
 40
87.522475000000014
 50
89.594092000000003
 51
89.849622999999994
  0
LINE
  5
56
  8
0
 62
     7
 10
142.63900000000001
 20
219.881
 30
0.0
 11
141.495
 21
217.899
 31
0.0
  0
LINE
  5
57
  8
0
 62
     7
 10
141.495
 20
217.899
 30
0.0
 11
143.477
 21
219.04300000000001
 31
0.0
  0
LINE
  5
58
  8
0
 62
     7
 10
143.477
 20
219.04300000000001
 30
0.0
 11
142.63900000000001
 21
219.881
 31
0.0
  0
LINE
  5
59
  8
0
 62
     7
 10
148.601
 20
224.166
 30
0.0
 11
149.745
 21
226.148
 31
0.0
  0
LINE
  5
5A
  8
0
 62
     7
 10
149.745
 20
226.148
 30
0.0
 11
147.76300000000001
 21
225.00399999999999
 31
0.0
  0
LINE
  5
5B
  8
0
 62
     7
 10
147.76300000000001
 20
225.00399999999999
 30
0.0
 11
148.601
 21
224.166
 31
0.0
  0
LINE
  5
5C
  8
0
 62
     7
 10
142.52699999999999
 20
218.93100000000001
 30
0.0
 11
149.745
 21
226.148
 31
0.0
  0
ARC
  5
5D
  8
0
 62
     7
 10
145.61959400000001
 20
222.023684
 30
0.0
 40
5.8336180000000004
 50
270.00002000000001
 51
359.99999000000003
  0
ARC
  5
5E
  8
0
 62
     7
 10
145.61993799999999
 20
222.023337
 30
0.0
 40
5.833272
 50
179.99658600000001
 51
269.99663600000002
  0
ARC
  5
5F
  8
0
 62
     7
 10
145.61968200000001
 20
222.02376799999999
 30
0.0
 40
5.8330149999999996
 50
90.000845999999996
 51
180.000856
  0
ARC
  5
60
  8
0
 62
     7
 10
145.61985200000001
 20
222.02342300000001
 30
0.0
 40
5.833359999999999
 50
0.002548
 51
90.002517999999995
  0
LINE
  5
61
  8
0
  6
AIGENLINE001
 62
     7
 10
153.78200000000001
 20
222.024
 30
0.0
 11
137.30699999999999
 21
222.024
 31
0.0
  0
LINE
  5
62
  8
0
  6
AIGENLINE001
 62
     7
 10
145.62
 20
213.83600000000001
 30
0.0
 11
145.62
 21
230.215
 31
0.0
  0
LINE
  5
63
  8
0
 62
     7
 10
138.95599999999999
 20
215.36000000000001
 30
0.0
 11
132.70699999999999
 21
215.36000000000001
 31
0.0
  0
LINE
  5
64
  8
0
 62
     7
 10
138.95599999999999
 20
215.36000000000001
 30
0.0
 11
142.52699999999999
 21
218.93000000000001
 31
0.0
  0
LINE
  5
65
  8
0
 62
     7
 10
107.83
 20
117.62
 30
0.0
 11
105.619
 21
117.027
 31
0.0
  0
LINE
  5
66
  8
0
 62
     7
 10
105.619
 20
117.027
 30
0.0
 11
107.83
 21
116.435
 31
0.0
  0
LINE
  5
67
  8
0
 62
     7
 10
107.83
 20
116.435
 30
0.0
 11
107.83
 21
117.62
 31
0.0
  0
LINE
  5
68
  8
0
 62
     7
 10
101.248
 20
117.32299999999999
 30
0.0
 11
103.535
 21
117.208
 31
0.0
  0
LINE
  5
69
  8
0
 62
     7
 10
103.535
 20
117.208
 30
0.0
 11
101.61199999999999
 21
118.45099999999999
 31
0.0
  0
LINE
  5
6A
  8
0
 62
     7
 10
101.61199999999999
 20
118.45099999999999
 30
0.0
 11
101.248
 21
117.32299999999999
 31
0.0
  0
ARC
  5
6B
  8
0
 62
     7
 10
105.63191999999999
 20
129.10261399999999
 30
0.0
 40
12.075431999999999
 50
243.145467
 51
269.940471
  0
LINE
  5
6C
  8
0
 62
     7
 10
77.904399999999995
 20
219.78200000000001
 30
0.0
 11
77.436599999999999
 21
222.024
 31
0.0
  0
LINE
  5
6D
  8
0
 62
     7
 10
77.436599999999999
 20
222.024
 30
0.0
 11
76.721400000000003
 21
219.84899999999999
 31
0.0
  0
LINE
  5
6E
  8
0
 62
     7
 10
76.721400000000003
 20
219.84899999999999
 30
0.0
 11
77.904399999999995
 21
219.78200000000001
 31
0.0
  0
LINE
  5
6F
  8
0
 62
     7
 10
61.862900000000003
 20
204.97999999999999
 30
0.0
 11
59.685600000000001
 21
204.273
 31
0.0
  0
LINE
  5
70
  8
0
 62
     7
 10
59.685600000000001
 20
204.273
 30
0.0
 11
61.924900000000001
 21
203.797
 31
0.0
  0
LINE
  5
71
  8
0
 62
     7
 10
61.924900000000001
 20
203.797
 30
0.0
 11
61.862900000000003
 21
204.97999999999999
 31
0.0
  0
ARC
  5
72
  8
0
 62
     7
 10
59.685619999999993
 20
222.023686
 30
0.0
 40
17.750969999999999
 50
270.00002000000001
 51
359.99999000000003
  0
LINE
  5
73
  8
0
 62
     7
 10
143.40899999999999
 20
158.738
 30
0.0
 11
145.62
 21
159.33000000000001
 31
0.0
  0
LINE
  5
74
  8
0
 62
     7
 10
145.62
 20
159.33000000000001
 30
0.0
 11
143.40899999999999
 21
159.923
 31
0.0
  0
LINE
  5
75
  8
0
 62
     7
 10
143.40899999999999
 20
159.923
 30
0.0
 11
143.40899999999999
 21
158.738
 31
0.0
  0
LINE
  5
76
  8
0
 62
     7
 10
101.836
 20
159.90899999999999
 30
0.0
 11
99.625200000000007
 21
159.316
 31
0.0
  0
LINE
  5
77
  8
0
 62
     7
 10
99.625200000000007
 20
159.316
 30
0.0
 11
101.836
 21
158.72300000000001
 31
0.0
  0
LINE
  5
78
  8
0
 62
     7
 10
101.836
 20
158.72300000000001
 30
0.0
 11
101.836
 21
159.90899999999999
 31
0.0
  0
LINE
  5
79
  8
0
 62
     7
 10
145.62
 20
159.32300000000001
 30
0.0
 11
99.625900000000001
 21
159.32300000000001
 31
0.0
  0
LINE
  5
7A
  8
0
 62
     7
 10
99.625900000000001
 20
136.72499999999999
 30
0.0
 11
99.625900000000001
 21
160.023
 31
0.0
  0
LINE
  5
7B
  8
0
 62
     7
 10
145.62
 20
153.60599999999999
 30
0.0
 11
145.62
 21
160.023
 31
0.0
  0
LINE
  5
7C
  8
0
 62
     7
 10
74.8245
 20
97.942300000000003
 30
0.0
 11
75.417100000000005
 21
95.730500000000006
 31
0.0
  0
LINE
  5
7D
  8
0
 62
     7
 10
75.417100000000005
 20
95.730500000000006
 30
0.0
 11
76.009600000000006
 21
97.942300000000003
 31
0.0
  0
LINE
  5
7E
  8
0
 62
     7
 10
76.009600000000006
 20
97.942300000000003
 30
0.0
 11
74.8245
 21
97.942300000000003
 31
0.0
  0
LINE
  5
7F
  8
0
 62
     7
 10
75.995199999999997
 20
86.608199999999997
 30
0.0
 11
75.402600000000007
 21
88.819299999999998
 31
0.0
  0
LINE
  5
80
  8
0
 62
     7
 10
75.402600000000007
 20
88.819299999999998
 30
0.0
 11
74.810000000000002
 21
86.608199999999997
 31
0.0
  0
LINE
  5
81
  8
0
 62
     7
 10
74.810000000000002
 20
86.608199999999997
 30
0.0
 11
75.995199999999997
 21
86.608199999999997
 31
0.0
  0
LINE
  5
82
  8
0
 62
     7
 10
88.208999999999989
 20
97.941199999999995
 30
0.0
 11
88.801500000000004
 21
95.729500000000002
 31
0.0
  0
LINE
  5
83
  8
0
 62
     7
 10
88.801500000000004
 20
95.729500000000002
 30
0.0
 11
89.394099999999995
 21
97.941199999999995
 31
0.0
  0
LINE
  5
84
  8
0
 62
     7
 10
89.394099999999995
 20
97.941199999999995
 30
0.0
 11
88.208999999999989
 21
97.941199999999995
 31
0.0
  0
LINE
  5
85
  8
0
 62
     7
 10
89.379599999999996
 20
126.816
 30
0.0
 11
88.787000000000006
 21
129.02699999999999
 31
0.0
  0
LINE
  5
86
  8
0
 62
     7
 10
88.787000000000006
 20
129.02699999999999
 30
0.0
 11
88.194500000000005
 21
126.816
 31
0.0
  0
LINE
  5
87
  8
0
 62
     7
 10
88.194500000000005
 20
126.816
 30
0.0
 11
89.379599999999996
 21
126.816
 31
0.0
  0
LINE
  5
88
  8
0
 62
     7
 10
88.794300000000007
 20
95.730500000000006
 30
0.0
 11
88.794300000000007
 21
129.02699999999999
 31
0.0
  0
LINE
  5
89
  8
0
 62
     7
 10
104.753
 20
129.02699999999999
 30
0.0
 11
88.094200000000015
 21
129.02699999999999
 31
0.0
  0
LINE
  5
8A
  8
0
 62
     7
 10
136.928
 20
95.730500000000006
 30
0.0
 11
88.094200000000015
 21
95.730500000000006
 31
0.0
  0
LINE
  5
8B
  8
0
 62
     7
 10
96.204899999999995
 20
126.175
 30
0.0
 11
95.612300000000005
 21
128.387
 31
0.0
  0
LINE
  5
8C
  8
0
 62
     7
 10
95.612300000000005
 20
128.387
 30
0.0
 11
95.019800000000004
 21
126.175
 31
0.0
  0
LINE
  5
8D
  8
0
 62
     7
 10
95.019800000000004
 20
126.175
 30
0.0
 11
96.204899999999995
 21
126.175
 31
0.0
  0
LINE
  5
8E
  8
0
 62
     7
 10
95.034199999999998
 20
97.941199999999995
 30
0.0
 11
95.626800000000003
 21
95.729500000000002
 31
0.0
  0
LINE
  5
8F
  8
0
 62
     7
 10
95.626800000000003
 20
95.729500000000002
 30
0.0
 11
96.219399999999993
 21
97.941199999999995
 31
0.0
  0
LINE
  5
90
  8
0
 62
     7
 10
96.219399999999993
 20
97.941199999999995
 30
0.0
 11
95.034199999999998
 21
97.941199999999995
 31
0.0
  0
LINE
  5
91
  8
0
 62
     7
 10
95.619600000000005
 20
128.386
 30
0.0
 11
95.619600000000005
 21
95.730500000000006
 31
0.0
  0
LINE
  5
92
  8
0
 62
     7
 10
105.619
 20
117.027
 30
0.0
 11
113.685
 21
117.027
 31
0.0
  0
LINE
  5
93
  8
0
 62
     7
 10
107.008
 20
128.386
 30
0.0
 11
94.912299999999988
 21
128.386
 31
0.0
  0
LINE
  5
94
  8
0
 62
     7
 10
151.233
 20
103.997
 30
0.0
 11
153.44499999999999
 21
104.59
 31
0.0
  0
LINE
  5
95
  8
0
 62
     7
 10
153.44499999999999
 20
104.59
 30
0.0
 11
151.233
 21
105.182
 31
0.0
  0
LINE
  5
96
  8
0
 62
     7
 10
151.233
 20
105.182
 30
0.0
 11
151.233
 21
103.997
 31
0.0
  0
LINE
  5
97
  8
0
 62
     7
 10
140.005
 20
105.16800000000001
 30
0.0
 11
137.79400000000001
 21
104.575
 31
0.0
  0
LINE
  5
98
  8
0
 62
     7
 10
137.79400000000001
 20
104.575
 30
0.0
 11
140.005
 21
103.983
 31
0.0
  0
LINE
  5
99
  8
0
 62
     7
 10
140.005
 20
103.983
 30
0.0
 11
140.005
 21
105.16800000000001
 31
0.0
  0
LINE
  5
9A
  8
0
 62
     7
 10
153.44399999999999
 20
104.58199999999999
 30
0.0
 11
137.79499999999999
 21
104.58199999999999
 31
0.0
  0
LINE
  5
9B
  8
0
 62
     7
 10
153.44399999999999
 20
97.428899999999999
 30
0.0
 11
153.44399999999999
 21
105.282
 31
0.0
  0
LINE
  5
9C
  8
0
 62
     7
 10
137.79499999999999
 20
97.428899999999999
 30
0.0
 11
137.79499999999999
 21
105.282
 31
0.0
  0
LINE
  5
9D
  8
0
 62
     7
 10
148.73599999999999
 20
113.836
 30
0.0
 11
150.947
 21
114.428
 31
0.0
  0
LINE
  5
9E
  8
0
 62
     7
 10
150.947
 20
114.428
 30
0.0
 11
148.73599999999999
 21
115.021
 31
0.0
  0
LINE
  5
9F
  8
0
 62
     7
 10
148.73599999999999
 20
115.021
 30
0.0
 11
148.73599999999999
 21
113.836
 31
0.0
  0
LINE
  5
A0
  8
0
 62
     7
 10
142.50299999999999
 20
115.021
 30
0.0
 11
140.292
 21
114.428
 31
0.0
  0
LINE
  5
A1
  8
0
 62
     7
 10
140.292
 20
114.428
 30
0.0
 11
142.50299999999999
 21
113.836
 31
0.0
  0
LINE
  5
A2
  8
0
 62
     7
 10
142.50299999999999
 20
113.836
 30
0.0
 11
142.50299999999999
 21
115.021
 31
0.0
  0
LINE
  5
A3
  8
0
 62
     7
 10
150.947
 20
114.428
 30
0.0
 11
140.292
 21
114.428
 31
0.0
  0
LINE
  5
A4
  8
0
 62
     7
 10
161.31800000000001
 20
79.941900000000004
 30
0.0
 11
161.911
 21
77.730099999999993
 31
0.0
  0
LINE
  5
A5
  8
0
 62
     7
 10
161.911
 20
77.730099999999993
 30
0.0
 11
162.50299999999999
 21
79.941900000000004
 31
0.0
  0
LINE
  5
A6
  8
0
 62
     7
 10
162.50299999999999
 20
79.941900000000004
 30
0.0
 11
161.31800000000001
 21
79.941900000000004
 31
0.0
  0
LINE
  5
A7
  8
0
 62
     7
 10
161.31800000000001
 20
97.933999999999997
 30
0.0
 11
161.911
 21
95.722199999999987
 31
0.0
  0
LINE
  5
A8
  8
0
 62
     7
 10
161.911
 20
95.722199999999987
 30
0.0
 11
162.50299999999999
 21
97.933999999999997
 31
0.0
  0
LINE
  5
A9
  8
0
 62
     7
 10
162.50299999999999
 20
97.933999999999997
 30
0.0
 11
161.31800000000001
 21
97.933999999999997
 31
0.0
  0
LINE
  5
AA
  8
0
 62
     7
 10
162.50299999999999
 20
93.510499999999979
 30
0.0
 11
161.911
 21
95.722199999999987
 31
0.0
  0
LINE
  5
AB
  8
0
 62
     7
 10
161.911
 20
95.722199999999987
 30
0.0
 11
161.31800000000001
 21
93.510499999999979
 31
0.0
  0
LINE
  5
AC
  8
0
 62
     7
 10
161.31800000000001
 20
93.510499999999979
 30
0.0
 11
162.50299999999999
 21
93.510499999999979
 31
0.0
  0
LINE
  5
AD
  8
0
 62
     7
 10
162.49600000000001
 20
147.52099999999999
 30
0.0
 11
161.90299999999999
 21
149.732
 31
0.0
  0
LINE
  5
AE
  8
0
 62
     7
 10
161.90299999999999
 20
149.732
 30
0.0
 11
161.31100000000001
 21
147.52099999999999
 31
0.0
  0
LINE
  5
AF
  8
0
 62
     7
 10
161.31100000000001
 20
147.52099999999999
 30
0.0
 11
162.49600000000001
 21
147.52099999999999
 31
0.0
  0
LINE
  5
B0
  8
0
 62
     7
 10
161.911
 20
77.730099999999993
 30
0.0
 11
161.911
 21
149.73099999999999
 31
0.0
  0
LINE
  5
B1
  8
0
 62
     7
 10
151.547
 20
149.73099999999999
 30
0.0
 11
162.61099999999999
 21
149.73099999999999
 31
0.0
  0
LINE
  5
B2
  8
0
 62
     7
 10
149.93000000000001
 20
77.730099999999993
 30
0.0
 11
162.61099999999999
 21
77.730099999999993
 31
0.0
  0
LINE
  5
B3
  8
0
 62
     7
 10
154.31100000000001
 20
95.730500000000006
 30
0.0
 11
162.61099999999999
 21
95.730500000000006
 31
0.0
  0
LINE
  5
B4
  8
0
 62
     7
 10
107.83
 20
69.841099999999997
 30
0.0
 11
105.61799999999999
 21
69.248599999999996
 31
0.0
  0
LINE
  5
B5
  8
0
 62
     7
 10
105.61799999999999
 20
69.248599999999996
 30
0.0
 11
107.83
 21
68.656000000000006
 31
0.0
  0
LINE
  5
B6
  8
0
 62
     7
 10
107.83
 20
68.656000000000006
 30
0.0
 11
107.83
 21
69.841099999999997
 31
0.0
  0
LINE
  5
B7
  8
0
 62
     7
 10
143.40899999999999
 20
68.670500000000004
 30
0.0
 11
145.62
 21
69.263000000000005
 31
0.0
  0
LINE
  5
B8
  8
0
 62
     7
 10
145.62
 20
69.263000000000005
 30
0.0
 11
143.40899999999999
 21
69.855599999999995
 31
0.0
  0
LINE
  5
B9
  8
0
 62
     7
 10
143.40899999999999
 20
69.855599999999995
 30
0.0
 11
143.40899999999999
 21
68.670500000000004
 31
0.0
  0
LINE
  5
BA
  8
0
 62
     7
 10
105.619
 20
69.255799999999994
 30
0.0
 11
145.62
 21
69.255799999999994
 31
0.0
  0
LINE
  5
BB
  8
0
 62
     7
 10
145.62
 20
68.555800000000005
 30
0.0
 11
145.62
 21
74.850700000000003
 31
0.0
  0
LINE
  5
BC
  8
0
 62
     7
 10
105.619
 20
124.539
 30
0.0
 11
105.619
 21
68.555800000000005
 31
0.0
  0
LINE
  5
BD
  8
0
 62
     7
 10
75.417100000000005
 20
99.724400000000003
 30
0.0
 11
75.417100000000005
 21
77.600200000000001
 31
0.0
  0
LINE
  5
BE
  8
0
 62
     7
 10
68.043800000000005
 20
88.819299999999998
 30
0.0
 11
76.117099999999994
 21
88.819299999999998
 31
0.0
  0
LINE
  5
BF
  8
0
 62
     7
 10
68.377300000000005
 20
95.730500000000006
 30
0.0
 11
76.117099999999994
 21
95.730500000000006
 31
0.0
  0
LINE
  5
C0
  8
0
 62
     7
 10
58.3996
 20
69.192099999999996
 30
0.0
 11
56.188499999999998
 21
68.599500000000006
 31
0.0
  0
LINE
  5
C1
  8
0
 62
     7
 10
56.188499999999998
 20
68.599500000000006
 30
0.0
 11
58.3996
 21
68.007000000000005
 31
0.0
  0
LINE
  5
C2
  8
0
 62
     7
 10
58.3996
 20
68.007000000000005
 30
0.0
 11
58.3996
 21
69.192099999999996
 31
0.0
  0
LINE
  5
C3
  8
0
 62
     7
 10
60.971000000000011
 20
68.0214
 30
0.0
 11
63.1828
 21
68.61399999999999
 31
0.0
  0
LINE
  5
C4
  8
0
 62
     7
 10
63.1828
 20
68.61399999999999
 30
0.0
 11
60.971000000000011
 21
69.206500000000005
 31
0.0
  0
LINE
  5
C5
  8
0
 62
     7
 10
60.971000000000011
 20
69.206500000000005
 30
0.0
 11
60.971000000000011
 21
68.0214
 31
0.0
  0
LINE
  5
C6
  8
0
 62
     7
 10
56.1892
 20
68.606800000000007
 30
0.0
 11
63.181699999999999
 21
68.606800000000007
 31
0.0
  0
LINE
  5
C7
  8
0
 62
     7
 10
63.181699999999999
 20
77.030100000000004
 30
0.0
 11
63.181699999999999
 21
67.906700000000001
 31
0.0
  0
LINE
  5
C8
  8
0
 62
     7
 10
56.1892
 20
77.030100000000004
 30
0.0
 11
56.1892
 21
67.906700000000001
 31
0.0
  0
LINE
  5
C9
  8
0
 62
     7
 10
69.601399999999984
 20
222.024
 30
0.0
 11
78.136600000000001
 21
222.024
 31
0.0
  0
LINE
  5
CA
  8
0
 62
     7
 10
105.03700000000001
 20
125.727
 30
0.0
 11
103.401
 21
116.44799999999999
 31
0.0
  0
LINE
  5
CB
  8
0
  6
AIGENLINE001
 62
     7
 10
106.712
 20
135.221
 30
0.0
 11
105.166
 21
126.458
 31
0.0
  0
LINE
  5
CC
  8
0
  6
AIGENLINE001
 62
     7
 10
105.619
 20
139.29499999999999
 30
0.0
 11
105.619
 21
125.239
 31
0.0
  0
LINE
  5
CD
  8
0
  6
AIGENLINE001
 62
     7
 10
145.62
 20
75.550700000000006
 30
0.0
 11
145.62
 21
103.393
 31
0.0
  0
LINE
  5
CE
  8
0
  6
AIGENLINE001
 62
     7
 10
145.62
 20
109.303
 30
0.0
 11
145.62
 21
113.771
 31
0.0
  0
LINE
  5
CF
  8
0
  6
AIGENLINE001
 62
     7
 10
145.62
 20
119.357
 30
0.0
 11
145.62
 21
152.90600000000001
 31
0.0
  0
LINE
  5
D0
  8
0
  6
AIGENLINE001
 62
     7
 10
68.734899999999996
 20
222.024
 30
0.0
 11
49.778199999999998
 21
222.024
 31
0.0
  0
LINE
  5
D1
  8
0
  6
AIGENLINE001
 62
     7
 10
59.685600000000001
 20
172.03999999999999
 30
0.0
 11
59.685600000000001
 21
230.47499999999999
 31
0.0
  0
ARC
  5
D2
  8
0
 62
     7
 10
64.736306999999996
 20
149.45449600000001
 30
0.0
 40
0.2770329999999999
 50
2.1087349999999989
 51
87.891255000000001
  0
ARC
  5
D3
  8
0
 62
     7
 10
64.839844999999997
 20
136.58546799999999
 30
0.0
 40
0.173431
 50
272.28297500000002
 51
357.8355370000001
  0
LINE
  5
D4
  8
0
 62
     7
 10
65.013199999999983
 20
149.465
 30
0.0
 11
65.013199999999983
 21
136.57900000000001
 31
0.0
  0
LINE
  5
D5
  8
0
  6
AIGENLINE001
 62
     7
 10
59.685600000000001
 20
152.41200000000001
 30
0.0
 11
59.685600000000001
 21
75.643100000000004
 31
0.0
  0
LINE
  5
D6
  8
0
 62
     7
 10
59.883000000000003
 20
98.989900000000006
 30
0.0
 11
59.6815
 21
98.989900000000006
 31
0.0
  0
LINE
  5
D7
  8
0
 62
     7
 10
59.6815
 20
98.989900000000006
 30
0.0
 11
59.6815
 21
99.162499999999994
 31
0.0
  0
LINE
  5
D8
  8
0
 62
     7
 10
59.6815
 20
99.162499999999994
 30
0.0
 11
59.883000000000003
 21
99.162499999999994
 31
0.0
  0
LINE
  5
D9
  8
0
 62
     7
 10
59.883000000000003
 20
99.162499999999994
 30
0.0
 11
59.883000000000003
 21
98.989900000000006
 31
0.0
  0
LINE
  5
DA
  8
0
 62
     7
 10
59.8947
 20
99.237300000000005
 30
0.0
 11
59.607399999999998
 21
99.237300000000005
 31
0.0
  0
LINE
  5
DB
  8
0
 62
     7
 10
59.607399999999998
 20
99.237300000000005
 30
0.0
 11
59.607399999999998
 21
98.915199999999984
 31
0.0
  0
LINE
  5
DC
  8
0
 62
     7
 10
59.607399999999998
 20
98.915199999999984
 30
0.0
 11
59.8947
 21
98.915199999999984
 31
0.0
  0
ARC
  5
DD
  8
0
 62
     7
 10
59.892393999999989
 20
98.979865000000004
 30
0.0
 40
0.064735
 50
272.07805500000001
 51
358.23763300000002
  0
LINE
  5
DE
  8
0
 62
     7
 10
59.95709999999999
 20
98.977900000000005
 30
0.0
 11
59.95709999999999
 21
99.174599999999998
 31
0.0
  0
ARC
  5
DF
  8
0
 62
     7
 10
59.89208399999999
 20
99.172291000000001
 30
0.0
 40
0.065055
 50
2.0255740000000002
 51
87.658737999999985
  0
LINE
  5
E0
  8
0
 62
     7
 10
59.611600000000003
 20
100.581
 30
0.0
 11
59.299399999999999
 21
100.581
 31
0.0
  0
ARC
  5
E1
  8
0
 62
     7
 10
59.314628999999996
 20
100.166713
 30
0.0
 40
0.4141090000000001
 50
92.103973999999994
 51
177.7968689999999
  0
LINE
  5
E2
  8
0
 62
     7
 10
58.900799999999997
 20
100.18300000000001
 30
0.0
 11
58.900799999999997
 21
99.462900000000005
 31
0.0
  0
ARC
  5
E3
  8
0
 62
     7
 10
58.967288000000003
 20
99.465283999999997
 30
0.0
 40
0.066504
 50
182.01365100000001
 51
267.05475999999999
  0
LINE
  5
E4
  8
0
 62
     7
 10
58.963900000000002
 20
99.398899999999998
 30
0.0
 11
59.611600000000003
 21
99.398899999999998
 31
0.0
  0
ARC
  5
E5
  8
0
 62
     7
 10
59.608981000000007
 20
99.46480600000001
 30
0.0
 40
0.065988
 50
272.23356899999999
 51
358.38584800000001
  0
LINE
  5
E6
  8
0
 62
     7
 10
59.674900000000001
 20
99.462900000000005
 30
0.0
 11
59.674900000000001
 21
99.536299999999997
 31
0.0
  0
ARC
  5
E7
  8
0
 62
     7
 10
59.609890999999998
 20
99.533955000000006
 30
0.0
 40
0.065095
 50
2.0889790000000001
 51
88.537188000000015
  0
LINE
  5
E8
  8
0
 62
     7
 10
59.611600000000003
 20
99.59899999999999
 30
0.0
 11
59.096200000000003
 21
99.59899999999999
 31
0.0
  0
LINE
  5
E9
  8
0
 62
     7
 10
59.096200000000003
 20
99.59899999999999
 30
0.0
 11
59.096200000000003
 21
99.889499999999998
 31
0.0
  0
LINE
  5
EA
  8
0
 62
     7
 10
59.096200000000003
 20
99.889499999999998
 30
0.0
 11
59.548200000000001
 21
99.889499999999998
 31
0.0
  0
ARC
  5
EB
  8
0
 62
     7
 10
59.545591000000002
 20
99.955389999999994
 30
0.0
 40
0.065988
 50
272.23356899999999
 51
358.38584800000001
  0
LINE
  5
EC
  8
0
 62
     7
 10
59.611600000000003
 20
99.953500000000005
 30
0.0
 11
59.611600000000003
 21
100.027
 31
0.0
  0
ARC
  5
ED
  8
0
 62
     7
 10
59.546149999999997
 20
100.02454299999999
 30
0.0
 40
0.065446
 50
2.074949999999999
 51
88.237278000000003
  0
LINE
  5
EE
  8
0
 62
     7
 10
59.548200000000001
 20
100.09
 30
0.0
 11
59.096200000000003
 21
100.09
 31
0.0
  0
LINE
  5
EF
  8
0
 62
     7
 10
59.096200000000003
 20
100.09
 30
0.0
 11
59.096200000000003
 21
100.38
 31
0.0
  0
LINE
  5
F0
  8
0
 62
     7
 10
59.096200000000003
 20
100.38
 30
0.0
 11
59.611600000000003
 21
100.38
 31
0.0
  0
ARC
  5
F1
  8
0
 62
     7
 10
59.609006000000008
 20
100.44630600000001
 30
0.0
 40
0.065973
 50
272.21246400000001
 51
358.09809100000001
  0
LINE
  5
F2
  8
0
 62
     7
 10
59.674900000000001
 20
100.444
 30
0.0
 11
59.674900000000001
 21
100.51600000000001
 31
0.0
  0
ARC
  5
F3
  8
0
 62
     7
 10
59.608474000000001
 20
100.51410300000001
 30
0.0
 40
0.066511
 50
2.0341459999999989
 51
87.346435999999997
  0
LINE
  5
F4
  8
0
 62
     7
 10
58.713099999999997
 20
100.581
 30
0.0
 11
58.398899999999998
 21
100.581
 31
0.0
  0
ARC
  5
F5
  8
0
 62
     7
 10
58.414106999999987
 20
100.167754
 30
0.0
 40
0.41307
 50
92.113720000000001
 51
177.935879
  0
LINE
  5
F6
  8
0
 62
     7
 10
58.001300000000001
 20
100.18300000000001
 30
0.0
 11
58.001300000000001
 21
99.462900000000005
 31
0.0
  0
ARC
  5
F7
  8
0
 62
     7
 10
58.067768000000008
 20
99.465283999999997
 30
0.0
 40
0.066504
 50
182.01365100000001
 51
267.05475999999999
  0
LINE
  5
F8
  8
0
 62
     7
 10
58.064399999999999
 20
99.398899999999998
 30
0.0
 11
58.713099999999997
 21
99.398899999999998
 31
0.0
  0
ARC
  5
F9
  8
0
 62
     7
 10
58.710494999999987
 20
99.46480600000001
 30
0.0
 40
0.065988
 50
272.23356899999999
 51
358.38584800000001
  0
LINE
  5
FA
  8
0
 62
     7
 10
58.776499999999999
 20
99.462900000000005
 30
0.0
 11
58.776499999999999
 21
99.536299999999997
 31
0.0
  0
ARC
  5
FB
  8
0
 62
     7
 10
58.711404999999999
 20
99.533955000000006
 30
0.0
 40
0.065095
 50
2.0889790000000001
 51
88.537188000000015
  0
LINE
  5
FC
  8
0
 62
     7
 10
58.713099999999997
 20
99.59899999999999
 30
0.0
 11
58.196300000000001
 21
99.59899999999999
 31
0.0
  0
LINE
  5
FD
  8
0
 62
     7
 10
58.196300000000001
 20
99.59899999999999
 30
0.0
 11
58.196300000000001
 21
100.38
 31
0.0
  0
LINE
  5
FE
  8
0
 62
     7
 10
58.196300000000001
 20
100.38
 30
0.0
 11
58.713099999999997
 21
100.38
 31
0.0
  0
ARC
  5
FF
  8
0
 62
     7
 10
58.710519999999988
 20
100.44630600000001
 30
0.0
 40
0.065973
 50
272.21246400000001
 51
358.09809100000001
  0
LINE
  5
100
  8
0
 62
     7
 10
58.776499999999999
 20
100.444
 30
0.0
 11
58.776499999999999
 21
100.51600000000001
 31
0.0
  0
ARC
  5
101
  8
0
 62
     7
 10
58.709986999999998
 20
100.51410300000001
 30
0.0
 40
0.066511
 50
2.0341459999999989
 51
87.346435999999997
  0
LINE
  5
102
  8
0
 62
     7
 10
58.819200000000002
 20
99.104699999999994
 30
0.0
 11
58.619700000000002
 21
99.104699999999994
 31
0.0
  0
LINE
  5
103
  8
0
 62
     7
 10
58.619700000000002
 20
99.104699999999994
 30
0.0
 11
58.619700000000002
 21
99.162499999999994
 31
0.0
  0
LINE
  5
104
  8
0
 62
     7
 10
58.619700000000002
 20
99.162499999999994
 30
0.0
 11
58.819200000000002
 21
99.162499999999994
 31
0.0
  0
LINE
  5
105
  8
0
 62
     7
 10
58.819200000000002
 20
99.162499999999994
 30
0.0
 11
58.819200000000002
 21
99.104699999999994
 31
0.0
  0
LINE
  5
106
  8
0
 62
     7
 10
58.831200000000003
 20
99.237300000000005
 30
0.0
 11
58.5456
 21
99.237300000000005
 31
0.0
  0
LINE
  5
107
  8
0
 62
     7
 10
58.5456
 20
99.237300000000005
 30
0.0
 11
58.5456
 21
98.915199999999984
 31
0.0
  0
LINE
  5
108
  8
0
 62
     7
 10
58.5456
 20
98.915199999999984
 30
0.0
 11
58.619700000000002
 21
98.915199999999984
 31
0.0
  0
LINE
  5
109
  8
0
 62
     7
 10
58.619700000000002
 20
98.915199999999984
 30
0.0
 11
58.619700000000002
 21
99.029899999999998
 31
0.0
  0
LINE
  5
10A
  8
0
 62
     7
 10
58.619700000000002
 20
99.029899999999998
 30
0.0
 11
58.819200000000002
 21
99.029899999999998
 31
0.0
  0
LINE
  5
10B
  8
0
 62
     7
 10
58.819200000000002
 20
99.029899999999998
 30
0.0
 11
58.819200000000002
 21
98.915199999999984
 31
0.0
  0
LINE
  5
10C
  8
0
 62
     7
 10
58.819200000000002
 20
98.915199999999984
 30
0.0
 11
58.893900000000002
 21
98.915199999999984
 31
0.0
  0
LINE
  5
10D
  8
0
 62
     7
 10
58.893900000000002
 20
98.915199999999984
 30
0.0
 11
58.893900000000002
 21
99.023700000000005
 31
0.0
  0
ARC
  5
10E
  8
0
 62
     7
 10
58.844966000000007
 20
99.022918999999987
 30
0.0
 40
0.048975
 50
0.9070400000000001
 51
68.483258999999975
  0
ARC
  5
10F
  8
0
 62
     7
 10
58.844560999999999
 20
99.118125000000006
 30
0.0
 40
0.049717
 50
291.68250599999999
 51
6.7253759999999989
  0
LINE
  5
110
  8
0
 62
     7
 10
58.893900000000002
 20
99.12390000000002
 30
0.0
 11
58.893900000000002
 21
99.174599999999998
 31
0.0
  0
ARC
  5
111
  8
0
 62
     7
 10
58.82891
 20
99.172267000000005
 30
0.0
 40
0.065066
 50
2.0466579999999999
 51
87.953331999999989
  0
LINE
  5
112
  8
0
 62
     7
 10
58.019899999999993
 20
99.162499999999994
 30
0.0
 11
58.167000000000002
 21
99.162499999999994
 31
0.0
  0
LINE
  5
113
  8
0
 62
     7
 10
58.167000000000002
 20
99.162499999999994
 30
0.0
 11
58.167000000000002
 21
98.915199999999984
 31
0.0
  0
LINE
  5
114
  8
0
 62
     7
 10
58.167000000000002
 20
98.915199999999984
 30
0.0
 11
58.241799999999998
 21
98.915199999999984
 31
0.0
  0
LINE
  5
115
  8
0
 62
     7
 10
58.241799999999998
 20
98.915199999999984
 30
0.0
 11
58.241799999999998
 21
99.162499999999994
 31
0.0
  0
LINE
  5
116
  8
0
 62
     7
 10
58.241799999999998
 20
99.162499999999994
 30
0.0
 11
58.3889
 21
99.162499999999994
 31
0.0
  0
LINE
  5
117
  8
0
 62
     7
 10
58.3889
 20
99.162499999999994
 30
0.0
 11
58.3889
 21
99.237300000000005
 31
0.0
  0
LINE
  5
118
  8
0
 62
     7
 10
58.3889
 20
99.237300000000005
 30
0.0
 11
58.019899999999993
 21
99.237300000000005
 31
0.0
  0
LINE
  5
119
  8
0
 62
     7
 10
58.019899999999993
 20
99.237300000000005
 30
0.0
 11
58.019899999999993
 21
99.162499999999994
 31
0.0
  0
LINE
  5
11A
  8
0
 62
     7
 10
59.183999999999997
 20
99.056399999999996
 30
0.0
 11
59.247399999999992
 21
99.177000000000007
 31
0.0
  0
LINE
  5
11B
  8
0
 62
     7
 10
59.247399999999992
 20
99.177000000000007
 30
0.0
 11
59.310099999999998
 21
99.056399999999996
 31
0.0
  0
LINE
  5
11C
  8
0
 62
     7
 10
59.310099999999998
 20
99.056399999999996
 30
0.0
 11
59.183999999999997
 21
99.056399999999996
 31
0.0
  0
LINE
  5
11D
  8
0
 62
     7
 10
59.209499999999998
 20
99.237300000000005
 30
0.0
 11
59.023099999999992
 21
98.915199999999984
 31
0.0
  0
LINE
  5
11E
  8
0
 62
     7
 10
59.023099999999992
 20
98.915199999999984
 30
0.0
 11
59.109900000000003
 21
98.915199999999984
 31
0.0
  0
LINE
  5
11F
  8
0
 62
     7
 10
59.109900000000003
 20
98.915199999999984
 30
0.0
 11
59.145099999999992
 21
98.982699999999994
 31
0.0
  0
LINE
  5
120
  8
0
 62
     7
 10
59.145099999999992
 20
98.982699999999994
 30
0.0
 11
59.350099999999998
 21
98.982699999999994
 31
0.0
  0
LINE
  5
121
  8
0
 62
     7
 10
59.350099999999998
 20
98.982699999999994
 30
0.0
 11
59.384900000000002
 21
98.915199999999984
 31
0.0
  0
LINE
  5
122
  8
0
 62
     7
 10
59.384900000000002
 20
98.915199999999984
 30
0.0
 11
59.470999999999997
 21
98.915199999999984
 31
0.0
  0
LINE
  5
123
  8
0
 62
     7
 10
59.470999999999997
 20
98.915199999999984
 30
0.0
 11
59.285600000000002
 21
99.237300000000005
 31
0.0
  0
LINE
  5
124
  8
0
 62
     7
 10
59.285600000000002
 20
99.237300000000005
 30
0.0
 11
59.209499999999998
 21
99.237300000000005
 31
0.0
  0
LINE
  5
125
  8
0
 62
     7
 10
61.307200000000002
 20
100.581
 30
0.0
 11
60.925899999999999
 21
100.581
 31
0.0
  0
ARC
  5
126
  8
0
 62
     7
 10
60.941119999999991
 20
100.168092
 30
0.0
 40
0.4127330000000001
 50
92.118098000000003
 51
177.98117099999999
  0
LINE
  5
127
  8
0
 62
     7
 10
60.52859999999999
 20
100.18300000000001
 30
0.0
 11
60.52859999999999
 21
99.462900000000005
 31
0.0
  0
ARC
  5
128
  8
0
 62
     7
 10
60.595101
 20
99.465260000000001
 30
0.0
 40
0.066498
 50
181.99320800000001
 51
266.76130999999998
  0
LINE
  5
129
  8
0
 62
     7
 10
60.59129999999999
 20
99.398899999999998
 30
0.0
 11
60.660200000000003
 21
99.398899999999998
 31
0.0
  0
ARC
  5
12A
  8
0
 62
     7
 10
60.657528999999997
 20
99.464950000000002
 30
0.0
 40
0.066138
 50
272.35499700000003
 51
358.26441999999997
  0
LINE
  5
12B
  8
0
 62
     7
 10
60.72359999999999
 20
99.462900000000005
 30
0.0
 11
60.72359999999999
 21
99.889499999999998
 31
0.0
  0
LINE
  5
12C
  8
0
 62
     7
 10
60.72359999999999
 20
99.889499999999998
 30
0.0
 11
61.174900000000001
 21
99.889499999999998
 31
0.0
  0
LINE
  5
12D
  8
0
 62
     7
 10
61.174900000000001
 20
99.889499999999998
 30
0.0
 11
61.174900000000001
 21
99.462900000000005
 31
0.0
  0
ARC
  5
12E
  8
0
 62
     7
 10
61.241416999999998
 20
99.465307999999993
 30
0.0
 40
0.066511
 50
182.03414900000001
 51
267.346473
  0
LINE
  5
12F
  8
0
 62
     7
 10
61.238300000000002
 20
99.398899999999998
 30
0.0
 11
61.307200000000002
 21
99.398899999999998
 31
0.0
  0
ARC
  5
130
  8
0
 62
     7
 10
61.304521999999999
 20
99.464950000000002
 30
0.0
 40
0.066138
 50
272.35499700000003
 51
358.26441999999997
  0
LINE
  5
131
  8
0
 62
     7
 10
61.370600000000003
 20
99.462900000000005
 30
0.0
 11
61.370600000000003
 21
100.51600000000001
 31
0.0
  0
ARC
  5
132
  8
0
 62
     7
 10
61.304161000000001
 20
100.51410300000001
 30
0.0
 40
0.066511
 50
2.0341459999999989
 51
87.346435999999997
  0
LINE
  5
133
  8
0
 62
     7
 10
60.402200000000001
 20
100.581
 30
0.0
 11
60.216500000000011
 21
100.581
 31
0.0
  0
ARC
  5
134
  8
0
 62
     7
 10
60.231728000000011
 20
100.167062
 30
0.0
 40
0.413761
 50
92.106999999999999
 51
177.84338500000001
  0
LINE
  5
135
  8
0
 62
     7
 10
59.818300000000001
 20
100.18300000000001
 30
0.0
 11
59.818300000000001
 21
99.462900000000005
 31
0.0
  0
ARC
  5
136
  8
0
 62
     7
 10
59.884729000000007
 20
99.465307999999993
 30
0.0
 40
0.066511
 50
182.03414900000001
 51
267.346473
  0
LINE
  5
137
  8
0
 62
     7
 10
59.881700000000002
 20
99.398899999999998
 30
0.0
 11
59.9499
 21
99.398899999999998
 31
0.0
  0
ARC
  5
138
  8
0
 62
     7
 10
59.947145999999996
 20
99.464950000000002
 30
0.0
 40
0.066138
 50
272.35499700000003
 51
358.26441999999997
  0
LINE
  5
139
  8
0
 62
     7
 10
60.013300000000001
 20
99.462900000000005
 30
0.0
 11
60.013300000000001
 21
100.38
 31
0.0
  0
LINE
  5
13A
  8
0
 62
     7
 10
60.013300000000001
 20
100.38
 30
0.0
 11
60.402200000000001
 21
100.38
 31
0.0
  0
ARC
  5
13B
  8
0
 62
     7
 10
60.399524999999997
 20
100.446085
 30
0.0
 40
0.065758
 50
272.33789899999999
 51
358.28488499999997
  0
LINE
  5
13C
  8
0
 62
     7
 10
60.465299999999999
 20
100.444
 30
0.0
 11
60.465299999999999
 21
100.51600000000001
 31
0.0
  0
ARC
  5
13D
  8
0
 62
     7
 10
60.398789999999998
 20
100.514127
 30
0.0
 40
0.066504
 50
2.013649
 51
87.054723000000024
  0
LINE
  5
13E
  8
0
 62
     7
 10
60.720199999999998
 20
98.999600000000001
 30
0.0
 11
60.486600000000003
 21
99.237300000000005
 31
0.0
  0
LINE
  5
13F
  8
0
 62
     7
 10
60.486600000000003
 20
99.237300000000005
 30
0.0
 11
60.412199999999999
 21
99.237300000000005
 31
0.0
  0
LINE
  5
140
  8
0
 62
     7
 10
60.412199999999999
 20
99.237300000000005
 30
0.0
 11
60.412199999999999
 21
98.915199999999984
 31
0.0
  0
LINE
  5
141
  8
0
 62
     7
 10
60.412199999999999
 20
98.915199999999984
 30
0.0
 11
60.486600000000003
 21
98.915199999999984
 31
0.0
  0
LINE
  5
142
  8
0
 62
     7
 10
60.486600000000003
 20
98.915199999999984
 30
0.0
 11
60.486600000000003
 21
99.152900000000002
 31
0.0
  0
LINE
  5
143
  8
0
 62
     7
 10
60.486600000000003
 20
99.152900000000002
 30
0.0
 11
60.720199999999998
 21
98.915199999999984
 31
0.0
  0
LINE
  5
144
  8
0
 62
     7
 10
60.720199999999998
 20
98.915199999999984
 30
0.0
 11
60.794600000000003
 21
98.915199999999984
 31
0.0
  0
LINE
  5
145
  8
0
 62
     7
 10
60.794600000000003
 20
98.915199999999984
 30
0.0
 11
60.794600000000003
 21
99.237300000000005
 31
0.0
  0
LINE
  5
146
  8
0
 62
     7
 10
60.794600000000003
 20
99.237300000000005
 30
0.0
 11
60.720199999999998
 21
99.237300000000005
 31
0.0
  0
LINE
  5
147
  8
0
 62
     7
 10
60.720199999999998
 20
99.237300000000005
 30
0.0
 11
60.720199999999998
 21
98.999600000000001
 31
0.0
  0
LINE
  5
148
  8
0
 62
     7
 10
60.144500000000001
 20
98.915199999999984
 30
0.0
 11
60.219299999999997
 21
98.915199999999984
 31
0.0
  0
LINE
  5
149
  8
0
 62
     7
 10
60.219299999999997
 20
98.915199999999984
 30
0.0
 11
60.219299999999997
 21
99.237300000000005
 31
0.0
  0
LINE
  5
14A
  8
0
 62
     7
 10
60.219299999999997
 20
99.237300000000005
 30
0.0
 11
60.144500000000001
 21
99.237300000000005
 31
0.0
  0
LINE
  5
14B
  8
0
 62
     7
 10
60.144500000000001
 20
99.237300000000005
 30
0.0
 11
60.144500000000001
 21
98.915199999999984
 31
0.0
  0
LINE
  5
14C
  8
0
 62
     7
 10
61.331400000000002
 20
99.162499999999994
 30
0.0
 11
61.331400000000002
 21
99.237300000000005
 31
0.0
  0
LINE
  5
14D
  8
0
 62
     7
 10
61.331400000000002
 20
99.237300000000005
 30
0.0
 11
61.043999999999997
 21
99.237300000000005
 31
0.0
  0
ARC
  5
14E
  8
0
 62
     7
 10
61.046287
 20
99.172336000000016
 30
0.0
 40
0.064995
 50
91.987795999999989
 51
178.01217399999999
  0
LINE
  5
14F
  8
0
 62
     7
 10
60.981299999999997
 20
99.174599999999998
 30
0.0
 11
60.981299999999997
 21
98.977900000000005
 31
0.0
  0
ARC
  5
150
  8
0
 62
     7
 10
61.046387000000003
 20
98.980227999999997
 30
0.0
 40
0.065098
 50
182.072316
 51
267.92771399999998
  0
LINE
  5
151
  8
0
 62
     7
 10
61.043999999999997
 20
98.915199999999984
 30
0.0
 11
61.331400000000002
 21
98.915199999999984
 31
0.0
  0
LINE
  5
152
  8
0
 62
     7
 10
61.331400000000002
 20
98.915199999999984
 30
0.0
 11
61.331400000000002
 21
99.077799999999996
 31
0.0
  0
LINE
  5
153
  8
0
 62
     7
 10
61.331400000000002
 20
99.077799999999996
 30
0.0
 11
61.256900000000002
 21
99.077799999999996
 31
0.0
  0
LINE
  5
154
  8
0
 62
     7
 10
61.256900000000002
 20
99.077799999999996
 30
0.0
 11
61.256900000000002
 21
98.989900000000006
 31
0.0
  0
LINE
  5
155
  8
0
 62
     7
 10
61.256900000000002
 20
98.989900000000006
 30
0.0
 11
61.056399999999996
 21
98.989900000000006
 31
0.0
  0
LINE
  5
156
  8
0
 62
     7
 10
61.056399999999996
 20
98.989900000000006
 30
0.0
 11
61.056399999999996
 21
99.162499999999994
 31
0.0
  0
LINE
  5
157
  8
0
 62
     7
 10
61.056399999999996
 20
99.162499999999994
 30
0.0
 11
61.331400000000002
 21
99.162499999999994
 31
0.0
  0
LINE
  5
158
  8
0
 62
     7
 10
61.174900000000001
 20
100.09
 30
0.0
 11
60.72359999999999
 21
100.09
 31
0.0
  0
LINE
  5
159
  8
0
 62
     7
 10
60.72359999999999
 20
100.09
 30
0.0
 11
60.72359999999999
 21
100.38
 31
0.0
  0
LINE
  5
15A
  8
0
 62
     7
 10
60.72359999999999
 20
100.38
 30
0.0
 11
61.174900000000001
 21
100.38
 31
0.0
  0
LINE
  5
15B
  8
0
 62
     7
 10
61.174900000000001
 20
100.38
 30
0.0
 11
61.174900000000001
 21
100.09
 31
0.0
  0
ARC
  5
15C
  8
0
 62
     7
 10
62.038682999999992
 20
99.746681000000024
 30
0.0
 40
0.6438500000000001
 50
0.16604
 51
32.990483000000012
  0
ARC
  5
15D
  8
0
 62
     7
 10
61.733060000000002
 20
99.57748500000001
 30
0.0
 40
0.9926249999999999
 50
31.576377000000001
 51
45.192664999999998
  0
ARC
  5
15E
  8
0
 62
     7
 10
61.383414000000002
 20
99.241967000000017
 30
0.0
 40
1.477117999999999
 50
44.741978000000003
 51
55.046086000000003
  0
ARC
  5
15F
  8
0
 62
     7
 10
60.959145999999997
 20
98.657489999999996
 30
0.0
 40
2.1992709999999991
 50
54.710571999999999
 51
63.862622999999999
  0
ARC
  5
160
  8
0
 62
     7
 10
60.409518000000013
 20
97.579391000000015
 30
0.0
 40
3.409298999999999
 50
63.551817000000007
 51
74.843919999999983
  0
ARC
  5
161
  8
0
 62
     7
 10
59.845416
 20
95.719921000000014
 30
0.0
 40
5.3518939999999997
 50
74.219502000000006
 51
86.028420999999994
  0
ARC
  5
162
  8
0
 62
     7
 10
59.689199000000002
 20
94.389156999999997
 30
0.0
 40
6.6905849999999996
 50
85.483160999999996
 51
90.030616000000023
  0
ARC
  5
163
  8
0
 62
     7
 10
59.684841000000013
 20
94.621673999999999
 30
0.0
 40
6.4580669999999989
 50
89.993054999999998
 51
102.18811700000001
  0
ARC
  5
164
  8
0
 62
     7
 10
59.291297999999998
 20
96.63494
 30
0.0
 40
4.4072789999999991
 50
102.712976
 51
112.31101700000001
  0
ARC
  5
165
  8
0
 62
     7
 10
58.63960500000001
 20
98.275782999999976
 30
0.0
 40
2.641945999999999
 50
112.745103
 51
125.03659500000001
  0
ARC
  5
166
  8
0
 62
     7
 10
57.961255000000001
 20
99.282399000000012
 30
0.0
 40
1.4284799999999991
 50
125.93804900000001
 51
141.2954189999999
  0
ARC
  5
167
  8
0
 62
     7
 10
57.486037000000003
 20
99.683453000000014
 30
0.0
 40
0.807003
 50
142.41862599999999
 51
165.559068
  0
ARC
  5
168
  8
0
 62
     7
 10
57.300059999999988
 20
99.748080999999999
 30
0.0
 40
0.611
 50
167.07899800000001
 51
179.95623900000001
  0
ARC
  5
169
  8
0
 62
     7
 10
57.333366000000012
 20
99.750418999999994
 30
0.0
 40
0.644309
 50
180.166448
 51
212.97491199999999
  0
ARC
  5
16A
  8
0
 62
     7
 10
57.639756999999989
 20
99.919884999999994
 30
0.0
 40
0.9938819999999999
 50
211.557005
 51
225.160707
  0
ARC
  5
16B
  8
0
 62
     7
 10
57.988170999999987
 20
100.25352700000001
 30
0.0
 40
1.4761850000000001
 50
224.702777
 51
235.01645400000001
  0
ARC
  5
16C
  8
0
 62
     7
 10
58.413532999999987
 20
100.83865900000001
 30
0.0
 40
2.1995100000000001
 50
234.677131
 51
243.82971000000001
  0
ARC
  5
16D
  8
0
 62
     7
 10
58.961964999999999
 20
101.911823
 30
0.0
 40
3.4045939999999999
 50
243.51163299999999
 51
254.820145
  0
ARC
  5
16E
  8
0
 62
     7
 10
59.525708999999999
 20
103.76471600000001
 30
0.0
 40
5.3407780000000002
 50
254.18831700000001
 51
266.02158600000001
  0
ARC
  5
16F
  8
0
 62
     7
 10
59.681664000000012
 20
105.07931600000001
 30
0.0
 40
6.6633420000000001
 50
265.46806600000002
 51
270.03404899999998
  0
ARC
  5
170
  8
0
 62
     7
 10
59.686436
 20
104.861874
 30
0.0
 40
6.4458989999999989
 50
269.99278399999997
 51
282.21190000000001
  0
ARC
  5
171
  8
0
 62
     7
 10
60.078938000000001
 20
102.858475
 30
0.0
 40
4.4049899999999989
 50
282.73418299999997
 51
292.33980200000002
  0
ARC
  5
172
  8
0
 62
     7
 10
60.729748000000001
 20
101.222072
 30
0.0
 40
2.6441099999999991
 50
292.77386000000001
 51
305.06052799999998
  0
ARC
  5
173
  8
0
 62
     7
 10
61.408926000000001
 20
100.215127
 30
0.0
 40
1.429908
 50
305.96184199999999
 51
321.31197100000003
  0
ARC
  5
174
  8
0
 62
     7
 10
61.885272000000001
 20
99.813625000000016
 30
0.0
 40
0.807272
 50
322.42223899999999
 51
345.56360100000001
  0
ARC
  5
175
  8
0
 62
     7
 10
62.070936000000003
 20
99.749082999999999
 30
0.0
 40
0.6115940000000001
 50
347.08304399999997
 51
359.949794
  0
ARC
  5
176
  8
0
 62
     7
 10
140.305543
 20
85.836158999999995
 30
0.0
 40
0.346525
 50
182.16983500000001
 51
267.77091300000001
  0
LINE
  5
177
  8
0
 62
     7
 10
140.292
 20
85.489900000000006
 30
0.0
 11
145.20400000000001
 21
85.489900000000006
 31
0.0
  0
ARC
  5
178
  8
0
 62
     7
 10
138.47340800000001
 20
87.501176000000015
 30
0.0
 40
0.346159
 50
182.17083099999999
 51
267.82919800000002
  0
LINE
  5
179
  8
0
 62
     7
 10
138.46000000000001
 20
87.155299999999997
 30
0.0
 11
145.20400000000001
 21
87.155299999999997
 31
0.0
  0
ARC
  5
17A
  8
0
 62
     7
 10
139.61196699999999
 20
86.808021999999994
 30
0.0
 40
0.347546
 50
2.154668
 51
87.608563000000004
  0
LINE
  5
17B
  8
0
 62
     7
 10
139.959
 20
86.821099999999987
 30
0.0
 11
139.959
 21
85.822999999999993
 31
0.0
  0
ARC
  5
17C
  8
0
 62
     7
 10
141.11126100000001
 20
85.143938999999989
 30
0.0
 40
0.346193
 50
2.1782590000000002
 51
87.881012999999996
  0
LINE
  5
17D
  8
0
 62
     7
 10
141.45699999999999
 20
85.1571
 30
0.0
 11
141.45699999999999
 21
84.157300000000006
 31
0.0
  0
LINE
  5
17E
  8
0
 62
     7
 10
146.036
 20
83.158900000000017
 30
0.0
 11
145.20400000000001
 21
83.158900000000017
 31
0.0
  0
ARC
  5
17F
  8
0
 62
     7
 10
139.85694799999999
 20
84.888379999999984
 30
0.0
 40
1.7306369999999991
 50
182.12200200000001
 51
267.87802699999997
  0
ARC
  5
180
  8
0
 62
     7
 10
151.38291100000001
 20
84.886623999999998
 30
0.0
 40
1.7288699999999999
 50
272.113361
 51
357.934079
  0
LINE
  5
181
  8
0
 62
     7
 10
145.20400000000001
 20
84.157300000000006
 30
0.0
 11
140.958
 21
84.157300000000006
 31
0.0
  0
LINE
  5
182
  8
0
 62
     7
 10
150.28
 20
84.157300000000006
 30
0.0
 11
146.036
 21
84.157300000000006
 31
0.0
  0
LINE
  5
183
  8
0
 62
     7
 10
140.625
 20
83.158900000000017
 30
0.0
 11
139.79300000000001
 21
83.158900000000017
 31
0.0
  0
LINE
  5
184
  8
0
 62
     7
 10
151.447
 20
83.158900000000017
 30
0.0
 11
150.614
 21
83.158900000000017
 31
0.0
  0
ARC
  5
185
  8
0
 62
     7
 10
150.93469899999999
 20
85.835451000000006
 30
0.0
 40
0.345791
 50
272.11638499999998
 51
357.94290699999999
  0
LINE
  5
186
  8
0
 62
     7
 10
150.947
 20
85.489900000000006
 30
0.0
 11
146.036
 21
85.489900000000006
 31
0.0
  0
ARC
  5
187
  8
0
 62
     7
 10
152.765479
 20
87.500431000000006
 30
0.0
 40
0.3454
 50
272.11128200000002
 51
357.94807100000003
  0
LINE
  5
188
  8
0
 62
     7
 10
152.77799999999999
 20
87.155299999999997
 30
0.0
 11
145.20400000000001
 21
87.155299999999997
 31
0.0
  0
LINE
  5
189
  8
0
 62
     7
 10
153.11099999999999
 20
88.819299999999998
 30
0.0
 11
138.12700000000001
 21
88.819299999999998
 31
0.0
  0
LINE
  5
18A
  8
0
 62
     7
 10
138.12700000000001
 20
88.819299999999998
 30
0.0
 11
138.12700000000001
 21
84.824299999999994
 31
0.0
  0
LINE
  5
18B
  8
0
 62
     7
 10
153.11099999999999
 20
88.819299999999998
 30
0.0
 11
153.11099999999999
 21
84.824299999999994
 31
0.0
  0
ARC
  5
18C
  8
0
 62
     7
 10
140.970416
 20
83.812128999999985
 30
0.0
 40
0.345431
 50
92.116018999999994
 51
177.94329500000001
  0
LINE
  5
18D
  8
0
 62
     7
 10
140.625
 20
83.8245
 30
0.0
 11
140.625
 21
83.158900000000017
 31
0.0
  0
ARC
  5
18E
  8
0
 62
     7
 10
150.26839200000001
 20
83.811352000000014
 30
0.0
 40
0.346184
 50
2.180934999999999
 51
87.996716000000006
  0
LINE
  5
18F
  8
0
 62
     7
 10
150.614
 20
83.8245
 30
0.0
 11
150.614
 21
83.158900000000017
 31
0.0
  0
LINE
  5
190
  8
0
 62
     7
 10
145.20400000000001
 20
87.155299999999997
 30
0.0
 11
145.20400000000001
 21
83.158900000000017
 31
0.0
  0
LINE
  5
191
  8
0
 62
     7
 10
146.036
 20
87.155299999999997
 30
0.0
 11
146.036
 21
83.158900000000017
 31
0.0
  0
ARC
  5
192
  8
0
 62
     7
 10
151.625878
 20
86.809704000000011
 30
0.0
 40
0.345799
 50
92.123475999999997
 51
178.11325299999999
  0
LINE
  5
193
  8
0
 62
     7
 10
151.28
 20
86.821099999999987
 30
0.0
 11
151.28
 21
85.822999999999993
 31
0.0
  0
ARC
  5
194
  8
0
 62
     7
 10
150.12716499999999
 20
85.144013000000015
 30
0.0
 40
0.346117
 50
92.107179999999985
 51
177.83350799999999
  0
LINE
  5
195
  8
0
 62
     7
 10
149.78100000000001
 20
85.1571
 30
0.0
 11
149.78100000000001
 21
84.157300000000006
 31
0.0
  0
LINE
  5
196
  8
0
 62
     7
 10
142.124
 20
84.157300000000006
 30
0.0
 11
142.124
 21
77.896900000000002
 31
0.0
  0
LINE
  5
197
  8
0
 62
     7
 10
145.62
 20
95.063500000000005
 30
0.0
 11
153.27699999999999
 21
95.063500000000005
 31
0.0
  0
LINE
  5
198
  8
0
 62
     7
 10
153.27699999999999
 20
95.063500000000005
 30
0.0
 11
153.27699999999999
 21
95.730500000000006
 31
0.0
  0
LINE
  5
199
  8
0
 62
     7
 10
137.96100000000001
 20
95.730500000000006
 30
0.0
 11
137.96100000000001
 21
95.063500000000005
 31
0.0
  0
LINE
  5
19A
  8
0
 62
     7
 10
137.96100000000001
 20
95.063500000000005
 30
0.0
 11
145.62
 21
95.063500000000005
 31
0.0
  0
LINE
  5
19B
  8
0
 62
     7
 10
148.9489999999999
 20
77.730099999999993
 30
0.0
 11
149.11600000000001
 21
77.896900000000002
 31
0.0
  0
LINE
  5
19C
  8
0
 62
     7
 10
142.124
 20
77.896900000000002
 30
0.0
 11
142.28999999999999
 21
77.730099999999993
 31
0.0
  0
LINE
  5
19D
  8
0
 62
     7
 10
142.124
 20
77.896900000000002
 30
0.0
 11
149.11600000000001
 21
77.896900000000002
 31
0.0
  0
LINE
  5
19E
  8
0
 62
     7
 10
148.9489999999999
 20
77.730099999999993
 30
0.0
 11
142.28999999999999
 21
77.730099999999993
 31
0.0
  0
LINE
  5
19F
  8
0
 62
     7
 10
142.28999999999999
 20
77.730099999999993
 30
0.0
 11
142.28999999999999
 21
84.157300000000006
 31
0.0
  0
LINE
  5
1A0
  8
0
 62
     7
 10
148.9489999999999
 20
77.730099999999993
 30
0.0
 11
148.9489999999999
 21
84.157300000000006
 31
0.0
  0
LINE
  5
1A1
  8
0
 62
     7
 10
149.11600000000001
 20
77.896900000000002
 30
0.0
 11
149.11600000000001
 21
84.157300000000006
 31
0.0
  0
ARC
  5
1A2
  8
0
 62
     7
 10
111.46488100000001
 20
129.535875
 30
0.0
 40
1.7159919999999991
 50
91.351931999999991
 51
165.649348
  0
ARC
  5
1A3
  8
0
 62
     7
 10
102.11197199999999
 20
129.931894
 30
0.0
 40
0.274525
 50
174.52397400000001
 51
258.18076500000001
  0
ARC
  5
1A4
  8
0
 62
     7
 10
109.219567
 20
128.66392400000001
 30
0.0
 40
0.276174
 50
261.81423000000001
 51
345.14846399999999
  0
LINE
  5
1A5
  8
0
 62
     7
 10
102.056
 20
129.66300000000001
 30
0.0
 11
109.18000000000001
 21
128.39099999999999
 31
0.0
  0
ARC
  5
1A6
  8
0
 62
     7
 10
100.202308
 20
130.67298500000001
 30
0.0
 40
1.711997
 50
354.085151
 51
60.448768000000001
  0
ARC
  5
1A7
  8
0
 62
     7
 10
103.844025
 20
139.26127199999999
 30
0.0
 40
7.6302649999999987
 50
244.15042800000001
 51
248.4931
  0
ARC
  5
1A8
  8
0
 62
     7
 10
102.189942
 20
136.29739499999999
 30
0.0
 40
4.2462900000000001
 50
232.85525100000001
 51
246.80004500000001
  0
ARC
  5
1A9
  8
0
 62
     7
 10
99.896522000000004
 20
133.048777
 30
0.0
 40
0.270756
 50
178.19199
 51
232.58381700000001
  0
LINE
  5
1AA
  8
0
 62
     7
 10
153.44399999999999
 20
95.730500000000006
 30
0.0
 11
137.79499999999999
 21
95.730500000000006
 31
0.0
  0
LINE
  5
1AB
  8
0
 62
     7
 10
137.96100000000001
 20
96.728899999999996
 30
0.0
 11
153.27699999999999
 21
96.728899999999996
 31
0.0
  0
ARC
  5
1AC
  8
0
 62
     7
 10
141.40091200000001
 20
149.45449099999999
 30
0.0
 40
0.277038
 50
92.109700000000004
 51
177.89027100000001
  0
LINE
  5
1AD
  8
0
 62
     7
 10
141.16900000000001
 20
136.41200000000001
 30
0.0
 11
141.124
 21
136.41200000000001
 31
0.0
  0
LINE
  5
1AE
  8
0
 62
     7
 10
141.124
 20
136.41200000000001
 30
0.0
 11
141.124
 21
149.465
 31
0.0
  0
LINE
  5
1AF
  8
0
 62
     7
 10
141.39099999999999
 20
149.73099999999999
 30
0.0
 11
150.68100000000001
 21
149.73099999999999
 31
0.0
  0
LINE
  5
1B0
  8
0
 62
     7
 10
141.16900000000001
 20
136.41200000000001
 30
0.0
 11
150.947
 21
136.41200000000001
 31
0.0
  0
LINE
  5
1B1
  8
0
 62
     7
 10
111.42400000000001
 20
131.251
 30
0.0
 11
137.62799999999999
 21
131.251
 31
0.0
  0
LINE
  5
1B2
  8
0
 62
     7
 10
145.62
 20
135.91300000000001
 30
0.0
 11
150.68100000000001
 21
135.91300000000001
 31
0.0
  0
LINE
  5
1B3
  8
0
 62
     7
 10
105.619
 20
135.91300000000001
 30
0.0
 11
145.62
 21
135.91300000000001
 31
0.0
  0
LINE
  5
1B4
  8
0
 62
     7
 10
99.625900000000001
 20
135.64599999999999
 30
0.0
 11
99.625900000000001
 21
133.06100000000001
 31
0.0
  0
LINE
  5
1B5
  8
0
 62
     7
 10
100.458
 20
135.91300000000001
 30
0.0
 11
105.619
 21
135.91300000000001
 31
0.0
  0
ARC
  5
1B6
  8
0
 62
     7
 10
99.901386000000016
 20
135.63718499999999
 30
0.0
 40
0.275636
 50
92.122949000000006
 51
178.099817
  0
LINE
  5
1B7
  8
0
 62
     7
 10
99.891199999999984
 20
135.91300000000001
 30
0.0
 11
100.458
 21
135.91300000000001
 31
0.0
  0
LINE
  5
1B8
  8
0
 62
     7
 10
99.625900000000001
 20
133.05699999999999
 30
0.0
 11
141.65299999999999
 21
133.05699999999999
 31
0.0
  0
LINE
  5
1B9
  8
0
 62
     7
 10
137.79499999999999
 20
96.5625
 30
0.0
 11
137.79499999999999
 21
95.730500000000006
 31
0.0
  0
LINE
  5
1BA
  8
0
 62
     7
 10
153.44399999999999
 20
95.730500000000006
 30
0.0
 11
153.44399999999999
 21
96.5625
 31
0.0
  0
ARC
  5
1BB
  8
0
 62
     7
 10
137.967275
 20
96.556326999999996
 30
0.0
 40
0.172686
 50
92.049638999999985
 51
177.95033100000001
  0
ARC
  5
1BC
  8
0
 62
     7
 10
153.27122499999999
 20
96.556326999999996
 30
0.0
 40
0.172686
 50
2.0496659999999989
 51
87.950323999999995
  0
ARC
  5
1BD
  8
0
 62
     7
 10
150.67061799999999
 20
149.45449099999999
 30
0.0
 40
0.277039
 50
2.109726999999999
 51
87.890263000000004
  0
LINE
  5
1BE
  8
0
 62
     7
 10
150.947
 20
136.41200000000001
 30
0.0
 11
150.947
 21
149.465
 31
0.0
  0
LINE
  5
1BF
  8
0
 62
     7
 10
149.28200000000001
 20
135.91300000000001
 30
0.0
 11
149.27000000000001
 21
136.41200000000001
 31
0.0
  0
LINE
  5
1C0
  8
0
 62
     7
 10
141.96799999999999
 20
136.41200000000001
 30
0.0
 11
141.95599999999999
 21
135.91300000000001
 31
0.0
  0
LINE
  5
1C1
  8
0
 62
     7
 10
109.48699999999999
 20
128.59299999999999
 30
0.0
 11
109.80200000000001
 21
129.96100000000001
 31
0.0
  0
LINE
  5
1C2
  8
0
 62
     7
 10
101.905
 20
130.49700000000001
 30
0.0
 11
101.839
 21
129.958
 31
0.0
  0
ARC
  5
1C3
  8
0
 62
     7
 10
150.67096599999999
 20
135.63611700000001
 30
0.0
 40
0.276691
 50
2.114263999999999
 51
87.959800000000001
  0
LINE
  5
1C4
  8
0
 62
     7
 10
140.292
 20
128.58799999999999
 30
0.0
 11
140.292
 21
96.728899999999996
 31
0.0
  0
LINE
  5
1C5
  8
0
 62
     7
 10
150.947
 20
96.728899999999996
 30
0.0
 11
150.947
 21
135.64599999999999
 31
0.0
  0
LINE
  5
1C6
  8
0
 62
     7
 10
148.11699999999999
 20
136.41200000000001
 30
0.0
 11
148.11699999999999
 21
135.91300000000001
 31
0.0
  0
LINE
  5
1C7
  8
0
 62
     7
 10
143.12200000000001
 20
136.41200000000001
 30
0.0
 11
143.12200000000001
 21
135.91300000000001
 31
0.0
  0
LINE
  5
1C8
  8
0
 62
     7
 10
150.947
 20
149.465
 30
0.0
 11
150.947
 21
136.41200000000001
 31
0.0
  0
LINE
  5
1C9
  8
0
 62
     7
 10
141.124
 20
136.41200000000001
 30
0.0
 11
150.947
 21
136.41200000000001
 31
0.0
  0
LINE
  5
1CA
  8
0
 62
     7
 10
101.839
 20
129.958
 30
0.0
 11
101.905
 21
130.49700000000001
 31
0.0
  0
LINE
  5
1CB
  8
0
 62
     7
 10
141.124
 20
149.465
 30
0.0
 11
141.124
 21
136.41200000000001
 31
0.0
  0
LINE
  5
1CC
  8
0
 62
     7
 10
150.947
 20
96.728899999999996
 30
0.0
 11
153.27699999999999
 21
96.728899999999996
 31
0.0
  0
LINE
  5
1CD
  8
0
 62
     7
 10
145.62
 20
149.73099999999999
 30
0.0
 11
150.68100000000001
 21
149.73099999999999
 31
0.0
  0
LINE
  5
1CE
  8
0
 62
     7
 10
145.62
 20
149.73099999999999
 30
0.0
 11
141.39099999999999
 21
149.73099999999999
 31
0.0
  0
LINE
  5
1CF
  8
0
 62
     7
 10
99.625900000000001
 20
135.64599999999999
 30
0.0
 11
99.625900000000001
 21
132.91300000000001
 31
0.0
  0
LINE
  5
1D0
  8
0
 62
     7
 10
140.292
 20
135.91300000000001
 30
0.0
 11
99.891199999999984
 21
135.91300000000001
 31
0.0
  0
LINE
  5
1D1
  8
0
 62
     7
 10
150.947
 20
135.64599999999999
 30
0.0
 11
150.947
 21
96.728899999999996
 31
0.0
  0
LINE
  5
1D2
  8
0
 62
     7
 10
140.292
 20
135.91300000000001
 30
0.0
 11
150.68100000000001
 21
135.91300000000001
 31
0.0
  0
LINE
  5
1D3
  8
0
 62
     7
 10
140.292
 20
96.728899999999996
 30
0.0
 11
140.292
 21
128.58799999999999
 31
0.0
  0
LINE
  5
1D4
  8
0
 62
     7
 10
153.44399999999999
 20
95.730500000000006
 30
0.0
 11
153.44399999999999
 21
96.5625
 31
0.0
  0
LINE
  5
1D5
  8
0
 62
     7
 10
137.96100000000001
 20
96.728899999999996
 30
0.0
 11
140.292
 21
96.728899999999996
 31
0.0
  0
LINE
  5
1D6
  8
0
 62
     7
 10
137.79499999999999
 20
95.730500000000006
 30
0.0
 11
137.79499999999999
 21
96.5625
 31
0.0
  0
LINE
  5
1D7
  8
0
 62
     7
 10
137.79499999999999
 20
95.730500000000006
 30
0.0
 11
153.44399999999999
 21
95.730500000000006
 31
0.0
  0
ARC
  5
1D8
  8
0
 62
     7
 10
137.52641600000001
 20
128.485739
 30
0.0
 40
2.7675259999999988
 50
2.1097899999999998
 51
87.890199999999979
  0
ARC
  5
1D9
  8
0
 62
     7
 10
54.371178
 20
85.835765000000009
 30
0.0
 40
0.346117
 50
182.107193
 51
267.83355499999999
  0
LINE
  5
1DA
  8
0
 62
     7
 10
54.3581
 20
85.489900000000006
 30
0.0
 11
59.269799999999996
 21
85.489900000000006
 31
0.0
  0
ARC
  5
1DB
  8
0
 62
     7
 10
52.539733999999989
 20
87.500783999999996
 30
0.0
 40
0.345753
 50
182.10843399999999
 51
267.89159599999999
  0
LINE
  5
1DC
  8
0
 62
     7
 10
52.527000000000001
 20
87.155299999999997
 30
0.0
 11
59.269799999999996
 21
87.155299999999997
 31
0.0
  0
ARC
  5
1DD
  8
0
 62
     7
 10
53.678389000000003
 20
86.808414999999997
 30
0.0
 40
0.347138
 50
2.0923979999999989
 51
87.670833000000016
  0
LINE
  5
1DE
  8
0
 62
     7
 10
54.025300000000001
 20
86.821099999999987
 30
0.0
 11
54.025300000000001
 21
85.822999999999993
 31
0.0
  0
ARC
  5
1DF
  8
0
 62
     7
 10
55.178038000000001
 20
85.144356999999985
 30
0.0
 40
0.345774
 50
2.1116130000000002
 51
87.888377000000006
  0
LINE
  5
1E0
  8
0
 62
     7
 10
55.523600000000002
 20
85.1571
 30
0.0
 11
55.523600000000002
 21
84.157300000000006
 31
0.0
  0
LINE
  5
1E1
  8
0
 62
     7
 10
60.101799999999997
 20
83.158900000000017
 30
0.0
 11
59.269799999999996
 21
83.158900000000017
 31
0.0
  0
ARC
  5
1E2
  8
0
 62
     7
 10
53.923251
 20
84.887939000000003
 30
0.0
 40
1.7302059999999999
 50
182.107911
 51
267.86840799999999
  0
ARC
  5
1E3
  8
0
 62
     7
 10
65.448977999999997
 20
84.887301000000008
 30
0.0
 40
1.7295450000000001
 50
272.11127199999999
 51
357.91244799999998
  0
LINE
  5
1E4
  8
0
 62
     7
 10
59.269799999999996
 20
84.157300000000006
 30
0.0
 11
55.024399999999993
 21
84.157300000000006
 31
0.0
  0
LINE
  5
1E5
  8
0
 62
     7
 10
64.347200000000001
 20
84.157300000000006
 30
0.0
 11
60.101799999999997
 21
84.157300000000006
 31
0.0
  0
LINE
  5
1E6
  8
0
 62
     7
 10
54.691600000000001
 20
83.158900000000017
 30
0.0
 11
53.858899999999991
 21
83.158900000000017
 31
0.0
  0
LINE
  5
1E7
  8
0
 62
     7
 10
65.512699999999995
 20
83.158900000000017
 30
0.0
 11
64.680000000000007
 21
83.158900000000017
 31
0.0
  0
ARC
  5
1E8
  8
0
 62
     7
 10
65.000747000000004
 20
85.835430999999986
 30
0.0
 40
0.3457699999999999
 50
272.11320000000001
 51
357.94609200000002
  0
LINE
  5
1E9
  8
0
 62
     7
 10
65.013499999999993
 20
85.489900000000006
 30
0.0
 11
60.101799999999997
 21
85.489900000000006
 31
0.0
  0
ARC
  5
1EA
  8
0
 62
     7
 10
66.831851
 20
87.500788999999997
 30
0.0
 40
0.345758
 50
272.10923500000001
 51
357.89077500000002
  0
LINE
  5
1EB
  8
0
 62
     7
 10
66.8446
 20
87.155299999999997
 30
0.0
 11
59.269799999999996
 21
87.155299999999997
 31
0.0
  0
LINE
  5
1EC
  8
0
 62
     7
 10
67.177400000000006
 20
88.819299999999998
 30
0.0
 11
52.194200000000002
 21
88.819299999999998
 31
0.0
  0
LINE
  5
1ED
  8
0
 62
     7
 10
59.685600000000001
 20
129.506
 30
0.0
 11
60.238199999999999
 21
129.499
 31
0.0
  0
LINE
  5
1EE
  8
0
 62
     7
 10
60.238199999999999
 20
129.499
 30
0.0
 11
60.77770000000001
 21
129.477
 31
0.0
  0
LINE
  5
1EF
  8
0
 62
     7
 10
60.77770000000001
 20
129.477
 30
0.0
 11
61.293100000000003
 21
129.44300000000001
 31
0.0
  0
LINE
  5
1F0
  8
0
 62
     7
 10
61.293100000000003
 20
129.44300000000001
 30
0.0
 11
61.772300000000001
 21
129.39400000000001
 31
0.0
  0
LINE
  5
1F1
  8
0
 62
     7
 10
61.772300000000001
 20
129.39400000000001
 30
0.0
 11
62.2057
 21
129.33500000000001
 31
0.0
  0
LINE
  5
1F2
  8
0
 62
     7
 10
62.2057
 20
129.33500000000001
 30
0.0
 11
62.581600000000002
 21
129.26400000000001
 31
0.0
  0
LINE
  5
1F3
  8
0
 62
     7
 10
62.581600000000002
 20
129.26400000000001
 30
0.0
 11
62.894100000000002
 21
129.185
 31
0.0
  0
LINE
  5
1F4
  8
0
 62
     7
 10
62.894100000000002
 20
129.185
 30
0.0
 11
63.133800000000001
 21
129.09800000000001
 31
0.0
  0
LINE
  5
1F5
  8
0
 62
     7
 10
63.133800000000001
 20
129.09800000000001
 30
0.0
 11
63.285400000000003
 21
129.01400000000001
 31
0.0
  0
LINE
  5
1F6
  8
0
 62
     7
 10
52.194200000000002
 20
88.819299999999998
 30
0.0
 11
52.194200000000002
 21
84.824299999999994
 31
0.0
  0
LINE
  5
1F7
  8
0
 62
     7
 10
67.177400000000006
 20
88.819299999999998
 30
0.0
 11
67.177400000000006
 21
84.824299999999994
 31
0.0
  0
ARC
  5
1F8
  8
0
 62
     7
 10
55.037104999999997
 20
83.811800999999988
 30
0.0
 40
0.345758
 50
92.109197999999964
 51
177.890772
  0
LINE
  5
1F9
  8
0
 62
     7
 10
54.691600000000001
 20
83.8245
 30
0.0
 11
54.691600000000001
 21
83.158900000000017
 31
0.0
  0
ARC
  5
1FA
  8
0
 62
     7
 10
64.334501000000003
 20
83.811816000000007
 30
0.0
 40
0.345743
 50
2.1068459999999991
 51
87.893144000000007
  0
LINE
  5
1FB
  8
0
 62
     7
 10
64.680000000000007
 20
83.8245
 30
0.0
 11
64.680000000000007
 21
83.158900000000017
 31
0.0
  0
LINE
  5
1FC
  8
0
 62
     7
 10
59.269799999999996
 20
87.155299999999997
 30
0.0
 11
59.269799999999996
 21
83.158900000000017
 31
0.0
  0
LINE
  5
1FD
  8
0
 62
     7
 10
60.101799999999997
 20
87.155299999999997
 30
0.0
 11
60.101799999999997
 21
83.158900000000017
 31
0.0
  0
ARC
  5
1FE
  8
0
 62
     7
 10
65.691917000000004
 20
86.809693999999993
 30
0.0
 40
0.345809
 50
92.125062000000014
 51
178.11166800000001
  0
LINE
  5
1FF
  8
0
 62
     7
 10
65.346299999999985
 20
86.821099999999987
 30
0.0
 11
65.346299999999985
 21
85.822999999999993
 31
0.0
  0
ARC
  5
200
  8
0
 62
     7
 10
64.193528999999984
 20
85.144023000000004
 30
0.0
 40
0.346106
 50
92.105590000000007
 51
177.83509799999999
  0
LINE
  5
201
  8
0
 62
     7
 10
63.847700000000003
 20
85.1571
 30
0.0
 11
63.847700000000003
 21
84.157300000000006
 31
0.0
  0
LINE
  5
202
  8
0
 62
     7
 10
56.1892
 20
84.157300000000006
 30
0.0
 11
56.1892
 21
77.896900000000002
 31
0.0
  0
LINE
  5
203
  8
0
 62
     7
 10
56.35629999999999
 20
88.819299999999998
 30
0.0
 11
56.35629999999999
 21
94.396600000000007
 31
0.0
  0
LINE
  5
204
  8
0
 62
     7
 10
63.015300000000003
 20
88.819299999999998
 30
0.0
 11
63.015300000000003
 21
94.396600000000007
 31
0.0
  0
ARC
  5
205
  8
0
 62
     7
 10
55.222828999999997
 20
176.88817900000001
 30
0.0
 40
0.8653290000000001
 50
182.12264999999991
 51
267.87737900000002
  0
LINE
  5
206
  8
0
 62
     7
 10
54.3581
 20
176.85599999999999
 30
0.0
 11
54.3581
 21
182.06800000000001
 31
0.0
  0
LINE
  5
207
  8
0
 62
     7
 10
54.3581
 20
182.06800000000001
 30
0.0
 11
54.3581
 21
222.024
 31
0.0
  0
LINE
  5
208
  8
0
 62
     7
 10
62.466500000000003
 20
217.52799999999999
 30
0.0
 11
56.90509999999999
 21
217.52799999999999
 31
0.0
  0
ARC
  5
209
  8
0
 62
     7
 10
62.465702
 20
217.792271
 30
0.0
 40
0.264123
 50
270.17780299999998
 51
303.79012599999999
  0
ARC
  5
20A
  8
0
 62
     7
 10
59.684587999999998
 20
222.02363800000001
 30
0.0
 40
7.8261399999999988
 50
312.914917
 51
42.903295
  0
ARC
  5
20B
  8
0
 62
     7
 10
59.639860999999989
 20
221.91448099999999
 30
0.0
 40
7.9333669999999987
 50
43.260852999999997
 51
89.669486000000006
  0
ARC
  5
20C
  8
0
 62
     7
 10
64.149163999999999
 20
176.887777
 30
0.0
 40
0.8649120000000001
 50
272.097014
 51
357.90299499999998
  0
LINE
  5
20D
  8
0
 62
     7
 10
65.013499999999993
 20
176.85599999999999
 30
0.0
 11
65.013499999999993
 21
182.06800000000001
 31
0.0
  0
LINE
  5
20E
  8
0
 62
     7
 10
65.013499999999993
 20
182.06800000000001
 30
0.0
 11
65.013499999999993
 21
222.024
 31
0.0
  0
ARC
  5
20F
  8
0
 62
     7
 10
59.405298999999999
 20
222.08156199999999
 30
0.0
 40
5.5331729999999997
 50
305.42582900000002
 51
31.229234000000002
  0
ARC
  5
210
  8
0
 62
     7
 10
59.627051000000002
 20
221.740984
 30
0.0
 40
5.5350549999999998
 50
35.437757000000012
 51
121.217371
  0
ARC
  5
211
  8
0
 62
     7
 10
59.686638000000002
 20
222.02295599999999
 30
0.0
 40
5.3284399999999996
 50
123.33725200000001
 51
213.32152199999999
  0
ARC
  5
212
  8
0
 62
     7
 10
59.684245999999987
 20
222.02480800000001
 30
0.0
 40
5.3274589999999993
 50
213.35229699999999
 51
236.686599
  0
ARC
  5
213
  8
0
 62
     7
 10
59.685193999999989
 20
222.02325099999999
 30
0.0
 40
7.8244660000000001
 50
89.996847000000017
 51
179.99681699999999
  0
ARC
  5
214
  8
0
 62
     7
 10
59.789681000000009
 20
222.06855999999999
 30
0.0
 40
7.929079999999999
 50
180.32430400000001
 51
226.762745
  0
LINE
  5
215
  8
0
 62
     7
 10
64.180800000000005
 20
176.023
 30
0.0
 11
55.190800000000003
 21
176.023
 31
0.0
  0
ARC
  5
216
  8
0
 62
     7
 10
56.905875999999999
 20
217.79450299999999
 30
0.0
 40
0.266355
 50
236.35600400000001
 51
269.82646099999999
  0
ARC
  5
217
  8
0
 62
     7
 10
54.634939000000003
 20
149.45449600000001
 30
0.0
 40
0.2770329999999999
 50
92.108707999999993
 51
177.89126200000001
  0
LINE
  5
218
  8
0
 62
     7
 10
54.62469999999999
 20
149.73099999999999
 30
0.0
 11
64.746499999999997
 21
149.73099999999999
 31
0.0
  0
ARC
  5
219
  8
0
 62
     7
 10
59.244128000000003
 20
141.926725
 30
0.0
 40
10.757794000000001
 50
297.99313799999999
 51
299.44551799999999
  0
ARC
  5
21A
  8
0
 62
     7
 10
63.395663999999996
 20
134.53285600000001
 30
0.0
 40
2.2782450000000001
 50
299.93688700000001
 51
304.31507699999997
  0
ARC
  5
21B
  8
0
 62
     7
 10
63.493440999999997
 20
134.35676100000001
 30
0.0
 40
2.0777610000000002
 50
304.82561299999998
 51
310.77998300000002
  0
LINE
  5
21C
  8
0
 62
     7
 10
65.013499999999993
 20
133.053
 30
0.0
 11
65.013499999999993
 21
135.64599999999999
 31
0.0
  0
LINE
  5
21D
  8
0
 62
     7
 10
64.923599999999993
 20
132.834
 30
0.0
 11
59.685600000000001
 21
132.83699999999999
 31
0.0
  0
LINE
  5
21E
  8
0
 62
     7
 10
64.850499999999997
 20
132.78299999999999
 30
0.0
 11
64.923599999999993
 21
132.834
 31
0.0
  0
ARC
  5
21F
  8
0
 62
     7
 10
64.744928000000002
 20
133.03369599999999
 30
0.0
 40
0.268569
 50
335.89102700000012
 51
359.89477600000009
  0
ARC
  5
220
  8
0
 62
     7
 10
64.736994999999993
 20
133.040798
 30
0.0
 40
0.27873
 50
312.02149200000002
 51
335.22473300000001
  0
LINE
  5
221
  8
0
 62
     7
 10
65.013499999999993
 20
133.053
 30
0.0
 11
65.013499999999993
 21
133.03299999999999
 31
0.0
  0
ARC
  5
222
  8
0
 62
     7
 10
64.736994999999993
 20
135.63611700000001
 30
0.0
 40
0.276691
 50
2.114263999999999
 51
87.959800000000001
  0
ARC
  5
223
  8
0
 62
     7
 10
48.587623999999991
 20
135.80539400000001
 30
0.0
 40
14.761266000000001
 50
1.051482
 51
2.3558769999999991
  0
ARC
  5
224
  8
0
 62
     7
 10
63.519379999999998
 20
136.08575500000001
 30
0.0
 40
0.173235
 50
183.136842
 51
267.93857200000002
  0
LINE
  5
225
  8
0
 62
     7
 10
64.746799999999993
 20
135.91300000000001
 30
0.0
 11
64.180800000000005
 21
135.91300000000001
 31
0.0
  0
LINE
  5
226
  8
0
 62
     7
 10
59.685600000000001
 20
129.464
 30
0.0
 11
60.214399999999998
 21
129.45699999999999
 31
0.0
  0
LINE
  5
227
  8
0
 62
     7
 10
60.214399999999998
 20
129.45699999999999
 30
0.0
 11
60.730499999999999
 21
129.43600000000001
 31
0.0
  0
LINE
  5
228
  8
0
 62
     7
 10
60.730499999999999
 20
129.43600000000001
 30
0.0
 11
61.22209999999999
 21
129.40199999999999
 31
0.0
  0
LINE
  5
229
  8
0
 62
     7
 10
61.22209999999999
 20
129.40199999999999
 30
0.0
 11
61.677900000000001
 21
129.35499999999999
 31
0.0
  0
LINE
  5
22A
  8
0
 62
     7
 10
61.677900000000001
 20
129.35499999999999
 30
0.0
 11
62.087200000000003
 21
129.29599999999999
 31
0.0
  0
LINE
  5
22B
  8
0
 62
     7
 10
62.087200000000003
 20
129.29599999999999
 30
0.0
 11
62.439300000000003
 21
129.227
 31
0.0
  0
LINE
  5
22C
  8
0
 62
     7
 10
62.439300000000003
 20
129.227
 30
0.0
 11
62.727699999999999
 21
129.15000000000001
 31
0.0
  0
LINE
  5
22D
  8
0
 62
     7
 10
62.727699999999999
 20
129.15000000000001
 30
0.0
 11
62.944699999999997
 21
129.066
 31
0.0
  0
LINE
  5
22E
  8
0
 62
     7
 10
62.944699999999997
 20
129.066
 30
0.0
 11
63.085299999999997
 21
128.977
 31
0.0
  0
LINE
  5
22F
  8
0
 62
     7
 10
63.085299999999997
 20
128.977
 30
0.0
 11
63.123899999999999
 21
128.935
 31
0.0
  0
LINE
  5
230
  8
0
 62
     7
 10
65.013499999999993
 20
130.69
 30
0.0
 11
65.013499999999993
 21
130.61500000000001
 31
0.0
  0
LINE
  5
231
  8
0
 62
     7
 10
65.013499999999993
 20
130.08600000000001
 30
0.0
 11
65.012799999999999
 21
130.09899999999999
 31
0.0
  0
ARC
  5
232
  8
0
 62
     7
 10
64.43973299999999
 20
130.09493399999999
 30
0.0
 40
0.5730870000000001
 50
0.3717500000000001
 51
3.991531999999999
  0
LINE
  5
233
  8
0
 62
     7
 10
65.011399999999995
 20
130.13499999999999
 30
0.0
 11
65.011099999999999
 21
130.18899999999999
 31
0.0
  0
LINE
  5
234
  8
0
 62
     7
 10
65.011099999999999
 20
130.18899999999999
 30
0.0
 11
65.010400000000004
 21
130.251
 31
0.0
  0
LINE
  5
235
  8
0
 62
     7
 10
65.013499999999993
 20
130.41900000000001
 30
0.0
 11
65.012799999999999
 21
130.411
 31
0.0
  0
ARC
  5
236
  8
0
 62
     7
 10
64.759835999999993
 20
130.40982500000001
 30
0.0
 40
0.252973
 50
355.76471299999997
 51
0.216179
  0
LINE
  5
237
  8
0
 62
     7
 10
65.012100000000004
 20
130.39099999999999
 30
0.0
 11
65.011399999999995
 21
130.36000000000001
 31
0.0
  0
LINE
  5
238
  8
0
 62
     7
 10
65.011399999999995
 20
130.36000000000001
 30
0.0
 11
65.011099999999999
 21
130.321
 31
0.0
  0
LINE
  5
239
  8
0
 62
     7
 10
65.011099999999999
 20
130.321
 30
0.0
 11
65.010400000000004
 21
130.27699999999999
 31
0.0
  0
LINE
  5
23A
  8
0
 62
     7
 10
65.010400000000004
 20
130.27699999999999
 30
0.0
 11
65.010400000000004
 21
130.251
 31
0.0
  0
LINE
  5
23B
  8
0
 62
     7
 10
65.012799999999999
 20
130.083
 30
0.0
 11
65.012799999999999
 21
130.42099999999999
 31
0.0
  0
LINE
  5
23C
  8
0
 62
     7
 10
65.013499999999993
 20
130.61500000000001
 30
0.0
 11
65.013499999999993
 21
130.41900000000001
 31
0.0
  0
LINE
  5
23D
  8
0
 62
     7
 10
65.011099999999999
 20
130.39099999999999
 30
0.0
 11
65.012799999999999
 21
130.61500000000001
 31
0.0
  0
LINE
  5
23E
  8
0
 62
     7
 10
63.662300000000002
 20
131.203
 30
0.0
 11
63.664700000000003
 21
131.226
 31
0.0
  0
LINE
  5
23F
  8
0
 62
     7
 10
63.123899999999999
 20
128.935
 30
0.0
 11
63.14589999999999
 21
128.886
 31
0.0
  0
LINE
  5
240
  8
0
 62
     7
 10
63.14589999999999
 20
128.886
 30
0.0
 11
63.125599999999999
 21
128.79400000000001
 31
0.0
  0
LINE
  5
241
  8
0
 62
     7
 10
63.125599999999999
 20
128.79400000000001
 30
0.0
 11
63.071800000000003
 21
128.73699999999999
 31
0.0
  0
LINE
  5
242
  8
0
 62
     7
 10
63.2089
 20
128.66399999999999
 30
0.0
 11
63.297499999999999
 21
128.72
 31
0.0
  0
LINE
  5
243
  8
0
 62
     7
 10
63.297499999999999
 20
128.72
 30
0.0
 11
63.379800000000003
 21
128.815
 31
0.0
  0
LINE
  5
244
  8
0
 62
     7
 10
63.379800000000003
 20
128.815
 30
0.0
 11
63.379800000000003
 21
128.911
 31
0.0
  0
LINE
  5
245
  8
0
 62
     7
 10
63.379800000000003
 20
128.911
 30
0.0
 11
63.297499999999999
 21
129.006
 31
0.0
  0
LINE
  5
246
  8
0
 62
     7
 10
63.297499999999999
 20
129.006
 30
0.0
 11
63.285400000000003
 21
129.01400000000001
 31
0.0
  0
ARC
  5
247
  8
0
 62
     7
 10
62.651214000000003
 20
129.97006399999989
 30
0.0
 40
1.43022
 50
297.15791300000001
 51
301.28626200000002
  0
ARC
  5
248
  8
0
 62
     7
 10
63.169035999999991
 20
129.077394
 30
0.0
 40
0.399003
 50
304.31098500000002
 51
326.05986999999999
  0
ARC
  5
249
  8
0
 62
     7
 10
63.07962599999999
 20
129.152411
 30
0.0
 40
0.5152100000000001
 50
324.69009299999999
 51
331.45404200000002
  0
ARC
  5
24A
  8
0
 62
     7
 10
63.350251999999998
 20
129.00381999999999
 30
0.0
 40
0.206481
 50
331.78855399999998
 51
352.225548
  0
ARC
  5
24B
  8
0
 62
     7
 10
63.400177999999997
 20
128.99989299999999
 30
0.0
 40
0.156508
 50
351.17729200000002
 51
4.4594259999999997
  0
LINE
  5
24C
  8
0
 62
     7
 10
63.556199999999997
 20
129.012
 30
0.0
 11
63.674399999999999
 21
131.226
 31
0.0
  0
LINE
  5
24D
  8
0
 62
     7
 10
65.013499999999993
 20
132.97799999999989
 30
0.0
 11
65.013499999999993
 21
132.90600000000001
 31
0.0
  0
LINE
  5
24E
  8
0
 62
     7
 10
65.013499999999993
 20
132.90600000000001
 30
0.0
 11
65.013499999999993
 21
132.715
 31
0.0
  0
LINE
  5
24F
  8
0
 62
     7
 10
65.013499999999993
 20
132.715
 30
0.0
 11
65.013499999999993
 21
132.149
 31
0.0
  0
LINE
  5
250
  8
0
 62
     7
 10
65.013499999999993
 20
132.149
 30
0.0
 11
65.013499999999993
 21
131.70699999999999
 31
0.0
  0
LINE
  5
251
  8
0
 62
     7
 10
65.013499999999993
 20
131.70699999999999
 30
0.0
 11
65.013499999999993
 21
131.30199999999999
 31
0.0
  0
LINE
  5
252
  8
0
 62
     7
 10
65.013499999999993
 20
131.30199999999999
 30
0.0
 11
65.013499999999993
 21
130.964
 31
0.0
  0
LINE
  5
253
  8
0
 62
     7
 10
65.013499999999993
 20
130.964
 30
0.0
 11
65.013499999999993
 21
130.69
 31
0.0
  0
ARC
  5
254
  8
0
 62
     7
 10
70.454818000000003
 20
130.489183
 30
0.0
 40
6.829917
 50
172.15468300000001
 51
173.99953500000001
  0
ARC
  5
255
  8
0
 62
     7
 10
65.383027999999996
 20
131.170604
 30
0.0
 40
1.7126709999999989
 50
165.12139300000001
 51
171.577584
  0
ARC
  5
256
  8
0
 62
     7
 10
65.167535999999998
 20
131.20786100000001
 30
0.0
 40
1.4949619999999999
 50
148.53045
 51
164.38074499999999
  0
ARC
  5
257
  8
0
 62
     7
 10
65.237168000000011
 20
131.207134
 30
0.0
 40
1.5551429999999991
 50
134.63005000000001
 51
149.84696500000001
  0
ARC
  5
258
  8
0
 62
     7
 10
64.814071999999996
 20
131.59177299999999
 30
0.0
 40
0.98466
 50
121.918673
 51
132.83291399999999
  0
ARC
  5
259
  8
0
 62
     7
 10
51.221294999999991
 20
128.72521699999999
 30
0.0
 40
5.2234189999999989
 50
50.92008100000001
 51
51.834268999999999
  0
ARC
  5
25A
  8
0
 62
     7
 10
56.409172999999988
 20
135.13491200000001
 30
0.0
 40
3.022707
 50
231.17626899999999
 51
235.30168
  0
ARC
  5
25B
  8
0
 62
     7
 10
55.850445999999991
 20
134.375913
 30
0.0
 40
2.0808080000000002
 50
236.05339500000011
 51
239.446583
  0
ARC
  5
25C
  8
0
 62
     7
 10
57.525205999999997
 20
137.22505100000001
 30
0.0
 40
5.3857129999999991
 50
239.5115430000001
 51
242.971768
  0
LINE
  5
25D
  8
0
 62
     7
 10
54.3581
 20
133.053
 30
0.0
 11
54.3581
 21
135.64599999999999
 31
0.0
  0
LINE
  5
25E
  8
0
 62
     7
 10
54.3581
 20
133.053
 30
0.0
 11
54.3581
 21
133.03299999999999
 31
0.0
  0
ARC
  5
25F
  8
0
 62
     7
 10
54.624157999999987
 20
133.03259299999999
 30
0.0
 40
0.266115
 50
204.24785199999999
 51
228.35533199999989
  0
ARC
  5
260
  8
0
 62
     7
 10
54.624597999999999
 20
133.03256500000001
 30
0.0
 40
0.266504
 50
180.01085399999999
 51
204.203383
  0
LINE
  5
261
  8
0
 62
     7
 10
64.846800000000002
 20
136.41200000000001
 30
0.0
 11
54.524500000000003
 21
136.41200000000001
 31
0.0
  0
ARC
  5
262
  8
0
 62
     7
 10
55.852111000000001
 20
136.08514199999999
 30
0.0
 40
0.172614
 50
271.98762099999999
 51
357.05548800000003
  0
ARC
  5
263
  8
0
 62
     7
 10
54.531401000000002
 20
136.58546799999999
 30
0.0
 40
0.173431
 50
182.16448299999999
 51
267.7170450000001
  0
LINE
  5
264
  8
0
 62
     7
 10
54.62469999999999
 20
135.91300000000001
 30
0.0
 11
55.190800000000003
 21
135.91300000000001
 31
0.0
  0
ARC
  5
265
  8
0
 62
     7
 10
54.634914999999992
 20
135.635797
 30
0.0
 40
0.277022
 50
92.103778000000005
 51
177.82211899999999
  0
ARC
  5
266
  8
0
 62
     7
 10
69.442693000000006
 20
135.83151599999999
 30
0.0
 40
13.420429
 50
177.520205
 51
178.954973
  0
ARC
  5
267
  8
0
 62
     7
 10
56.222037999999998
 20
128.84908300000001
 30
0.0
 40
0.214628
 50
131.57220599999999
 51
142.74874299999999
  0
ARC
  5
268
  8
0
 62
     7
 10
58.321803000000003
 20
126.92937000000001
 30
0.0
 40
3.0588609999999998
 50
137.928066
 51
139.62712200000001
  0
LINE
  5
269
  8
0
 62
     7
 10
55.991399999999999
 20
128.911
 30
0.0
 11
55.991399999999999
 21
128.815
 31
0.0
  0
LINE
  5
26A
  8
0
 62
     7
 10
55.991399999999999
 20
128.815
 30
0.0
 11
56.074100000000001
 21
128.72
 31
0.0
  0
LINE
  5
26B
  8
0
 62
     7
 10
56.074100000000001
 20
128.72
 30
0.0
 11
56.237400000000001
 21
128.62799999999999
 31
0.0
  0
LINE
  5
26C
  8
0
 62
     7
 10
56.237400000000001
 20
128.62799999999999
 30
0.0
 11
56.321800000000003
 21
128.59399999999999
 31
0.0
  0
ARC
  5
26D
  8
0
 62
     7
 10
54.729987000000001
 20
128.82702399999999
 30
0.0
 40
1.101051
 50
6.3251549999999996
 51
9.6748100000000008
  0
ARC
  5
26E
  8
0
 62
     7
 10
56.048765000000003
 20
128.99597600000001
 30
0.0
 40
0.229432
 50
191.986558
 51
225.661089
  0
ARC
  5
26F
  8
0
 62
     7
 10
56.338431999999997
 20
129.22232500000001
 30
0.0
 40
0.5957850000000001
 50
220.94547399999999
 51
234.29628500000001
  0
ARC
  5
270
  8
0
 62
     7
 10
56.443792000000002
 20
129.350424
 30
0.0
 40
0.761373
 50
233.483564
 51
248.636437
  0
ARC
  5
271
  8
0
 62
     7
 10
56.862384999999989
 20
130.37949499999999
 30
0.0
 40
1.8722799999999991
 50
248.17875699999999
 51
251.51465300000001
  0
LINE
  5
272
  8
0
 62
     7
 10
55.709299999999999
 20
131.203
 30
0.0
 11
55.70689999999999
 21
131.226
 31
0.0
  0
LINE
  5
273
  8
0
 62
     7
 10
54.3581
 20
130.69
 30
0.0
 11
54.3581
 21
130.61500000000001
 31
0.0
  0
LINE
  5
274
  8
0
 62
     7
 10
54.3581
 20
130.08600000000001
 30
0.0
 11
54.358800000000002
 21
130.09899999999999
 31
0.0
  0
LINE
  5
275
  8
0
 62
     7
 10
54.358800000000002
 20
130.09899999999999
 30
0.0
 11
54.359099999999991
 21
130.13499999999999
 31
0.0
  0
ARC
  5
276
  8
0
 62
     7
 10
52.918156000000003
 20
130.19866399999989
 30
0.0
 40
1.4423840000000001
 50
357.46335499999998
 51
359.59904399999999
  0
ARC
  5
277
  8
0
 62
     7
 10
57.064335999999997
 20
130.190212
 30
0.0
 40
2.7038310000000001
 50
178.70599000000001
 51
180.03481300000001
  0
ARC
  5
278
  8
0
 62
     7
 10
54.407426000000001
 20
130.41900200000001
 30
0.0
 40
0.049333
 50
180.346011
 51
189.59350900000001
  0
ARC
  5
279
  8
0
 62
     7
 10
54.864105000000002
 20
130.40982399999999
 30
0.0
 40
0.505324
 50
179.89155099999999
 51
182.11862099999999
  0
LINE
  5
27A
  8
0
 62
     7
 10
54.359099999999991
 20
130.39099999999999
 30
0.0
 11
54.3598
 21
130.36000000000001
 31
0.0
  0
LINE
  5
27B
  8
0
 62
     7
 10
54.3598
 20
130.36000000000001
 30
0.0
 11
54.360500000000002
 21
130.321
 31
0.0
  0
LINE
  5
27C
  8
0
 62
     7
 10
54.360500000000002
 20
130.321
 30
0.0
 11
54.36119999999999
 21
130.27699999999999
 31
0.0
  0
LINE
  5
27D
  8
0
 62
     7
 10
54.36119999999999
 20
130.27699999999999
 30
0.0
 11
54.36119999999999
 21
130.251
 31
0.0
  0
LINE
  5
27E
  8
0
 62
     7
 10
54.3581
 20
130.42099999999999
 30
0.0
 11
54.358800000000002
 21
130.083
 31
0.0
  0
LINE
  5
27F
  8
0
 62
     7
 10
55.697200000000002
 20
131.226
 30
0.0
 11
55.815399999999997
 21
129.012
 31
0.0
  0
LINE
  5
280
  8
0
 62
     7
 10
54.3581
 20
130.61500000000001
 30
0.0
 11
54.3581
 21
130.41900000000001
 31
0.0
  0
LINE
  5
281
  8
0
 62
     7
 10
54.358800000000002
 20
130.61500000000001
 30
0.0
 11
54.360500000000002
 21
130.39099999999999
 31
0.0
  0
LINE
  5
282
  8
0
 62
     7
 10
56.268799999999992
 20
128.76499999999999
 30
0.0
 11
56.246000000000002
 21
128.79400000000001
 31
0.0
  0
LINE
  5
283
  8
0
 62
     7
 10
56.246000000000002
 20
128.79400000000001
 30
0.0
 11
56.225299999999997
 21
128.886
 31
0.0
  0
LINE
  5
284
  8
0
 62
     7
 10
56.225299999999997
 20
128.886
 30
0.0
 11
56.266999999999989
 21
128.958
 31
0.0
  0
LINE
  5
285
  8
0
 62
     7
 10
54.3581
 20
133.03299999999999
 30
0.0
 11
54.3581
 21
132.90600000000001
 31
0.0
  0
LINE
  5
286
  8
0
 62
     7
 10
54.3581
 20
132.90600000000001
 30
0.0
 11
54.3581
 21
132.715
 31
0.0
  0
LINE
  5
287
  8
0
 62
     7
 10
54.3581
 20
132.715
 30
0.0
 11
54.3581
 21
132.149
 31
0.0
  0
LINE
  5
288
  8
0
 62
     7
 10
54.3581
 20
132.149
 30
0.0
 11
54.3581
 21
131.70699999999999
 31
0.0
  0
LINE
  5
289
  8
0
 62
     7
 10
54.3581
 20
131.70699999999999
 30
0.0
 11
54.3581
 21
131.30199999999999
 31
0.0
  0
LINE
  5
28A
  8
0
 62
     7
 10
54.3581
 20
131.30199999999999
 30
0.0
 11
54.3581
 21
130.964
 31
0.0
  0
LINE
  5
28B
  8
0
 62
     7
 10
54.3581
 20
130.964
 30
0.0
 11
54.3581
 21
130.69
 31
0.0
  0
ARC
  5
28C
  8
0
 62
     7
 10
49.178277000000001
 20
130.51673299999999
 30
0.0
 40
6.5669659999999999
 50
5.9999029999999998
 51
7.8907109999999996
  0
ARC
  5
28D
  8
0
 62
     7
 10
53.961505000000002
 20
131.163535
 30
0.0
 40
1.7403040000000001
 50
8.4169199999999993
 51
14.877706999999999
  0
ARC
  5
28E
  8
0
 62
     7
 10
54.219628
 20
131.214797
 30
0.0
 40
1.4777670000000001
 50
15.526415
 51
31.562351
  0
ARC
  5
28F
  8
0
 62
     7
 10
54.165806999999987
 20
131.23058800000001
 30
0.0
 40
1.5159329999999991
 50
29.988855999999998
 51
45.609838000000003
  0
ARC
  5
290
  8
0
 62
     7
 10
54.550136999999999
 20
131.58461
 30
0.0
 40
0.994462
 50
47.164863999999987
 51
57.955362999999991
  0
ARC
  5
291
  8
0
 62
     7
 10
64.380649000000005
 20
-7277.9919999999993
 30
0.0
 40
7410.8299999999999
 50
90.036288999999996
 51
90.076775000000012
  0
LINE
  5
292
  8
0
 62
     7
 10
55.815399999999997
 20
129.012
 30
0.0
 11
55.817799999999998
 21
129.04300000000001
 31
0.0
  0
LINE
  5
293
  8
0
 62
     7
 10
55.817799999999998
 20
129.04300000000001
 30
0.0
 11
55.879100000000001
 21
129.14099999999999
 31
0.0
  0
LINE
  5
294
  8
0
 62
     7
 10
55.879100000000001
 20
129.14099999999999
 30
0.0
 11
56.022100000000002
 21
129.23500000000001
 31
0.0
  0
LINE
  5
295
  8
0
 62
     7
 10
56.022100000000002
 20
129.23500000000001
 30
0.0
 11
56.243600000000001
 21
129.32599999999999
 31
0.0
  0
LINE
  5
296
  8
0
 62
     7
 10
56.243600000000001
 20
129.32599999999999
 30
0.0
 11
56.537799999999997
 21
129.40899999999999
 31
0.0
  0
LINE
  5
297
  8
0
 62
     7
 10
56.537799999999997
 20
129.40899999999999
 30
0.0
 11
56.898899999999998
 21
129.48500000000001
 31
0.0
  0
LINE
  5
298
  8
0
 62
     7
 10
56.898899999999998
 20
129.48500000000001
 30
0.0
 11
57.31989999999999
 21
129.55000000000001
 31
0.0
  0
LINE
  5
299
  8
0
 62
     7
 10
57.31989999999999
 20
129.55000000000001
 30
0.0
 11
57.791200000000003
 21
129.60400000000001
 31
0.0
  0
LINE
  5
29A
  8
0
 62
     7
 10
57.791200000000003
 20
129.60400000000001
 30
0.0
 11
58.303100000000001
 21
129.64599999999999
 31
0.0
  0
LINE
  5
29B
  8
0
 62
     7
 10
58.303100000000001
 20
129.64599999999999
 30
0.0
 11
58.843999999999987
 21
129.67400000000001
 31
0.0
  0
LINE
  5
29C
  8
0
 62
     7
 10
58.843999999999987
 20
129.67400000000001
 30
0.0
 11
59.403100000000002
 21
129.68899999999999
 31
0.0
  0
LINE
  5
29D
  8
0
 62
     7
 10
59.403100000000002
 20
129.68899999999999
 30
0.0
 11
59.968499999999999
 21
129.68899999999999
 31
0.0
  0
LINE
  5
29E
  8
0
 62
     7
 10
59.968499999999999
 20
129.68899999999999
 30
0.0
 11
60.5276
 21
129.67400000000001
 31
0.0
  0
LINE
  5
29F
  8
0
 62
     7
 10
60.5276
 20
129.67400000000001
 30
0.0
 11
61.068100000000001
 21
129.64599999999999
 31
0.0
  0
LINE
  5
2A0
  8
0
 62
     7
 10
61.068100000000001
 20
129.64599999999999
 30
0.0
 11
61.580100000000002
 21
129.60400000000001
 31
0.0
  0
LINE
  5
2A1
  8
0
 62
     7
 10
61.580100000000002
 20
129.60400000000001
 30
0.0
 11
62.051000000000002
 21
129.55000000000001
 31
0.0
  0
LINE
  5
2A2
  8
0
 62
     7
 10
62.051000000000002
 20
129.55000000000001
 30
0.0
 11
62.472000000000001
 21
129.48500000000001
 31
0.0
  0
LINE
  5
2A3
  8
0
 62
     7
 10
62.472000000000001
 20
129.48500000000001
 30
0.0
 11
62.833799999999997
 21
129.40899999999999
 31
0.0
  0
LINE
  5
2A4
  8
0
 62
     7
 10
62.833799999999997
 20
129.40899999999999
 30
0.0
 11
63.128
 21
129.32599999999999
 31
0.0
  0
LINE
  5
2A5
  8
0
 62
     7
 10
63.128
 20
129.32599999999999
 30
0.0
 11
63.349200000000003
 21
129.23500000000001
 31
0.0
  0
LINE
  5
2A6
  8
0
 62
     7
 10
63.349200000000003
 20
129.23500000000001
 30
0.0
 11
63.492100000000001
 21
129.14099999999999
 31
0.0
  0
LINE
  5
2A7
  8
0
 62
     7
 10
63.492100000000001
 20
129.14099999999999
 30
0.0
 11
63.553800000000003
 21
129.04300000000001
 31
0.0
  0
LINE
  5
2A8
  8
0
 62
     7
 10
63.553800000000003
 20
129.04300000000001
 30
0.0
 11
63.556199999999997
 21
129.012
 31
0.0
  0
LINE
  5
2A9
  8
0
 62
     7
 10
56.266999999999989
 20
128.958
 30
0.0
 11
56.286299999999997
 21
128.977
 31
0.0
  0
LINE
  5
2AA
  8
0
 62
     7
 10
56.286299999999997
 20
128.977
 30
0.0
 11
56.426900000000003
 21
129.066
 31
0.0
  0
LINE
  5
2AB
  8
0
 62
     7
 10
56.426900000000003
 20
129.066
 30
0.0
 11
56.643900000000002
 21
129.15000000000001
 31
0.0
  0
LINE
  5
2AC
  8
0
 62
     7
 10
56.643900000000002
 20
129.15000000000001
 30
0.0
 11
56.931600000000003
 21
129.227
 31
0.0
  0
LINE
  5
2AD
  8
0
 62
     7
 10
56.931600000000003
 20
129.227
 30
0.0
 11
57.283999999999999
 21
129.29599999999999
 31
0.0
  0
LINE
  5
2AE
  8
0
 62
     7
 10
57.283999999999999
 20
129.29599999999999
 30
0.0
 11
57.6937
 21
129.35499999999999
 31
0.0
  0
LINE
  5
2AF
  8
0
 62
     7
 10
57.6937
 20
129.35499999999999
 30
0.0
 11
58.149399999999993
 21
129.40199999999999
 31
0.0
  0
LINE
  5
2B0
  8
0
 62
     7
 10
58.149399999999993
 20
129.40199999999999
 30
0.0
 11
58.640700000000002
 21
129.43600000000001
 31
0.0
  0
LINE
  5
2B1
  8
0
 62
     7
 10
58.640700000000002
 20
129.43600000000001
 30
0.0
 11
59.156799999999997
 21
129.45699999999999
 31
0.0
  0
LINE
  5
2B2
  8
0
 62
     7
 10
59.156799999999997
 20
129.45699999999999
 30
0.0
 11
59.685600000000001
 21
129.464
 31
0.0
  0
LINE
  5
2B3
  8
0
 62
     7
 10
59.685600000000001
 20
129.506
 30
0.0
 11
59.133400000000002
 21
129.499
 31
0.0
  0
LINE
  5
2B4
  8
0
 62
     7
 10
59.133400000000002
 20
129.499
 30
0.0
 11
58.593899999999998
 21
129.477
 31
0.0
  0
LINE
  5
2B5
  8
0
 62
     7
 10
58.593899999999998
 20
129.477
 30
0.0
 11
58.078099999999992
 21
129.44300000000001
 31
0.0
  0
LINE
  5
2B6
  8
0
 62
     7
 10
58.078099999999992
 20
129.44300000000001
 30
0.0
 11
57.5989
 21
129.39400000000001
 31
0.0
  0
LINE
  5
2B7
  8
0
 62
     7
 10
57.5989
 20
129.39400000000001
 30
0.0
 11
57.166200000000003
 21
129.33500000000001
 31
0.0
  0
LINE
  5
2B8
  8
0
 62
     7
 10
57.166200000000003
 20
129.33500000000001
 30
0.0
 11
56.789999999999999
 21
129.26400000000001
 31
0.0
  0
LINE
  5
2B9
  8
0
 62
     7
 10
56.789999999999999
 20
129.26400000000001
 30
0.0
 11
56.477499999999999
 21
129.185
 31
0.0
  0
LINE
  5
2BA
  8
0
 62
     7
 10
56.477499999999999
 20
129.185
 30
0.0
 11
56.237400000000001
 21
129.09800000000001
 31
0.0
  0
LINE
  5
2BB
  8
0
 62
     7
 10
56.237400000000001
 20
129.09800000000001
 30
0.0
 11
56.079599999999999
 21
129.00999999999999
 31
0.0
  0
LINE
  5
2BC
  8
0
 62
     7
 10
63.071800000000003
 20
128.73699999999999
 30
0.0
 11
63.024999999999999
 21
128.703
 31
0.0
  0
LINE
  5
2BD
  8
0
 62
     7
 10
63.024999999999999
 20
128.703
 30
0.0
 11
62.845799999999997
 21
128.61699999999999
 31
0.0
  0
LINE
  5
2BE
  8
0
 62
     7
 10
62.845799999999997
 20
128.61699999999999
 30
0.0
 11
62.592599999999997
 21
128.536
 31
0.0
  0
LINE
  5
2BF
  8
0
 62
     7
 10
62.592599999999997
 20
128.536
 30
0.0
 11
62.2712
 21
128.46299999999999
 31
0.0
  0
LINE
  5
2C0
  8
0
 62
     7
 10
62.2712
 20
128.46299999999999
 30
0.0
 11
61.88880000000001
 21
128.399
 31
0.0
  0
LINE
  5
2C1
  8
0
 62
     7
 10
61.88880000000001
 20
128.399
 30
0.0
 11
61.455399999999997
 21
128.346
 31
0.0
  0
LINE
  5
2C2
  8
0
 62
     7
 10
61.455399999999997
 20
128.346
 30
0.0
 11
60.9803
 21
128.30500000000001
 31
0.0
  0
LINE
  5
2C3
  8
0
 62
     7
 10
60.9803
 20
128.30500000000001
 30
0.0
 11
60.474899999999991
 21
128.27699999999999
 31
0.0
  0
LINE
  5
2C4
  8
0
 62
     7
 10
60.474899999999991
 20
128.27699999999999
 30
0.0
 11
59.9512
 21
128.26300000000001
 31
0.0
  0
LINE
  5
2C5
  8
0
 62
     7
 10
59.9512
 20
128.26300000000001
 30
0.0
 11
59.420699999999997
 21
128.26300000000001
 31
0.0
  0
LINE
  5
2C6
  8
0
 62
     7
 10
59.420699999999997
 20
128.26300000000001
 30
0.0
 11
58.896299999999997
 21
128.27699999999999
 31
0.0
  0
LINE
  5
2C7
  8
0
 62
     7
 10
58.896299999999997
 20
128.27699999999999
 30
0.0
 11
58.391300000000001
 21
128.30500000000001
 31
0.0
  0
LINE
  5
2C8
  8
0
 62
     7
 10
58.391300000000001
 20
128.30500000000001
 30
0.0
 11
57.915900000000001
 21
128.346
 31
0.0
  0
LINE
  5
2C9
  8
0
 62
     7
 10
57.915900000000001
 20
128.346
 30
0.0
 11
57.482500000000002
 21
128.399
 31
0.0
  0
LINE
  5
2CA
  8
0
 62
     7
 10
57.482500000000002
 20
128.399
 30
0.0
 11
57.100099999999998
 21
128.46299999999999
 31
0.0
  0
LINE
  5
2CB
  8
0
 62
     7
 10
57.100099999999998
 20
128.46299999999999
 30
0.0
 11
56.779000000000003
 21
128.536
 31
0.0
  0
LINE
  5
2CC
  8
0
 62
     7
 10
56.779000000000003
 20
128.536
 30
0.0
 11
56.525799999999997
 21
128.61699999999999
 31
0.0
  0
LINE
  5
2CD
  8
0
 62
     7
 10
56.525799999999997
 20
128.61699999999999
 30
0.0
 11
56.346600000000002
 21
128.703
 31
0.0
  0
LINE
  5
2CE
  8
0
 62
     7
 10
56.346600000000002
 20
128.703
 30
0.0
 11
56.268799999999992
 21
128.76499999999999
 31
0.0
  0
LINE
  5
2CF
  8
0
 62
     7
 10
56.321800000000003
 20
128.59399999999999
 30
0.0
 11
56.477499999999999
 21
128.541
 31
0.0
  0
LINE
  5
2D0
  8
0
 62
     7
 10
56.477499999999999
 20
128.541
 30
0.0
 11
56.789999999999999
 21
128.46199999999999
 31
0.0
  0
LINE
  5
2D1
  8
0
 62
     7
 10
56.789999999999999
 20
128.46199999999999
 30
0.0
 11
57.166200000000003
 21
128.39099999999999
 31
0.0
  0
LINE
  5
2D2
  8
0
 62
     7
 10
57.166200000000003
 20
128.39099999999999
 30
0.0
 11
57.5989
 21
128.33099999999999
 31
0.0
  0
LINE
  5
2D3
  8
0
 62
     7
 10
57.5989
 20
128.33099999999999
 30
0.0
 11
58.078099999999992
 21
128.28299999999999
 31
0.0
  0
LINE
  5
2D4
  8
0
 62
     7
 10
58.078099999999992
 20
128.28299999999999
 30
0.0
 11
58.593899999999998
 21
128.24799999999999
 31
0.0
  0
LINE
  5
2D5
  8
0
 62
     7
 10
58.593899999999998
 20
128.24799999999999
 30
0.0
 11
59.133400000000002
 21
128.227
 31
0.0
  0
LINE
  5
2D6
  8
0
 62
     7
 10
59.133400000000002
 20
128.227
 30
0.0
 11
59.685600000000001
 21
128.22
 31
0.0
  0
LINE
  5
2D7
  8
0
 62
     7
 10
59.685600000000001
 20
128.22
 30
0.0
 11
60.238199999999999
 21
128.227
 31
0.0
  0
LINE
  5
2D8
  8
0
 62
     7
 10
60.238199999999999
 20
128.227
 30
0.0
 11
60.77770000000001
 21
128.24799999999999
 31
0.0
  0
LINE
  5
2D9
  8
0
 62
     7
 10
60.77770000000001
 20
128.24799999999999
 30
0.0
 11
61.293100000000003
 21
128.28299999999999
 31
0.0
  0
LINE
  5
2DA
  8
0
 62
     7
 10
61.293100000000003
 20
128.28299999999999
 30
0.0
 11
61.772300000000001
 21
128.33099999999999
 31
0.0
  0
LINE
  5
2DB
  8
0
 62
     7
 10
61.772300000000001
 20
128.33099999999999
 30
0.0
 11
62.2057
 21
128.39099999999999
 31
0.0
  0
LINE
  5
2DC
  8
0
 62
     7
 10
62.2057
 20
128.39099999999999
 30
0.0
 11
62.581600000000002
 21
128.46199999999999
 31
0.0
  0
LINE
  5
2DD
  8
0
 62
     7
 10
62.581600000000002
 20
128.46199999999999
 30
0.0
 11
62.894100000000002
 21
128.541
 31
0.0
  0
LINE
  5
2DE
  8
0
 62
     7
 10
62.894100000000002
 20
128.541
 30
0.0
 11
63.133800000000001
 21
128.62799999999999
 31
0.0
  0
LINE
  5
2DF
  8
0
 62
     7
 10
63.133800000000001
 20
128.62799999999999
 30
0.0
 11
63.2089
 21
128.66399999999999
 31
0.0
  0
LINE
  5
2E0
  8
0
 62
     7
 10
55.190800000000003
 20
135.91300000000001
 30
0.0
 11
64.180800000000005
 21
135.91300000000001
 31
0.0
  0
LINE
  5
2E1
  8
0
 62
     7
 10
56.8934
 20
149.73099999999999
 30
0.0
 11
56.8934
 21
136.41200000000001
 31
0.0
  0
LINE
  5
2E2
  8
0
 62
     7
 10
62.477899999999998
 20
149.73099999999999
 30
0.0
 11
62.477899999999998
 21
136.41200000000001
 31
0.0
  0
LINE
  5
2E3
  8
0
 62
     7
 10
54.3581
 20
149.465
 30
0.0
 11
54.3581
 21
136.57900000000001
 31
0.0
  0
ARC
  5
2E4
  8
0
 62
     7
 10
67.337204
 20
96.555932999999996
 30
0.0
 40
0.173094
 50
2.1751819999999991
 51
87.824808000000004
  0
LINE
  5
2E5
  8
0
 62
     7
 10
59.685600000000001
 20
95.063500000000005
 30
0.0
 11
67.343800000000002
 21
95.063500000000005
 31
0.0
  0
LINE
  5
2E6
  8
0
 62
     7
 10
67.343800000000002
 20
95.063500000000005
 30
0.0
 11
67.343800000000002
 21
95.730500000000006
 31
0.0
  0
LINE
  5
2E7
  8
0
 62
     7
 10
67.510199999999998
 20
95.730500000000006
 30
0.0
 11
67.510199999999998
 21
96.5625
 31
0.0
  0
LINE
  5
2E8
  8
0
 62
     7
 10
52.027799999999999
 20
95.730500000000006
 30
0.0
 11
52.027799999999999
 21
95.063500000000005
 31
0.0
  0
LINE
  5
2E9
  8
0
 62
     7
 10
51.861400000000003
 20
96.5625
 30
0.0
 11
51.861400000000003
 21
95.730500000000006
 31
0.0
  0
ARC
  5
2EA
  8
0
 62
     7
 10
52.033978999999988
 20
96.556340000000006
 30
0.0
 40
0.172672
 50
92.045335000000009
 51
177.95463599999999
  0
LINE
  5
2EB
  8
0
 62
     7
 10
52.027799999999999
 20
95.063500000000005
 30
0.0
 11
59.685600000000001
 21
95.063500000000005
 31
0.0
  0
LINE
  5
2EC
  8
0
 62
     7
 10
67.510199999999998
 20
95.730500000000006
 30
0.0
 11
51.861400000000003
 21
95.730500000000006
 31
0.0
  0
LINE
  5
2ED
  8
0
 62
     7
 10
52.027799999999999
 20
96.728899999999996
 30
0.0
 11
67.343800000000002
 21
96.728899999999996
 31
0.0
  0
LINE
  5
2EE
  8
0
 62
     7
 10
65.013499999999993
 20
96.728899999999996
 30
0.0
 11
54.3581
 21
96.728899999999996
 31
0.0
  0
LINE
  5
2EF
  8
0
 62
     7
 10
63.015300000000003
 20
77.730099999999993
 30
0.0
 11
63.181699999999999
 21
77.896900000000002
 31
0.0
  0
LINE
  5
2F0
  8
0
 62
     7
 10
56.1892
 20
77.896900000000002
 30
0.0
 11
56.35629999999999
 21
77.730099999999993
 31
0.0
  0
LINE
  5
2F1
  8
0
 62
     7
 10
56.1892
 20
77.896900000000002
 30
0.0
 11
63.181699999999999
 21
77.896900000000002
 31
0.0
  0
LINE
  5
2F2
  8
0
 62
     7
 10
63.015300000000003
 20
77.730099999999993
 30
0.0
 11
56.35629999999999
 21
77.730099999999993
 31
0.0
  0
LINE
  5
2F3
  8
0
 62
     7
 10
56.35629999999999
 20
77.730099999999993
 30
0.0
 11
56.35629999999999
 21
84.157300000000006
 31
0.0
  0
LINE
  5
2F4
  8
0
 62
     7
 10
63.015300000000003
 20
77.730099999999993
 30
0.0
 11
63.015300000000003
 21
84.157300000000006
 31
0.0
  0
LINE
  5
2F5
  8
0
 62
     7
 10
63.181699999999999
 20
88.819299999999998
 30
0.0
 11
63.181699999999999
 21
94.396600000000007
 31
0.0
  0
LINE
  5
2F6
  8
0
 62
     7
 10
56.1892
 20
94.396600000000007
 30
0.0
 11
56.1892
 21
88.819299999999998
 31
0.0
  0
LINE
  5
2F7
  8
0
 62
     7
 10
63.181699999999999
 20
77.896900000000002
 30
0.0
 11
63.181699999999999
 21
84.157300000000006
 31
0.0
  0
LINE
  5
2F8
  8
0
 62
     7
 10
65.013499999999993
 20
96.728899999999996
 30
0.0
 11
65.013499999999993
 21
130.08600000000001
 31
0.0
  0
LINE
  5
2F9
  8
0
 62
     7
 10
54.3581
 20
130.08600000000001
 30
0.0
 11
54.3581
 21
96.728899999999996
 31
0.0
  0
LINE
  5
2FA
  8
_________2
 62
     7
 10
205.30099999999999
 20
127.411
 30
0.0
 11
183.55000000000001
 21
127.411
 31
0.0
  0
LINE
  5
2FB
  8
_________2
 62
     7
 10
100.3
 20
-4.0910799999999998
 30
0.0
 11
100.3
 21
-21.071400000000001
 31
0.0
  0
LINE
  5
2FC
  8
_________2
 62
     7
 10
100.3
 20
275.93000000000001
 30
0.0
 11
100.3
 21
258.911
 31
0.0
  0
LINE
  5
2FD
  8
_________2
 62
     7
 10
17.049499999999998
 20
127.411
 30
0.0
 11
-4.70052
 21
127.411
 31
0.0
  0
LINE
  5
2FE
  8
_________2
 62
     7
 10
76.741
 20
29.8047
 30
0.0
 11
74.554699999999997
 21
29.8047
 31
0.0
  0
LINE
  5
2FF
  8
_________2
 62
     7
 10
77.233699999999999
 20
29.8047
 30
0.0
 11
76.981499999999997
 21
29.8047
 31
0.0
  0
LINE
  5
300
  8
_________2
 62
     7
 10
77.726299999999995
 20
29.8047
 30
0.0
 11
80.651200000000003
 21
29.8047
 31
0.0
  0
LINE
  5
301
  8
_________2
 62
     7
 10
77.233699999999999
 20
29.8047
 30
0.0
 11
77.485500000000002
 21
29.8047
 31
0.0
  0
LINE
  5
302
  8
_________2
 62
     7
 10
70.837100000000007
 20
29.8047
 30
0.0
 11
68.650499999999994
 21
29.8047
 31
0.0
  0
LINE
  5
303
  8
_________2
 62
     7
 10
71.329400000000007
 20
29.8047
 30
0.0
 11
71.077600000000004
 21
29.8047
 31
0.0
  0
LINE
  5
304
  8
_________2
 62
     7
 10
71.329400000000007
 20
30.2974
 30
0.0
 11
71.329400000000007
 21
32.484400000000001
 31
0.0
  0
LINE
  5
305
  8
_________2
 62
     7
 10
71.329400000000007
 20
29.8047
 30
0.0
 11
71.329400000000007
 21
30.056899999999999
 31
0.0
  0
LINE
  5
306
  8
_________2
 62
     7
 10
71.822100000000006
 20
29.8047
 30
0.0
 11
74.009
 21
29.8047
 31
0.0
  0
LINE
  5
307
  8
_________2
 62
     7
 10
71.329400000000007
 20
29.8047
 30
0.0
 11
71.581599999999995
 21
29.8047
 31
0.0
  0
LINE
  5
308
  8
_________2
 62
     7
 10
71.329400000000007
 20
29.312799999999999
 30
0.0
 11
71.329400000000007
 21
27.125800000000002
 31
0.0
  0
LINE
  5
309
  8
_________2
 62
     7
 10
71.329400000000007
 20
29.8047
 30
0.0
 11
71.329400000000007
 21
29.5532
 31
0.0
  0
LINE
  5
30A
  8
_________2
 62
     7
 10
75.040499999999994
 20
28.5852
 30
0.0
 11
80.218500000000006
 21
27.720400000000001
 31
0.0
  0
LINE
  5
30B
  8
_________2
 62
     7
 10
75.040499999999994
 20
31.0243
 30
0.0
 11
80.218500000000006
 21
31.889700000000001
 31
0.0
  0
LINE
  5
30C
  8
_________2
 62
     7
 10
80.218500000000006
 20
27.720400000000001
 30
0.0
 11
80.218500000000006
 21
31.889700000000001
 31
0.0
  0
LINE
  5
30D
  8
_________2
 62
     7
 10
75.040499999999994
 20
28.5852
 30
0.0
 11
75.040499999999994
 21
31.0243
 31
0.0
  0
ARC
  5
30E
  8
_________2
 62
     7
 10
71.28285600000001
 20
29.757811
 30
0.0
 40
1.2673589999999999
 50
2.122214
 51
87.893958999999995
  0
ARC
  5
30F
  8
_________2
 62
     7
 10
71.375959999999992
 20
29.758213000000001
 30
0.0
 40
1.2669559999999991
 50
92.104701000000006
 51
177.89526900000001
  0
ARC
  5
310
  8
_________2
 62
     7
 10
71.376357999999996
 20
29.851671
 30
0.0
 40
1.2673680000000001
 50
182.12203600000001
 51
267.877993
  0
ARC
  5
311
  8
_________2
 62
     7
 10
71.282531999999989
 20
29.851998999999999
 30
0.0
 40
1.267695999999999
 50
272.12015300000002
 51
357.863674
  0
ARC
  5
312
  8
_________2
 62
     7
 10
71.329430000000002
 20
29.804742999999998
 30
0.0
 40
2.0849849999999992
 50
0.00001
 51
89.999980000000008
  0
ARC
  5
313
  8
_________2
 62
     7
 10
71.329603000000006
 20
29.804915000000001
 30
0.0
 40
2.084813
 50
90.004733999999999
 51
180.00474399999999
  0
ARC
  5
314
  8
_________2
 62
     7
 10
71.409106000000008
 20
29.884775999999999
 30
0.0
 40
2.1657950000000001
 50
182.11776599999999
 51
267.89173399999999
  0
ARC
  5
315
  8
_________2
 62
     7
 10
71.249459000000002
 20
29.885429999999999
 30
0.0
 40
2.1664590000000001
 50
272.11546800000002
 51
357.86560400000002
  0
TEXT
  5
316
  8
_________2
 62
     7
 10
104.605
 20
1.6794899999999999
 30
0.0
 40
3.660169999999999
  1
図番
 41
0.5
  0
LINE
  5
317
  8
_________2
 62
     7
 10
103.55
 20
5.9087199999999989
 30
0.0
 11
183.55099999999999
 21
5.9087199999999989
 31
0.0
  0
TEXT
  5
318
  8
_________2
 62
     7
 10
104.605
 20
11.6793
 30
0.0
 40
3.660169999999999
  1
品番
 41
0.5
  0
TEXT
  5
319
  8
_________2
 62
     7
 10
104.605
 20
31.818100000000001
 30
0.0
 40
3.660169999999999
  1
名称
 41
0.5
  0
TEXT
  5
31A
  8
_________2
 62
     7
 10
91.565445833333328
 20
26.821999999999999
 30
0.0
 40
4.3256500000000004
  1
mm
 41
0.5
 72
     1
 11
93.367800000000003
 21
26.821999999999999
 31
0.0
  0
TEXT
  5
31B
  8
_________2
 62
     7
 10
85.643199999999993
 20
31.818100000000001
 30
0.0
 40
3.660169999999999
  1
単位
 41
0.5
  0
TEXT
  5
31C
  8
_________2
 62
     7
 10
85.643199999999993
 20
19.410799999999998
 30
0.0
 40
3.660169999999999
  1
尺度
 41
0.5
  0
TEXT
  5
31D
  8
_________2
 62
     7
 10
89.922426666666667
 20
13.2179
 30
0.0
 40
4.3256500000000004
  1
1 ： 3
 41
0.5
 72
     1
 11
93.959699999999998
 21
13.2179
 31
0.0
  0
TEXT
  5
31E
  8
_________2
 62
     7
 10
135.98011625000001
 20
9.1078600000000005
 30
0.0
 40
4.6583899999999989
  1
CET3550
 41
0.5
 72
     1
 11
143.55000000000001
 21
9.1078600000000005
 31
0.0
  0
TEXT
  5
31F
  8
_________2
 62
     7
 10
135.98011625000001
 20
-0.8926299999999999
 30
0.0
 40
4.6583899999999989
  1
CET3550
 41
0.5
 72
     1
 11
143.55000000000001
 21
-0.8926299999999999
 31
0.0
  0
TEXT
  5
320
  8
_________2
 62
     7
 10
24.5868
 20
0.707283
 30
0.0
 40
4.6583899999999989
  1
（JIS）
 41
0.5
  0
TEXT
  5
321
  8
_________2
 62
     7
 10
109.179
 20
24.2257
 30
0.0
 40
4.6583899999999989
  1
C1 立水栓
 41
0.5
  0
TEXT
  5
322
  8
_________2
 62
     7
 10
39.078580833333341
 20
13.603
 30
0.0
 40
4.3256500000000004
  1
早川
 41
0.5
 72
     1
 11
41.313499999999998
 21
13.603
 31
0.0
  0
TEXT
  5
323
  8
_________2
 62
     7
 10
20.504280833333329
 20
13.603
 30
0.0
 40
4.3256500000000004
  1
西田
 41
0.5
 72
     1
 11
22.7392
 21
13.603
 31
0.0
  0
TEXT
  5
324
  8
_________2
 62
     7
 10
67.785399999999996
 20
13.2179
 30
0.0
 40
4.3256500000000004
  1
15.05.08
 41
0.5
  0
TEXT
  5
325
  8
_________2
 62
     7
 10
66.593100000000007
 20
19.410799999999998
 30
0.0
 40
3.660169999999999
  1
日付
 41
0.5
  0
TEXT
  5
326
  8
_________2
 62
     7
 10
29.639399999999998
 20
19.410799999999998
 30
0.0
 40
3.660169999999999
  1
検図
 41
0.5
  0
TEXT
  5
327
  8
_________2
 62
     7
 10
18.021100000000001
 20
5.21143
 30
0.0
 40
3.660169999999999
  1
備考
 41
0.5
  0
TEXT
  5
328
  8
_________2
 62
     7
 10
18.021100000000001
 20
19.410799999999998
 30
0.0
 40
3.660169999999999
  1
製図
 41
0.5
  0
TEXT
  5
329
  8
_________2
 62
     7
 10
20.594830666666692
 20
27.936800000000002
 30
0.0
 40
5.3238799999999991
  1
セラトレーディング株式会社
 41
0.5
 72
     1
 11
41.180500000000002
 21
27.936800000000002
 31
0.0
  0
LINE
  5
32A
  8
_________2
 62
     7
 10
183.55099999999999
 20
-4.0910799999999998
 30
0.0
 11
17.049499999999998
 21
-4.0910799999999998
 31
0.0
  0
LINE
  5
32B
  8
_________2
 62
     7
 10
17.049499999999998
 20
-4.0910799999999998
 30
0.0
 11
17.049499999999998
 21
258.911
 31
0.0
  0
LINE
  5
32C
  8
_________2
 62
     7
 10
17.049499999999998
 20
258.911
 30
0.0
 11
183.55099999999999
 21
258.911
 31
0.0
  0
LINE
  5
32D
  8
_________2
 62
     7
 10
183.55099999999999
 20
258.911
 30
0.0
 11
183.55099999999999
 21
-4.0910799999999998
 31
0.0
  0
LINE
  5
32E
  8
_________2
 62
     7
 10
65.549599999999998
 20
9.4089600000000004
 30
0.0
 11
65.549599999999998
 21
35.908799999999999
 31
0.0
  0
LINE
  5
32F
  8
_________2
 62
     7
 10
84.549700000000016
 20
9.4089600000000004
 30
0.0
 11
84.549700000000016
 21
35.908799999999999
 31
0.0
  0
LINE
  5
330
  8
_________2
 62
     7
 10
103.55
 20
-4.0910799999999998
 30
0.0
 11
103.55
 21
35.908799999999999
 31
0.0
  0
LINE
  5
331
  8
_________2
 62
     7
 10
28.549299999999999
 20
9.4089600000000004
 30
0.0
 11
28.549299999999999
 21
23.409199999999998
 31
0.0
  0
LINE
  5
332
  8
_________2
 62
     7
 10
17.049499999999998
 20
9.4089600000000004
 30
0.0
 11
103.55
 21
9.4089600000000004
 31
0.0
  0
LINE
  5
333
  8
_________2
 62
     7
 10
17.049499999999998
 20
23.409199999999998
 30
0.0
 11
103.55
 21
23.409199999999998
 31
0.0
  0
LINE
  5
334
  8
_________2
 62
     7
 10
103.55
 20
15.9085
 30
0.0
 11
183.55099999999999
 21
15.9085
 31
0.0
  0
LINE
  5
335
  8
_________2
 62
     7
 10
17.049499999999998
 20
35.908799999999999
 30
0.0
 11
183.55099999999999
 21
35.908799999999999
 31
0.0
  0
ENDSEC
  0
EOF
