  0
SECTION
  2
HEADER
  9
$ACADVER
  1
AC1009
  9
$INSBASE
 10
0.0
 20
0.0
 30
0.0
  9
$EXTMIN
 10
-4.7008599999999987
 20
-21.071000000000002
 30
0.0
  9
$EXTMAX
 10
205.30099999999999
 20
275.93099999999998
 30
0.0
  9
$LIMMIN
 10
0.0
 20
0.0
  9
$LIMMAX
 10
12.0
 20
9.0
  9
$ORTHOMODE
 70
     0
  9
$REGENMODE
 70
     1
  9
$FILLMODE
 70
     1
  9
$QTEXTMODE
 70
     0
  9
$MIRRTEXT
 70
     1
  9
$DRAGMODE
 70
     2
  9
$LTSCALE
 40
1.0
  9
$OSMODE
 70
    37
  9
$ATTMODE
 70
     1
  9
$TEXTSIZE
 40
0.0
  9
$TRACEWID
 40
0.05
  9
$TEXTSTYLE
  7
STANDARD
  9
$CLAYER
  8
0
  9
$CELTYPE
  6
CONTINUOUS
  9
$CECOLOR
 62
   256
  9
$DIMSCALE
 40
1.0
  9
$DIMASZ
 40
0.18
  9
$DIMEXO
 40
0.0625
  9
$DIMDLI
 40
0.38
  9
$DIMRND
 40
0.0
  9
$DIMDLE
 40
0.0
  9
$DIMEXE
 40
0.18
  9
$DIMTP
 40
0.0
  9
$DIMTM
 40
0.0
  9
$DIMTXT
 40
0.18
  9
$DIMCEN
 40
0.09
  9
$DIMTSZ
 40
0.0
  9
$DIMTOL
 70
     0
  9
$DIMLIM
 70
     0
  9
$DIMTIH
 70
     1
  9
$DIMTOH
 70
     1
  9
$DIMSE1
 70
     0
  9
$DIMSE2
 70
     0
  9
$DIMTAD
 70
     0
  9
$DIMZIN
 70
     0
  9
$DIMBLK
  1

  9
$DIMASO
 70
     1
  9
$DIMSHO
 70
     1
  9
$DIMPOST
  1

  9
$DIMAPOST
  1

  9
$DIMALT
 70
     0
  9
$DIMALTD
 70
     2
  9
$DIMALTF
 40
25.399999999999999
  9
$DIMLFAC
 40
1.0
  9
$DIMTOFL
 70
     0
  9
$DIMTVP
 40
0.0
  9
$DIMTIX
 70
     0
  9
$DIMSOXD
 70
     0
  9
$DIMSAH
 70
     0
  9
$DIMBLK1
  1

  9
$DIMBLK2
  1

  9
$DIMSTYLE
  2
STANDARD
  9
$DIMCLRD
 70
     0
  9
$DIMCLRE
 70
     0
  9
$DIMCLRT
 70
     0
  9
$DIMTFAC
 40
1.0
  9
$DIMGAP
 40
0.09
  9
$LUNITS
 70
     2
  9
$LUPREC
 70
     4
  9
$SKETCHINC
 40
0.1
  9
$FILLETRAD
 40
0.0
  9
$AUNITS
 70
     0
  9
$AUPREC
 70
     0
  9
$MENU
  1
.
  9
$ELEVATION
 40
0.0
  9
$PELEVATION
 40
0.0
  9
$THICKNESS
 40
0.0
  9
$LIMCHECK
 70
     0
  9
$BLIPMODE
 70
     0
  9
$CHAMFERA
 40
0.0
  9
$CHAMFERB
 40
0.0
  9
$SKPOLY
 70
     0
  9
$TDCREATE
 40
2444972.375
  9
$TDUPDATE
 40
2457221.2541115279
  9
$TDINDWG
 40
0.0000272106
  9
$TDUSRTIMER
 40
0.0000272106
  9
$USRTIMER
 70
     1
  9
$ANGBASE
 50
0.0
  9
$ANGDIR
 70
     0
  9
$PDMODE
 70
     0
  9
$PDSIZE
 40
0.0
  9
$PLINEWID
 40
0.0
  9
$COORDS
 70
     1
  9
$SPLFRAME
 70
     0
  9
$SPLINETYPE
 70
     6
  9
$SPLINESEGS
 70
     8
  9
$ATTDIA
 70
     1
  9
$ATTREQ
 70
     1
  9
$HANDLING
 70
     1
  9
$HANDSEED
  5
313
  9
$SURFTAB1
 70
     6
  9
$SURFTAB2
 70
     6
  9
$SURFTYPE
 70
     6
  9
$SURFU
 70
     6
  9
$SURFV
 70
     6
  9
$UCSNAME
  2

  9
$UCSORG
 10
0.0
 20
0.0
 30
0.0
  9
$UCSXDIR
 10
1.0
 20
0.0
 30
0.0
  9
$UCSYDIR
 10
0.0
 20
1.0
 30
0.0
  9
$PUCSNAME
  2

  9
$PUCSORG
 10
0.0
 20
0.0
 30
0.0
  9
$PUCSXDIR
 10
1.0
 20
0.0
 30
0.0
  9
$PUCSYDIR
 10
0.0
 20
1.0
 30
0.0
  9
$USERI1
 70
     0
  9
$USERI2
 70
     0
  9
$USERI3
 70
     0
  9
$USERI4
 70
     0
  9
$USERI5
 70
     0
  9
$USERR1
 40
0.0
  9
$USERR2
 40
0.0
  9
$USERR3
 40
0.0
  9
$USERR4
 40
0.0
  9
$USERR5
 40
0.0
  9
$WORLDVIEW
 70
     1
  9
$SHADEDGE
 70
     3
  9
$SHADEDIF
 70
    70
  9
$TILEMODE
 70
     1
  9
$MAXACTVP
 70
    48
  9
$PLIMCHECK
 70
     0
  9
$PEXTMIN
 10
1.0000000000000000E+020
 20
1.0000000000000000E+020
 30
1.0000000000000000E+020
  9
$PEXTMAX
 10
-1.0000000000000000E+020
 20
-1.0000000000000000E+020
 30
-1.0000000000000000E+020
  9
$PLIMMIN
 10
0.0
 20
0.0
  9
$PLIMMAX
 10
12.0
 20
9.0
  9
$UNITMODE
 70
     0
  9
$VISRETAIN
 70
     1
  9
$PLINEGEN
 70
     0
  9
$PSLTSCALE
 70
     1
  0
ENDSEC
  0
SECTION
  2
TABLES
  0
TABLE
  2
VPORT
 70
     1
  0
VPORT
  2
*ACTIVE
 70
     0
 10
0.0
 20
0.0
 11
1.0
 21
1.0
 12
155.35644193003401
 22
127.42999999999989
 13
0.0
 23
0.0
 14
1.0
 24
1.0
 15
0.0
 25
0.0
 16
0.0
 26
0.0
 36
1.0
 17
0.0
 27
0.0
 37
0.0
 40
283.65115399946512
 41
2.1001926782273599
 42
50.0
 43
0.0
 44
0.0
 50
0.0
 51
0.0
 71
     0
 72
   100
 73
     1
 74
     1
 75
     0
 76
     0
 77
     0
 78
     0
  0
ENDTAB
  0
TABLE
  2
LTYPE
 70
     3
  0
LTYPE
  2
CONTINUOUS
 70
     0
  3
Solid line
 72
    65
 73
     0
 40
0.0
  0
LTYPE
  2
AIGENLINE001
 70
     0
  3
generate AI->DXF Converter
 72
    65
 73
     4
 40
5.3799970000000004
 49
3.5278
 49
-0.776115
 49
0.776115
 49
-0.299967
  0
LTYPE
  2
AIGENLINE002
 70
     0
  3
generate AI->DXF Converter
 72
    65
 73
     4
 40
5.8561449999999988
 49
3.5278
 49
-0.776115
 49
0.776115
 49
-0.776115
  0
ENDTAB
  0
TABLE
  2
LAYER
 70
     2
  0
LAYER
  2
0
 70
     0
 62
     7
  6
CONTINUOUS
  0
LAYER
  2
_________2
 70
     0
 62
     7
  6
CONTINUOUS
  0
ENDTAB
  0
TABLE
  2
STYLE
 70
     1
  0
STYLE
  2
STANDARD
 70
     0
 40
0.0
 41
0.0
 50
0.0
 71
     0
 42
0.0
  3
TXT
  4
EXTFONT.SHX
  0
ENDTAB
  0
TABLE
  2
VIEW
 70
     0
  0
ENDTAB
  0
TABLE
  2
UCS
 70
     0
  0
ENDTAB
  0
TABLE
  2
APPID
 70
     3
  0
APPID
  2
ACAD
 70
     0
  0
APPID
  2
ACAD_NAV_VCDISPLAY
 70
     0
  0
APPID
  2
ACAD_MLEADERVER
 70
     0
  0
ENDTAB
  0
TABLE
  2
DIMSTYLE
 70
     1
  0
DIMSTYLE
  2
STANDARD
 70
     0
  3

  4

  5

  6

  7

 40
1.0
 41
0.18
 42
0.0625
 43
0.38
 44
0.18
 45
0.0
 46
0.0
 47
0.0
 48
0.0
140
0.18
141
0.09
142
0.0
143
25.399999999999999
144
1.0
145
0.0
146
1.0
147
0.09
 71
     0
 72
     0
 73
     1
 74
     1
 75
     0
 76
     0
 77
     0
 78
     0
170
     0
171
     2
172
     0
173
     0
174
     0
175
     0
176
     0
177
     0
178
     0
  0
ENDTAB
  0
ENDSEC
  0
SECTION
  2
BLOCKS
  0
BLOCK
  8
0
  2
$MODEL_SPACE
 70
     0
 10
0.0
 20
0.0
 30
0.0
  3
$MODEL_SPACE
  1

  0
ENDBLK
  5
1A
  8
0
  0
BLOCK
 67
     1
  8
0
  2
$PAPER_SPACE
 70
     0
 10
0.0
 20
0.0
 30
0.0
  3
$PAPER_SPACE
  1

  0
ENDBLK
  5
17
 67
     1
  8
0
  0
ENDSEC
  0
SECTION
  2
ENTITIES
  0
TEXT
  5
23
  8
0
 62
     7
 10
66.755299999999991
 20
126.187
 30
0.0
 40
3.0923400000000001
  1
排水栓
 41
0.5
 72
     2
 11
71.909199999999998
 21
126.187
 31
0.0
  0
TEXT
  5
24
  8
0
 62
     7
 10
28.148
 20
106.848
 30
0.0
 40
3.0923400000000001
  1
パッキン
 41
0.5
  0
TEXT
  5
25
  8
0
 62
     7
 10
73.758151999999995
 20
116.04600000000001
 30
0.0
 40
3.0923400000000001
  1
パッキン
 41
0.5
 72
     2
 11
80.561300000000017
 21
116.04600000000001
 31
0.0
  0
TEXT
  5
26
  8
0
 62
     7
 10
153.71444
 20
126.08
 30
0.0
 40
3.0923400000000001
  1
%%c63
 41
0.5
 72
     1
 11
155.77600000000001
 21
126.08
 31
0.0
  0
TEXT
  5
27
  8
0
 62
     7
 10
138.072
 20
104.5904225
 30
0.0
 40
3.0923400000000001
  1
max.50
 50
90.0
 41
0.5
 72
     1
 11
138.072
 21
108.327
 31
0.0
  0
TEXT
  5
28
  8
0
 62
     7
 10
126.995
 20
94.062349999999995
 30
0.0
 40
3.0923400000000001
  1
%%c5
 50
90.0
 41
0.5
 72
     2
 11
126.995
 21
96.639300000000006
 31
0.0
  0
TEXT
  5
29
  8
0
 62
     7
 10
169.69200000000001
 20
91.189519999999973
 30
0.0
 40
3.0923400000000001
  1
41
 50
90.0
 41
0.5
 72
     1
 11
169.69200000000001
 21
92.220299999999995
 31
0.0
  0
TEXT
  5
2A
  8
0
 62
     7
 10
83.486599999999996
 20
86.950234999999992
 30
0.0
 40
3.0923400000000001
  1
%%c15
 50
90.0
 41
0.5
 72
     1
 11
83.486599999999996
 21
88.754099999999994
 31
0.0
  0
TEXT
  5
2B
  8
0
 62
     7
 10
97.416524999999993
 20
96.910499999999999
 30
0.0
 40
3.0923400000000001
  1
37
 41
0.5
 72
     1
 11
98.704999999999984
 21
96.910499999999999
 31
0.0
  0
TEXT
  5
2C
  8
0
 62
     7
 10
152.40880899999999
 20
67.752399999999994
 30
0.0
 40
3.0923400000000001
  1
G1 1/4
 41
0.5
 72
     1
 11
155.965
 21
67.752399999999994
 31
0.0
  0
TEXT
  5
2D
  8
0
 62
     7
 10
122.48598250000001
 20
74.250500000000002
 30
0.0
 40
3.0923400000000001
  1
190
 41
0.5
 72
     1
 11
124.161
 21
74.250500000000002
 31
0.0
  0
LINE
  5
2E
  8
0
 62
     7
 10
148.60499999999999
 20
95.818399999999997
 30
0.0
 11
148.60499999999999
 21
91.8964
 31
0.0
  0
LINE
  5
2F
  8
0
 62
     7
 10
47.110599999999991
 20
110.145
 30
0.0
 11
60.444200000000002
 21
110.145
 31
0.0
  0
LINE
  5
30
  8
0
 62
     7
 10
61.110900000000001
 20
112.81100000000001
 30
0.0
 11
60.444200000000002
 21
110.145
 31
0.0
  0
LINE
  5
31
  8
0
 62
     7
 10
64.277299999999997
 20
114.47799999999999
 30
0.0
 11
61.110900000000001
 21
112.81100000000001
 31
0.0
  0
LINE
  5
32
  8
0
 62
     7
 10
46.444000000000003
 20
112.81100000000001
 30
0.0
 11
47.110599999999991
 21
110.145
 31
0.0
  0
LINE
  5
33
  8
0
 62
     7
 10
43.277200000000001
 20
114.47799999999999
 30
0.0
 11
46.444000000000003
 21
112.81100000000001
 31
0.0
  0
LINE
  5
34
  8
0
 62
     7
 10
46.444000000000003
 20
112.81100000000001
 30
0.0
 11
61.110900000000001
 21
112.81100000000001
 31
0.0
  0
LINE
  5
35
  8
0
 62
     7
 10
64.277299999999997
 20
114.47799999999999
 30
0.0
 11
43.277200000000001
 21
114.47799999999999
 31
0.0
  0
LINE
  5
36
  8
0
 62
     7
 10
43.277200000000001
 20
114.47799999999999
 30
0.0
 11
43.277200000000001
 21
114.81100000000001
 31
0.0
  0
LINE
  5
37
  8
0
 62
     7
 10
43.277200000000001
 20
114.81100000000001
 30
0.0
 11
64.277299999999997
 21
114.81100000000001
 31
0.0
  0
LINE
  5
38
  8
0
 62
     7
 10
64.277299999999997
 20
114.81100000000001
 30
0.0
 11
64.277299999999997
 21
114.47799999999999
 31
0.0
  0
LINE
  5
39
  8
0
 62
     7
 10
60.444200000000002
 20
108.60599999999999
 30
0.0
 11
60.444200000000002
 21
102.175
 31
0.0
  0
LINE
  5
3A
  8
0
 62
     7
 10
60.444200000000002
 20
110.145
 30
0.0
 11
60.444200000000002
 21
109.43899999999999
 31
0.0
  0
LINE
  5
3B
  8
0
 62
     7
 10
47.110599999999991
 20
110.145
 30
0.0
 11
47.110599999999991
 21
109.43899999999999
 31
0.0
  0
LINE
  5
3C
  8
0
 62
     7
 10
47.110300000000002
 20
108.60599999999999
 30
0.0
 11
47.110300000000002
 21
102.175
 31
0.0
  0
LINE
  5
3D
  8
0
 62
     7
 10
43.7774
 20
108.60599999999999
 30
0.0
 11
63.7774
 21
108.60599999999999
 31
0.0
  0
LINE
  5
3E
  8
0
 62
     7
 10
63.7774
 20
108.60599999999999
 30
0.0
 11
63.7774
 21
109.43899999999999
 31
0.0
  0
LINE
  5
3F
  8
0
 62
     7
 10
63.7774
 20
109.43899999999999
 30
0.0
 11
43.7774
 21
109.43899999999999
 31
0.0
  0
LINE
  5
40
  8
0
 62
     7
 10
43.7774
 20
109.43899999999999
 30
0.0
 11
43.7774
 21
108.60599999999999
 31
0.0
  0
LINE
  5
41
  8
0
 62
     7
 10
61.750599999999999
 20
125.48699999999999
 30
0.0
 11
71.909199999999998
 21
125.48699999999999
 31
0.0
  0
LINE
  5
42
  8
0
 62
     7
 10
28.148
 20
106.148
 30
0.0
 11
40.801199999999987
 21
106.148
 31
0.0
  0
LINE
  5
43
  8
0
 62
     7
 10
67.908100000000005
 20
115.346
 30
0.0
 11
80.561300000000017
 21
115.346
 31
0.0
  0
LINE
  5
44
  8
0
 62
     7
 10
43.141999999999989
 20
101.767
 30
0.0
 11
44.893999999999991
 21
100.29600000000001
 31
0.0
  0
LINE
  5
45
  8
0
 62
     7
 10
44.893999999999991
 20
100.29600000000001
 30
0.0
 11
44.112699999999997
 21
102.446
 31
0.0
  0
LINE
  5
46
  8
0
 62
     7
 10
44.112699999999997
 20
102.446
 30
0.0
 11
43.141999999999989
 21
101.767
 31
0.0
  0
LINE
  5
47
  8
0
 62
     7
 10
44.893999999999991
 20
100.29600000000001
 30
0.0
 11
40.801199999999987
 21
106.148
 31
0.0
  0
LINE
  5
48
  8
0
 62
     7
 10
65.529399999999995
 20
110.911
 30
0.0
 11
63.7774
 21
109.43899999999999
 31
0.0
  0
LINE
  5
49
  8
0
 62
     7
 10
63.7774
 20
109.43899999999999
 30
0.0
 11
64.558700000000002
 21
111.589
 31
0.0
  0
LINE
  5
4A
  8
0
 62
     7
 10
64.558700000000002
 20
111.589
 30
0.0
 11
65.529399999999995
 21
110.911
 31
0.0
  0
LINE
  5
4B
  8
0
 62
     7
 10
63.7774
 20
109.43899999999999
 30
0.0
 11
67.908100000000005
 21
115.346
 31
0.0
  0
LINE
  5
4C
  8
0
 62
     7
 10
59.371899999999997
 20
121.05200000000001
 30
0.0
 11
57.619900000000001
 21
119.581
 31
0.0
  0
LINE
  5
4D
  8
0
 62
     7
 10
57.619900000000001
 20
119.581
 30
0.0
 11
58.401299999999999
 21
121.73099999999999
 31
0.0
  0
LINE
  5
4E
  8
0
 62
     7
 10
58.401299999999999
 20
121.73099999999999
 30
0.0
 11
59.371899999999997
 21
121.05200000000001
 31
0.0
  0
LINE
  5
4F
  8
0
 62
     7
 10
57.619900000000001
 20
119.581
 30
0.0
 11
61.750599999999999
 21
125.48699999999999
 31
0.0
  0
ARC
  5
50
  8
0
 62
     7
 10
55.440066000000002
 20
115.940872
 30
0.0
 40
1.0376529999999999
 50
91.952033000000014
 51
175.73103399999999
  0
ARC
  5
51
  8
0
 62
     7
 10
60.671326000000001
 20
115.499785
 30
0.0
 40
1.727436999999999
 50
161.70715200000001
 51
180.03965099999999
  0
ARC
  5
52
  8
0
 62
     7
 10
60.203254000000001
 20
115.618469
 30
0.0
 40
1.246237
 50
129.740477
 51
160.13328899999999
  0
ARC
  5
53
  8
0
 62
     7
 10
60.518093999999991
 20
115.260324
 30
0.0
 40
1.722963
 50
120.00592899999999
 51
130.17710299999999
  0
ARC
  5
54
  8
0
 62
     7
 10
61.035747000000001
 20
114.401357
 30
0.0
 40
2.7257439999999988
 50
116.61019400000001
 51
120.399276
  0
ARC
  5
55
  8
0
 62
     7
 10
63.670527
 20
109.045878
 30
0.0
 40
8.6942130000000013
 50
114.169774
 51
116.325974
  0
ARC
  5
56
  8
0
 62
     7
 10
59.924692000000007
 20
117.830612
 30
0.0
 40
0.5195610000000001
 50
272.1304970000001
 51
357.86951299999998
  0
ARC
  5
57
  8
0
 62
     7
 10
59.924353000000004
 20
117.792001
 30
0.0
 40
0.519898
 50
2.1269830000000001
 51
87.833532999999989
  0
LINE
  5
58
  8
0
 62
     7
 10
54.40529999999999
 20
116.018
 30
0.0
 11
54.357100000000003
 21
114.81100000000001
 31
0.0
  0
LINE
  5
59
  8
0
 62
     7
 10
58.943899999999999
 20
115.499
 30
0.0
 11
58.943899999999999
 21
114.81100000000001
 31
0.0
  0
LINE
  5
5A
  8
0
 62
     7
 10
60.443899999999992
 20
118.81100000000001
 30
0.0
 11
60.352899999999991
 21
118.312
 31
0.0
  0
LINE
  5
5B
  8
0
 62
     7
 10
60.171399999999998
 20
117.31100000000001
 30
0.0
 11
60.11079999999999
 21
116.97799999999999
 31
0.0
  0
LINE
  5
5C
  8
0
 62
     7
 10
60.11079999999999
 20
116.97799999999999
 30
0.0
 11
55.404699999999998
 21
116.97799999999999
 31
0.0
  0
LINE
  5
5D
  8
0
 62
     7
 10
55.110500000000002
 20
114.81100000000001
 30
0.0
 11
55.110500000000002
 21
116.934
 31
0.0
  0
ARC
  5
5E
  8
0
 62
     7
 10
57.897362000000001
 20
113.61680800000001
 30
0.0
 40
5.7852189999999997
 50
63.884695999999998
 51
71.516712999999996
  0
ARC
  5
5F
  8
0
 62
     7
 10
56.810895999999993
 20
110.546899
 30
0.0
 40
9.0413920000000001
 50
71.154387999999983
 51
78.11098299999999
  0
ARC
  5
60
  8
0
 62
     7
 10
55.647543999999989
 20
105.454041
 30
0.0
 40
14.264949
 50
77.752769999999984
 51
82.931201000000016
  0
ARC
  5
61
  8
0
 62
     7
 10
54.581532999999993
 20
97.590942999999996
 30
0.0
 40
22.199648
 50
82.698223999999996
 51
87.162076999999996
  0
ARC
  5
62
  8
0
 62
     7
 10
53.87209399999999
 20
85.927268000000012
 30
0.0
 40
33.884397
 50
86.940409000000002
 51
90.160368000000005
  0
ARC
  5
63
  8
0
 62
     7
 10
52.114415000000001
 20
115.94123
 30
0.0
 40
1.0372959999999991
 50
4.2506199999999987
 51
88.046535999999989
  0
ARC
  5
64
  8
0
 62
     7
 10
46.883164000000001
 20
115.49978400000001
 30
0.0
 40
1.7274409999999989
 50
359.96038900000002
 51
18.292808999999998
  0
ARC
  5
65
  8
0
 62
     7
 10
47.351239999999997
 20
115.618469
 30
0.0
 40
1.246237
 50
19.866690999999999
 51
50.259504000000007
  0
ARC
  5
66
  8
0
 62
     7
 10
47.0364
 20
115.260324
 30
0.0
 40
1.722963
 50
49.822876999999998
 51
59.994052000000003
  0
ARC
  5
67
  8
0
 62
     7
 10
46.518746999999991
 20
114.401357
 30
0.0
 40
2.7257439999999988
 50
59.600704000000007
 51
63.389786000000001
  0
ARC
  5
68
  8
0
 62
     7
 10
43.883966999999998
 20
109.045878
 30
0.0
 40
8.6942130000000013
 50
63.674006000000013
 51
65.830206000000004
  0
ARC
  5
69
  8
0
 62
     7
 10
47.629796999999989
 20
117.830607
 30
0.0
 40
0.519555
 50
182.12996100000001
 51
267.870069
  0
ARC
  5
6A
  8
0
 62
     7
 10
47.630140999999988
 20
117.792001
 30
0.0
 40
0.519898
 50
92.166447000000005
 51
177.872997
  0
LINE
  5
6B
  8
0
 62
     7
 10
53.148899999999998
 20
116.018
 30
0.0
 11
53.197099999999999
 21
114.81100000000001
 31
0.0
  0
LINE
  5
6C
  8
0
 62
     7
 10
48.610599999999998
 20
115.499
 30
0.0
 11
48.610599999999998
 21
114.81100000000001
 31
0.0
  0
LINE
  5
6D
  8
0
 62
     7
 10
47.110599999999991
 20
118.81100000000001
 30
0.0
 11
47.2012
 21
118.312
 31
0.0
  0
LINE
  5
6E
  8
0
 62
     7
 10
47.383099999999999
 20
117.31100000000001
 30
0.0
 11
47.443699999999993
 21
116.97799999999999
 31
0.0
  0
LINE
  5
6F
  8
0
 62
     7
 10
47.443699999999993
 20
116.97799999999999
 30
0.0
 11
52.149799999999999
 21
116.97799999999999
 31
0.0
  0
LINE
  5
70
  8
0
 62
     7
 10
47.383099999999999
 20
117.31100000000001
 30
0.0
 11
60.171399999999998
 21
117.31100000000001
 31
0.0
  0
LINE
  5
71
  8
0
 62
     7
 10
47.2012
 20
118.312
 30
0.0
 11
60.352899999999991
 21
118.312
 31
0.0
  0
LINE
  5
72
  8
0
 62
     7
 10
47.110599999999991
 20
118.81100000000001
 30
0.0
 11
60.443899999999992
 21
118.81100000000001
 31
0.0
  0
LINE
  5
73
  8
0
 62
     7
 10
52.443999999999988
 20
114.81100000000001
 30
0.0
 11
52.443999999999988
 21
116.934
 31
0.0
  0
ARC
  5
74
  8
0
 62
     7
 10
49.657237000000002
 20
113.617397
 30
0.0
 40
5.7847369999999998
 50
108.48736700000001
 51
116.118785
  0
ARC
  5
75
  8
0
 62
     7
 10
50.743141999999992
 20
110.548689
 30
0.0
 40
9.0395929999999982
 50
101.889942
 51
108.847329
  0
ARC
  5
76
  8
0
 62
     7
 10
51.906235000000002
 20
105.4571
 30
0.0
 40
14.261856999999999
 50
97.068472
 51
102.24791999999999
  0
ARC
  5
77
  8
0
 62
     7
 10
52.972659999999998
 20
97.59087700000002
 30
0.0
 40
22.199708000000001
 50
92.837592000000001
 51
97.301626000000013
  0
ARC
  5
78
  8
0
 62
     7
 10
53.68235
 20
85.922398999999999
 30
0.0
 40
33.889265999999999
 50
89.839549000000005
 51
93.059355000000025
  0
LINE
  5
79
  8
0
  6
AIGENLINE001
 62
     7
 10
53.777200000000001
 20
121.56699999999999
 30
0.0
 11
53.777200000000001
 21
79.943899999999999
 31
0.0
  0
ARC
  5
7A
  8
0
 62
     7
 10
51.77458
 20
104.474244
 30
0.0
 40
0.7113970000000001
 50
179.89138
 51
224.25729899999999
  0
ARC
  5
7B
  8
0
 62
     7
 10
51.76829399999999
 20
104.47503399999999
 30
0.0
 40
0.707464
 50
224.65836899999999
 51
269.31094999999999
  0
LINE
  5
7C
  8
0
 62
     7
 10
51.759799999999998
 20
103.768
 30
0.0
 11
51.77150000000001
 21
103.768
 31
0.0
  0
LINE
  5
7D
  8
0
 62
     7
 10
51.77150000000001
 20
103.768
 30
0.0
 11
55.723700000000001
 21
103.768
 31
0.0
  0
ARC
  5
7E
  8
0
 62
     7
 10
55.810143999999987
 20
104.393051
 30
0.0
 40
0.63137
 50
262.13416999999998
 51
306.6982660000001
  0
ARC
  5
7F
  8
0
 62
     7
 10
55.803077999999992
 20
104.393625
 30
0.0
 40
0.636075
 50
307.177637
 51
351.43178
  0
ARC
  5
80
  8
0
 62
     7
 10
55.748702999999999
 20
104.387225
 30
0.0
 40
0.6890410000000001
 50
352.63171499999999
 51
7.3682850000000011
  0
LINE
  5
81
  8
0
 62
     7
 10
56.432099999999991
 20
104.476
 30
0.0
 11
56.432099999999991
 21
107.071
 31
0.0
  0
ARC
  5
82
  8
0
 62
     7
 10
55.801976000000003
 20
107.155941
 30
0.0
 40
0.6357120000000001
 50
352.36589800000002
 51
36.626178000000003
  0
ARC
  5
83
  8
0
 62
     7
 10
55.809488000000002
 20
107.156282
 30
0.0
 40
0.6294940000000001
 50
37.009171000000002
 51
81.657916999999983
  0
ARC
  5
84
  8
0
 62
     7
 10
55.812277999999999
 20
107.170541
 30
0.0
 40
0.614982
 50
81.722296999999998
 51
98.277682999999982
  0
LINE
  5
85
  8
0
 62
     7
 10
55.723700000000001
 20
107.779
 30
0.0
 11
51.77150000000001
 21
107.779
 31
0.0
  0
ARC
  5
86
  8
0
 62
     7
 10
51.769284000000013
 20
107.068144
 30
0.0
 40
0.710975
 50
89.821415999999999
 51
134.23155700000001
  0
ARC
  5
87
  8
0
 62
     7
 10
51.770577000000003
 20
107.074352
 30
0.0
 40
0.707449
 50
134.65734499999999
 51
179.28318200000001
  0
LINE
  5
88
  8
0
 62
     7
 10
51.063200000000002
 20
107.083
 30
0.0
 11
51.063200000000002
 21
107.071
 31
0.0
  0
LINE
  5
89
  8
0
 62
     7
 10
51.063200000000002
 20
107.071
 30
0.0
 11
51.063200000000002
 21
104.476
 31
0.0
  0
ARC
  5
8A
  8
0
 62
     7
 10
63.264014000000003
 20
99.188423000000014
 30
0.0
 40
0.34688
 50
272.17149000000001
 51
357.82852000000003
  0
ARC
  5
8B
  8
0
 62
     7
 10
63.274453000000001
 20
99.173922000000005
 30
0.0
 40
0.336195
 50
0.231308
 51
43.841141
  0
LINE
  5
8C
  8
0
 62
     7
 10
63.5169
 20
99.406800000000004
 30
0.0
 11
60.849400000000003
 21
102.175
 31
0.0
  0
ARC
  5
8D
  8
0
 62
     7
 10
44.290480000000002
 20
99.188423000000014
 30
0.0
 40
0.34688
 50
182.17150000000001
 51
267.82853
  0
ARC
  5
8E
  8
0
 62
     7
 10
44.28004099999999
 20
99.173923000000016
 30
0.0
 40
0.336195
 50
136.15881999999999
 51
179.76869099999999
  0
LINE
  5
8F
  8
0
 62
     7
 10
63.157299999999999
 20
98.841800000000006
 30
0.0
 11
63.157299999999999
 21
98.311199999999999
 31
0.0
  0
LINE
  5
90
  8
0
 62
     7
 10
63.157299999999999
 20
98.311199999999999
 30
0.0
 11
44.397199999999998
 21
98.311199999999999
 31
0.0
  0
LINE
  5
91
  8
0
 62
     7
 10
44.397199999999998
 20
98.311199999999999
 30
0.0
 11
44.397199999999998
 21
98.841800000000006
 31
0.0
  0
LINE
  5
92
  8
0
 62
     7
 10
44.27729999999999
 20
98.841800000000006
 30
0.0
 11
63.277200000000001
 21
98.841800000000006
 31
0.0
  0
LINE
  5
93
  8
0
 62
     7
 10
44.037599999999998
 20
99.406800000000004
 30
0.0
 11
46.705100000000002
 21
102.175
 31
0.0
  0
LINE
  5
94
  8
0
 62
     7
 10
46.705100000000002
 20
102.175
 30
0.0
 11
60.849400000000003
 21
102.175
 31
0.0
  0
LINE
  5
95
  8
0
 62
     7
 10
149.10900000000001
 20
110.145
 30
0.0
 11
162.44300000000001
 21
110.145
 31
0.0
  0
LINE
  5
96
  8
0
 62
     7
 10
163.10900000000001
 20
112.81100000000001
 30
0.0
 11
162.44300000000001
 21
110.145
 31
0.0
  0
LINE
  5
97
  8
0
 62
     7
 10
166.27600000000001
 20
114.47799999999999
 30
0.0
 11
163.10900000000001
 21
112.81100000000001
 31
0.0
  0
LINE
  5
98
  8
0
 62
     7
 10
148.44300000000001
 20
112.81100000000001
 30
0.0
 11
149.10900000000001
 21
110.145
 31
0.0
  0
LINE
  5
99
  8
0
 62
     7
 10
145.27600000000001
 20
114.47799999999999
 30
0.0
 11
148.44300000000001
 21
112.81100000000001
 31
0.0
  0
LINE
  5
9A
  8
0
 62
     7
 10
148.44300000000001
 20
112.81100000000001
 30
0.0
 11
163.10900000000001
 21
112.81100000000001
 31
0.0
  0
LINE
  5
9B
  8
0
 62
     7
 10
166.27600000000001
 20
114.47799999999999
 30
0.0
 11
145.27600000000001
 21
114.47799999999999
 31
0.0
  0
LINE
  5
9C
  8
0
 62
     7
 10
145.27600000000001
 20
114.47799999999999
 30
0.0
 11
145.27600000000001
 21
114.81100000000001
 31
0.0
  0
LINE
  5
9D
  8
0
 62
     7
 10
145.27600000000001
 20
114.81100000000001
 30
0.0
 11
166.27600000000001
 21
114.81100000000001
 31
0.0
  0
LINE
  5
9E
  8
0
 62
     7
 10
166.27600000000001
 20
114.81100000000001
 30
0.0
 11
166.27600000000001
 21
114.47799999999999
 31
0.0
  0
ARC
  5
9F
  8
0
 62
     7
 10
157.43861899999999
 20
115.940872
 30
0.0
 40
1.0376529999999999
 50
91.952033000000014
 51
175.73103399999999
  0
ARC
  5
A0
  8
0
 62
     7
 10
162.667224
 20
115.50019500000001
 30
0.0
 40
1.724782
 50
161.692353
 51
180.0533429999999
  0
ARC
  5
A1
  8
0
 62
     7
 10
162.20181199999999
 20
115.618469
 30
0.0
 40
1.246237
 50
129.740477
 51
160.13328899999999
  0
ARC
  5
A2
  8
0
 62
     7
 10
162.516142
 20
115.261078
 30
0.0
 40
1.7220580000000001
 50
120.003902
 51
130.18029100000001
  0
ARC
  5
A3
  8
0
 62
     7
 10
163.0343
 20
114.401357
 30
0.0
 40
2.7257439999999988
 50
116.61019400000001
 51
120.399276
  0
ARC
  5
A4
  8
0
 62
     7
 10
165.66908000000001
 20
109.045878
 30
0.0
 40
8.6942130000000013
 50
114.169774
 51
116.325974
  0
ARC
  5
A5
  8
0
 62
     7
 10
161.92324500000001
 20
117.830612
 30
0.0
 40
0.5195610000000001
 50
272.1304970000001
 51
357.86951299999998
  0
ARC
  5
A6
  8
0
 62
     7
 10
161.92290700000001
 20
117.792001
 30
0.0
 40
0.519898
 50
2.1269830000000001
 51
87.833532999999989
  0
LINE
  5
A7
  8
0
 62
     7
 10
156.404
 20
116.018
 30
0.0
 11
156.35599999999999
 21
114.81100000000001
 31
0.0
  0
LINE
  5
A8
  8
0
 62
     7
 10
160.94200000000001
 20
115.499
 30
0.0
 11
160.94200000000001
 21
114.81100000000001
 31
0.0
  0
LINE
  5
A9
  8
0
 62
     7
 10
162.44200000000001
 20
118.81100000000001
 30
0.0
 11
162.351
 21
118.312
 31
0.0
  0
LINE
  5
AA
  8
0
 62
     7
 10
162.16999999999999
 20
117.31100000000001
 30
0.0
 11
162.10900000000001
 21
116.97799999999999
 31
0.0
  0
LINE
  5
AB
  8
0
 62
     7
 10
162.10900000000001
 20
116.97799999999999
 30
0.0
 11
157.40299999999999
 21
116.97799999999999
 31
0.0
  0
LINE
  5
AC
  8
0
 62
     7
 10
157.10900000000001
 20
114.81100000000001
 30
0.0
 11
157.10900000000001
 21
116.934
 31
0.0
  0
ARC
  5
AD
  8
0
 62
     7
 10
159.895827
 20
113.616626
 30
0.0
 40
5.7854219999999996
 50
63.884703000000002
 51
71.516401999999999
  0
ARC
  5
AE
  8
0
 62
     7
 10
158.80856700000001
 20
110.54366899999999
 30
0.0
 40
9.0447350000000011
 50
71.155676
 51
78.109695999999985
  0
ARC
  5
AF
  8
0
 62
     7
 10
157.64610200000001
 20
105.454041
 30
0.0
 40
14.264949
 50
77.752769999999984
 51
82.931201000000016
  0
ARC
  5
B0
  8
0
 62
     7
 10
156.579835
 20
97.588013000000004
 30
0.0
 40
22.202587000000001
 50
82.698529000000008
 51
87.161804000000004
  0
ARC
  5
B1
  8
0
 62
     7
 10
155.870619
 20
85.926147999999984
 30
0.0
 40
33.885517
 50
86.940462999999994
 51
90.160314999999983
  0
ARC
  5
B2
  8
0
 62
     7
 10
154.11296300000001
 20
115.941225
 30
0.0
 40
1.037301
 50
4.2508839999999992
 51
88.046272999999985
  0
ARC
  5
B3
  8
0
 62
     7
 10
148.88437300000001
 20
115.50019399999999
 30
0.0
 40
1.7247859999999999
 50
359.94669699999997
 51
18.307607000000001
  0
ARC
  5
B4
  8
0
 62
     7
 10
149.34978799999999
 20
115.618469
 30
0.0
 40
1.246237
 50
19.866690999999999
 51
50.259504000000007
  0
ARC
  5
B5
  8
0
 62
     7
 10
149.03545800000001
 20
115.261078
 30
0.0
 40
1.7220580000000001
 50
49.819688999999997
 51
59.996078000000011
  0
ARC
  5
B6
  8
0
 62
     7
 10
148.51730000000001
 20
114.401357
 30
0.0
 40
2.7257439999999988
 50
59.600704000000007
 51
63.389786000000001
  0
ARC
  5
B7
  8
0
 62
     7
 10
145.882521
 20
109.045878
 30
0.0
 40
8.6942130000000013
 50
63.674006000000013
 51
65.830206000000004
  0
ARC
  5
B8
  8
0
 62
     7
 10
149.628345
 20
117.830602
 30
0.0
 40
0.51955
 50
182.12941499999999
 51
267.87061499999999
  0
ARC
  5
B9
  8
0
 62
     7
 10
149.628694
 20
117.792001
 30
0.0
 40
0.519898
 50
92.166447000000005
 51
177.872997
  0
LINE
  5
BA
  8
0
 62
     7
 10
155.14699999999999
 20
116.018
 30
0.0
 11
155.196
 21
114.81100000000001
 31
0.0
  0
LINE
  5
BB
  8
0
 62
     7
 10
150.60900000000001
 20
115.499
 30
0.0
 11
150.60900000000001
 21
114.81100000000001
 31
0.0
  0
LINE
  5
BC
  8
0
 62
     7
 10
149.10900000000001
 20
118.81100000000001
 30
0.0
 11
149.19999999999999
 21
118.312
 31
0.0
  0
LINE
  5
BD
  8
0
 62
     7
 10
149.38200000000001
 20
117.31100000000001
 30
0.0
 11
149.44200000000001
 21
116.97799999999999
 31
0.0
  0
LINE
  5
BE
  8
0
 62
     7
 10
149.44200000000001
 20
116.97799999999999
 30
0.0
 11
154.148
 21
116.97799999999999
 31
0.0
  0
LINE
  5
BF
  8
0
 62
     7
 10
149.38200000000001
 20
117.31100000000001
 30
0.0
 11
162.16999999999999
 21
117.31100000000001
 31
0.0
  0
LINE
  5
C0
  8
0
 62
     7
 10
149.19999999999999
 20
118.312
 30
0.0
 11
162.351
 21
118.312
 31
0.0
  0
LINE
  5
C1
  8
0
 62
     7
 10
149.10900000000001
 20
118.81100000000001
 30
0.0
 11
162.44200000000001
 21
118.81100000000001
 31
0.0
  0
LINE
  5
C2
  8
0
 62
     7
 10
154.44300000000001
 20
114.81100000000001
 30
0.0
 11
154.44300000000001
 21
116.934
 31
0.0
  0
ARC
  5
C3
  8
0
 62
     7
 10
151.65790200000001
 20
113.61225
 30
0.0
 40
5.7902870000000002
 50
108.49102999999999
 51
116.115122
  0
ARC
  5
C4
  8
0
 62
     7
 10
152.741252
 20
110.550303
 30
0.0
 40
9.0379229999999993
 50
101.889298
 51
108.847973
  0
ARC
  5
C5
  8
0
 62
     7
 10
153.90474900000001
 20
105.45728699999999
 30
0.0
 40
14.261666
 50
97.068386000000004
 51
102.247925
  0
ARC
  5
C6
  8
0
 62
     7
 10
154.97109699999999
 20
97.592290000000006
 30
0.0
 40
22.198291000000001
 50
92.837471999999977
 51
97.301777000000001
  0
ARC
  5
C7
  8
0
 62
     7
 10
155.68087399999999
 20
85.923519999999996
 30
0.0
 40
33.888145000000002
 50
89.839495999999997
 51
93.059407999999976
  0
ARC
  5
C8
  8
0
 62
     7
 10
153.77104800000001
 20
104.473399
 30
0.0
 40
0.709314
 50
179.822756
 51
224.32592299999999
  0
ARC
  5
C9
  8
0
 62
     7
 10
153.76623000000001
 20
104.47358
 30
0.0
 40
0.7060030000000001
 50
224.60966099999999
 51
269.35965900000002
  0
LINE
  5
CA
  8
0
 62
     7
 10
153.75800000000001
 20
103.768
 30
0.0
 11
153.77000000000001
 21
103.768
 31
0.0
  0
LINE
  5
CB
  8
0
 62
     7
 10
153.77000000000001
 20
103.768
 30
0.0
 11
157.72200000000001
 21
103.768
 31
0.0
  0
ARC
  5
CC
  8
0
 62
     7
 10
157.808697
 20
104.393051
 30
0.0
 40
0.63137
 50
262.13416999999998
 51
306.6982660000001
  0
ARC
  5
CD
  8
0
 62
     7
 10
157.802808
 20
104.392927
 30
0.0
 40
0.6348080000000002
 50
307.13114900000011
 51
351.47826800000001
  0
ARC
  5
CE
  8
0
 62
     7
 10
157.736603
 20
104.387225
 30
0.0
 40
0.699608
 50
352.743607
 51
7.2563929999999992
  0
LINE
  5
CF
  8
0
 62
     7
 10
158.43100000000001
 20
104.476
 30
0.0
 11
158.43100000000001
 21
107.071
 31
0.0
  0
ARC
  5
D0
  8
0
 62
     7
 10
157.79834099999999
 20
107.15537500000001
 30
0.0
 40
0.6378080000000002
 50
352.44241600000009
 51
36.549658999999998
  0
ARC
  5
D1
  8
0
 62
     7
 10
157.808042
 20
107.156282
 30
0.0
 40
0.6294940000000001
 50
37.009171000000002
 51
81.657916999999983
  0
ARC
  5
D2
  8
0
 62
     7
 10
157.81083100000001
 20
107.170541
 30
0.0
 40
0.614982
 50
81.722296999999998
 51
98.277682999999982
  0
LINE
  5
D3
  8
0
 62
     7
 10
157.72200000000001
 20
107.779
 30
0.0
 11
153.77000000000001
 21
107.779
 31
0.0
  0
ARC
  5
D4
  8
0
 62
     7
 10
153.76783699999999
 20
107.068144
 30
0.0
 40
0.710975
 50
89.821415999999999
 51
134.23155700000001
  0
ARC
  5
D5
  8
0
 62
     7
 10
153.76768899999999
 20
107.07496399999999
 30
0.0
 40
0.7060010000000001
 50
134.609093
 51
179.331434
  0
LINE
  5
D6
  8
0
 62
     7
 10
153.06200000000001
 20
107.083
 30
0.0
 11
153.06200000000001
 21
107.071
 31
0.0
  0
LINE
  5
D7
  8
0
 62
     7
 10
153.06200000000001
 20
107.071
 30
0.0
 11
153.06200000000001
 21
104.476
 31
0.0
  0
ARC
  5
D8
  8
0
 62
     7
 10
146.28903799999989
 20
99.188429000000014
 30
0.0
 40
0.346886
 50
182.172371
 51
267.82765899999998
  0
ARC
  5
D9
  8
0
 62
     7
 10
146.280688
 20
99.173074999999983
 30
0.0
 40
0.338293
 50
136.300916
 51
179.62659500000001
  0
LINE
  5
DA
  8
0
 62
     7
 10
146.036
 20
99.406800000000004
 30
0.0
 11
148.70400000000001
 21
102.175
 31
0.0
  0
ARC
  5
DB
  8
0
 62
     7
 10
165.26289800000001
 20
99.188079000000002
 30
0.0
 40
0.346537
 50
272.17597699999999
 51
357.88325400000002
  0
ARC
  5
DC
  8
0
 62
     7
 10
165.270027
 20
99.173081999999994
 30
0.0
 40
0.339179
 50
0.371273
 51
43.554580999999992
  0
LINE
  5
DD
  8
0
 62
     7
 10
146.39599999999999
 20
98.841800000000006
 30
0.0
 11
146.39599999999999
 21
98.311199999999999
 31
0.0
  0
LINE
  5
DE
  8
0
 62
     7
 10
146.39599999999999
 20
98.311199999999999
 30
0.0
 11
165.15600000000001
 21
98.311199999999999
 31
0.0
  0
LINE
  5
DF
  8
0
 62
     7
 10
165.15600000000001
 20
98.311199999999999
 30
0.0
 11
165.15600000000001
 21
98.841800000000006
 31
0.0
  0
LINE
  5
E0
  8
0
 62
     7
 10
162.44300000000001
 20
108.60599999999999
 30
0.0
 11
162.44300000000001
 21
102.175
 31
0.0
  0
LINE
  5
E1
  8
0
 62
     7
 10
162.44300000000001
 20
110.145
 30
0.0
 11
162.44300000000001
 21
109.43899999999999
 31
0.0
  0
LINE
  5
E2
  8
0
 62
     7
 10
149.10900000000001
 20
110.145
 30
0.0
 11
149.10900000000001
 21
109.43899999999999
 31
0.0
  0
LINE
  5
E3
  8
0
 62
     7
 10
149.10900000000001
 20
108.60599999999999
 30
0.0
 11
149.10900000000001
 21
102.175
 31
0.0
  0
LINE
  5
E4
  8
0
 62
     7
 10
145.77600000000001
 20
108.60599999999999
 30
0.0
 11
165.77600000000001
 21
108.60599999999999
 31
0.0
  0
LINE
  5
E5
  8
0
 62
     7
 10
165.77600000000001
 20
108.60599999999999
 30
0.0
 11
165.77600000000001
 21
109.43899999999999
 31
0.0
  0
LINE
  5
E6
  8
0
 62
     7
 10
165.77600000000001
 20
109.43899999999999
 30
0.0
 11
145.77600000000001
 21
109.43899999999999
 31
0.0
  0
LINE
  5
E7
  8
0
 62
     7
 10
145.77600000000001
 20
109.43899999999999
 30
0.0
 11
145.77600000000001
 21
108.60599999999999
 31
0.0
  0
LINE
  5
E8
  8
0
 62
     7
 10
165.2759999999999
 20
98.841800000000006
 30
0.0
 11
146.27600000000001
 21
98.841800000000006
 31
0.0
  0
LINE
  5
E9
  8
0
 62
     7
 10
165.51599999999999
 20
99.406800000000004
 30
0.0
 11
162.84800000000001
 21
102.175
 31
0.0
  0
LINE
  5
EA
  8
0
 62
     7
 10
162.84800000000001
 20
102.175
 30
0.0
 11
148.70400000000001
 21
102.175
 31
0.0
  0
LINE
  5
EB
  8
0
 62
     7
 10
164.065
 20
125.97199999999999
 30
0.0
 11
166.27600000000001
 21
125.38
 31
0.0
  0
LINE
  5
EC
  8
0
 62
     7
 10
166.27600000000001
 20
125.38
 30
0.0
 11
164.065
 21
124.788
 31
0.0
  0
LINE
  5
ED
  8
0
 62
     7
 10
164.065
 20
124.788
 30
0.0
 11
164.065
 21
125.97199999999999
 31
0.0
  0
LINE
  5
EE
  8
0
 62
     7
 10
147.48500000000001
 20
124.788
 30
0.0
 11
145.27600000000001
 21
125.38
 31
0.0
  0
LINE
  5
EF
  8
0
 62
     7
 10
145.27600000000001
 20
125.38
 30
0.0
 11
147.48500000000001
 21
125.973
 31
0.0
  0
LINE
  5
F0
  8
0
 62
     7
 10
147.48500000000001
 20
125.973
 30
0.0
 11
147.48500000000001
 21
124.788
 31
0.0
  0
LINE
  5
F1
  8
0
 62
     7
 10
166.27600000000001
 20
125.38
 30
0.0
 11
145.27600000000001
 21
125.38
 31
0.0
  0
LINE
  5
F2
  8
0
 62
     7
 10
138.16800000000001
 20
102.175
 30
0.0
 11
148.00399999999999
 21
102.175
 31
0.0
  0
LINE
  5
F3
  8
0
 62
     7
 10
139.36000000000001
 20
104.395
 30
0.0
 11
138.767
 21
102.185
 31
0.0
  0
LINE
  5
F4
  8
0
 62
     7
 10
138.767
 20
102.185
 30
0.0
 11
138.17500000000001
 21
104.395
 31
0.0
  0
LINE
  5
F5
  8
0
 62
     7
 10
138.17500000000001
 20
104.395
 30
0.0
 11
139.36000000000001
 21
104.395
 31
0.0
  0
LINE
  5
F6
  8
0
 62
     7
 10
138.185
 20
112.218
 30
0.0
 11
138.77699999999999
 21
114.429
 31
0.0
  0
LINE
  5
F7
  8
0
 62
     7
 10
138.77699999999999
 20
114.429
 30
0.0
 11
139.369
 21
112.218
 31
0.0
  0
LINE
  5
F8
  8
0
 62
     7
 10
139.369
 20
112.218
 30
0.0
 11
138.185
 21
112.218
 31
0.0
  0
LINE
  5
F9
  8
0
 62
     7
 10
138.77199999999999
 20
102.185
 30
0.0
 11
138.77199999999999
 21
114.429
 31
0.0
  0
LINE
  5
FA
  8
0
 62
     7
 10
144.57599999999999
 20
114.47799999999999
 30
0.0
 11
138.16800000000001
 21
114.47799999999999
 31
0.0
  0
LINE
  5
FB
  8
0
 62
     7
 10
145.27600000000001
 20
126.08
 30
0.0
 11
145.27600000000001
 21
115.511
 31
0.0
  0
LINE
  5
FC
  8
0
 62
     7
 10
166.27600000000001
 20
115.511
 30
0.0
 11
166.27600000000001
 21
126.08
 31
0.0
  0
ARC
  5
FD
  8
0
 62
     7
 10
146.942116
 20
90.725908999999987
 30
0.0
 40
2.0221230000000001
 50
27.283401999999999
 51
35.370441999999997
  0
ARC
  5
FE
  8
0
 62
     7
 10
146.11822900000001
 20
90.286574000000002
 30
0.0
 40
2.9557679999999991
 50
19.651844000000001
 51
27.531424999999999
  0
ARC
  5
FF
  8
0
 62
     7
 10
144.777098
 20
89.785550000000001
 30
0.0
 40
4.3873280000000001
 50
13.591369
 51
19.923663999999999
  0
ARC
  5
100
  8
0
 62
     7
 10
142.42271099999999
 20
89.193956999999997
 30
0.0
 40
6.8148399999999993
 50
5.8824509999999997
 51
13.774281
  0
ARC
  5
101
  8
0
 62
     7
 10
139.04552100000001
 20
88.760636000000005
 30
0.0
 40
10.219009
 50
359.96360099999998
 51
6.3585699999999994
  0
ARC
  5
102
  8
0
 62
     7
 10
146.72998200000001
 20
87.019175000000004
 30
0.0
 40
2.2815199999999991
 50
324.656227
 51
337.34283500000009
  0
ARC
  5
103
  8
0
 62
     7
 10
145.49399600000001
 20
87.590222999999995
 30
0.0
 40
3.6424519999999991
 50
336.542844
 51
343.40561500000001
  0
ARC
  5
104
  8
0
 62
     7
 10
143.993032
 20
88.056423999999993
 30
0.0
 40
5.2140769999999987
 50
343.206525
 51
349.05187999999998
  0
ARC
  5
105
  8
0
 62
     7
 10
141.59104199999999
 20
88.539621999999994
 30
0.0
 40
7.6641409999999999
 50
348.91568899999999
 51
356.32487700000007
  0
ARC
  5
106
  8
0
 62
     7
 10
139.24384800000001
 20
88.757261999999997
 30
0.0
 40
10.020681
 50
355.94327900000002
 51
359.98217699999998
  0
ARC
  5
107
  8
0
 62
     7
 10
53.777246999999988
 20
91.198768999999984
 30
0.0
 40
1.716677999999999
 50
60.66780099999999
 51
119.332179
  0
ARC
  5
108
  8
0
 62
     7
 10
55.894114999999999
 20
89.976703000000015
 30
0.0
 40
1.7166269999999999
 50
0.659246
 51
59.319667000000003
  0
ARC
  5
109
  8
0
 62
     7
 10
55.897417000000011
 20
87.530378999999996
 30
0.0
 40
1.7133130000000001
 50
300.61774500000013
 51
359.37986599999999
  0
ARC
  5
10A
  8
0
 62
     7
 10
53.777246999999988
 20
86.309519999999978
 30
0.0
 40
1.716677999999999
 50
240.667821
 51
299.332199
  0
ARC
  5
10B
  8
0
 62
     7
 10
51.659176000000002
 20
87.531590000000008
 30
0.0
 40
1.7154240000000001
 50
180.65985900000001
 51
239.342569
  0
LINE
  5
10C
  8
0
 62
     7
 10
50.784500000000001
 20
91.452999999999975
 30
0.0
 11
52.936300000000003
 21
92.695400000000006
 31
0.0
  0
LINE
  5
10D
  8
0
 62
     7
 10
49.943899999999999
 20
87.511799999999994
 30
0.0
 11
49.943899999999999
 21
89.996499999999997
 31
0.0
  0
ARC
  5
10E
  8
0
 62
     7
 10
51.658991
 20
89.97750400000001
 30
0.0
 40
1.71523
 50
120.654094
 51
179.366953
  0
LINE
  5
10F
  8
0
 62
     7
 10
54.600999999999999
 20
92.704999999999998
 30
0.0
 11
56.770000000000003
 21
91.452999999999975
 31
0.0
  0
LINE
  5
110
  8
0
 62
     7
 10
57.610599999999998
 20
89.996499999999997
 30
0.0
 11
57.610599999999998
 21
87.511799999999994
 31
0.0
  0
LINE
  5
111
  8
0
 62
     7
 10
56.785899999999991
 20
86.064899999999994
 30
0.0
 11
54.617899999999999
 21
84.812899999999985
 31
0.0
  0
LINE
  5
112
  8
0
 62
     7
 10
52.953499999999998
 20
84.803299999999993
 30
0.0
 11
50.784500000000001
 21
86.055899999999994
 31
0.0
  0
ARC
  5
113
  8
0
 62
     7
 10
53.777245999999998
 20
88.754144999999994
 30
0.0
 40
3.4998949999999991
 50
270.00002000000001
 51
359.99999000000003
  0
ARC
  5
114
  8
0
 62
     7
 10
53.777245999999998
 20
88.754143999999997
 30
0.0
 40
3.4998939999999998
 50
179.99996999999999
 51
270.00002000000001
  0
ARC
  5
115
  8
0
 62
     7
 10
53.777248
 20
88.754143999999997
 30
0.0
 40
3.4998949999999991
 50
90.0
 51
179.99996999999999
  0
ARC
  5
116
  8
0
 62
     7
 10
53.777245999999998
 20
88.754143999999997
 30
0.0
 40
3.4998949999999991
 50
0.00001
 51
89.999980000000008
  0
ARC
  5
117
  8
0
 62
     7
 10
53.777246999999988
 20
88.754144999999994
 30
0.0
 40
2.5001220000000002
 50
270.00002000000001
 51
359.99999000000003
  0
ARC
  5
118
  8
0
 62
     7
 10
53.777246999999988
 20
88.754143999999997
 30
0.0
 40
2.500121
 50
179.99996999999999
 51
270.00002000000001
  0
ARC
  5
119
  8
0
 62
     7
 10
53.777246999999988
 20
88.754143999999997
 30
0.0
 40
2.5001220000000002
 50
90.0
 51
179.99996999999999
  0
ARC
  5
11A
  8
0
 62
     7
 10
53.777246999999988
 20
88.754143999999997
 30
0.0
 40
2.5001220000000002
 50
0.00001
 51
89.999980000000008
  0
LINE
  5
11B
  8
0
  6
AIGENLINE002
 62
     7
 10
53.777200000000001
 20
121.47499999999999
 30
0.0
 11
53.777200000000001
 21
74.956100000000006
 31
0.0
  0
LINE
  5
11C
  8
0
 62
     7
 10
45.670200000000001
 20
98.245099999999994
 30
0.0
 11
46.790500000000002
 21
95.818399999999997
 31
0.0
  0
LINE
  5
11D
  8
0
 62
     7
 10
46.790500000000002
 20
95.818399999999997
 30
0.0
 11
46.790500000000002
 21
85.3035
 31
0.0
  0
LINE
  5
11E
  8
0
 62
     7
 10
46.790500000000002
 20
85.3035
 30
0.0
 11
52.087400000000002
 21
85.3035
 31
0.0
  0
LINE
  5
11F
  8
0
 62
     7
 10
62.121699999999997
 20
98.245099999999994
 30
0.0
 11
61.000599999999999
 21
95.818399999999997
 31
0.0
  0
LINE
  5
120
  8
0
 62
     7
 10
61.000599999999999
 20
95.818399999999997
 30
0.0
 11
61.000599999999999
 21
85.3035
 31
0.0
  0
LINE
  5
121
  8
0
 62
     7
 10
61.000599999999999
 20
85.3035
 30
0.0
 11
55.467399999999991
 21
85.3035
 31
0.0
  0
LINE
  5
122
  8
0
 62
     7
 10
47.220799999999997
 20
85.149500000000003
 30
0.0
 11
47.220799999999997
 21
80.262299999999996
 31
0.0
  0
LINE
  5
123
  8
0
 62
     7
 10
47.220799999999997
 20
80.2898
 30
0.0
 11
47.991500000000002
 21
79.549099999999996
 31
0.0
  0
LINE
  5
124
  8
0
 62
     7
 10
60.421199999999999
 20
85.269099999999995
 30
0.0
 11
60.421199999999999
 21
80.262299999999996
 31
0.0
  0
LINE
  5
125
  8
0
 62
     7
 10
60.421199999999999
 20
80.2898
 30
0.0
 11
59.651200000000003
 21
79.549800000000005
 31
0.0
  0
LINE
  5
126
  8
0
 62
     7
 10
47.220799999999997
 20
80.2898
 30
0.0
 11
60.421199999999999
 21
80.2898
 31
0.0
  0
LINE
  5
127
  8
0
 62
     7
 10
59.651200000000003
 20
85.280799999999999
 30
0.0
 11
59.651200000000003
 21
79.549800000000005
 31
0.0
  0
LINE
  5
128
  8
0
 62
     7
 10
47.991500000000002
 20
85.280799999999999
 30
0.0
 11
47.991500000000002
 21
79.549099999999996
 31
0.0
  0
LINE
  5
129
  8
0
 62
     7
 10
47.991500000000002
 20
79.549099999999996
 30
0.0
 11
59.651200000000003
 21
79.549099999999996
 31
0.0
  0
LINE
  5
12A
  8
0
  6
AIGENLINE002
 62
     7
 10
48.395600000000002
 20
88.754099999999994
 30
0.0
 11
59.395499999999998
 21
88.754099999999994
 31
0.0
  0
LINE
  5
12B
  8
0
 62
     7
 10
155.828
 20
72.728800000000007
 30
0.0
 11
155.828
 21
76.381699999999995
 31
0.0
  0
ARC
  5
12C
  8
0
 62
     7
 10
53.776904000000002
 20
216.913366
 30
0.0
 40
10.166886999999999
 50
89.998058
 51
179.998029
  0
ARC
  5
12D
  8
0
 62
     7
 10
53.777417000000007
 20
216.91353899999999
 30
0.0
 40
10.166715
 50
0.000981
 51
90.000951000000015
  0
ARC
  5
12E
  8
0
 62
     7
 10
53.777417000000007
 20
216.91388699999999
 30
0.0
 40
10.166715
 50
269.99904900000001
 51
359.99901899999998
  0
ARC
  5
12F
  8
0
 62
     7
 10
53.776901000000002
 20
216.91405499999999
 30
0.0
 40
10.166884
 50
180.00195099999999
 51
270.00196099999999
  0
ARC
  5
130
  8
0
 62
     7
 10
53.777248999999998
 20
216.91371100000001
 30
0.0
 40
10.500030000000001
 50
90.0
 51
179.99996999999999
  0
ARC
  5
131
  8
0
 62
     7
 10
53.777417000000007
 20
216.91353799999999
 30
0.0
 40
10.500202
 50
0.00095
 51
90.000919999999994
  0
ARC
  5
132
  8
0
 62
     7
 10
53.777417000000007
 20
216.91388699999999
 30
0.0
 40
10.500202
 50
269.99907999999999
 51
359.99905000000001
  0
ARC
  5
133
  8
0
 62
     7
 10
53.777244999999994
 20
216.91371100000001
 30
0.0
 40
10.500026999999999
 50
179.99996999999999
 51
270.00002000000001
  0
ARC
  5
134
  8
0
 62
     7
 10
53.777076000000001
 20
216.91353899999999
 30
0.0
 40
6.6668199999999986
 50
89.998519999999999
 51
179.99849
  0
ARC
  5
135
  8
0
 62
     7
 10
53.777417999999997
 20
216.91353899999999
 30
0.0
 40
6.6668199999999986
 50
0.00149
 51
90.001460999999978
  0
ARC
  5
136
  8
0
 62
     7
 10
53.777417999999997
 20
216.91388599999999
 30
0.0
 40
6.6668199999999986
 50
269.99853899999999
 51
359.99851000000001
  0
ARC
  5
137
  8
0
 62
     7
 10
53.777073999999999
 20
216.913884
 30
0.0
 40
6.6668179999999992
 50
180.00148999999999
 51
270.00150000000002
  0
LINE
  5
138
  8
0
  6
AIGENLINE002
 62
     7
 10
53.777200000000001
 20
230.53800000000001
 30
0.0
 11
53.777200000000001
 21
150.42500000000001
 31
0.0
  0
LINE
  5
139
  8
0
  6
AIGENLINE001
 62
     7
 10
67.899100000000004
 20
216.91399999999999
 30
0.0
 11
39.659799999999997
 21
216.91399999999999
 31
0.0
  0
LINE
  5
13A
  8
0
 62
     7
 10
57.846299999999992
 20
199.98099999999999
 30
0.0
 11
57.846299999999992
 21
200.756
 31
0.0
  0
LINE
  5
13B
  8
0
 62
     7
 10
49.870100000000001
 20
202.56399999999999
 30
0.0
 11
49.870100000000001
 21
203.745
 31
0.0
  0
LINE
  5
13C
  8
0
 62
     7
 10
49.870100000000001
 20
199.98099999999999
 30
0.0
 11
49.870100000000001
 21
200.666
 31
0.0
  0
ARC
  5
13D
  8
0
 62
     7
 10
50.251081999999997
 20
201.64833899999999
 30
0.0
 40
1.204156
 50
337.95608199999998
 51
0.002797
  0
ARC
  5
13E
  8
0
 62
     7
 10
50.525174999999997
 20
201.56926000000001
 30
0.0
 40
0.9208959999999999
 50
295.274359
 51
336.11575599999998
  0
ARC
  5
13F
  8
0
 62
     7
 10
50.296628999999989
 20
201.990746
 30
0.0
 40
1.3998669999999991
 50
279.52272599999998
 51
296.36777200000012
  0
ARC
  5
140
  8
0
 62
     7
 10
50.112383999999999
 20
202.876003
 30
0.0
 40
2.3036759999999989
 50
269.32177799999999
 51
280.39950599999997
  0
ARC
  5
141
  8
0
 62
     7
 10
50.085264000000002
 20
200.746172
 30
0.0
 40
0.173685
 50
256.80371400000001
 51
269.95062799999999
  0
ARC
  5
142
  8
0
 62
     7
 10
50.115116999999991
 20
200.88393199999999
 30
0.0
 40
0.314631
 50
246.25495699999999
 51
257.23796299999998
  0
ARC
  5
143
  8
0
 62
     7
 10
50.20561
 20
201.09173899999999
 30
0.0
 40
0.541286
 50
237.946506
 51
246.3443419999999
  0
ARC
  5
144
  8
0
 62
     7
 10
50.424199999999992
 20
201.43443600000001
 30
0.0
 40
0.9477530000000001
 50
223.39851800000011
 51
237.741342
  0
ARC
  5
145
  8
0
 62
     7
 10
50.76236699999999
 20
201.781272
 30
0.0
 40
1.431897999999999
 50
191.219548
 51
224.18541300000001
  0
ARC
  5
146
  8
0
 62
     7
 10
50.405095000000003
 20
201.68141800000001
 30
0.0
 40
1.0624059999999991
 50
180.12719000000001
 51
189.68601100000001
  0
ARC
  5
147
  8
0
 62
     7
 10
50.21264
 20
201.67786699999999
 30
0.0
 40
0.8699479999999999
 50
152.89811900000001
 51
179.92145400000001
  0
ARC
  5
148
  8
0
 62
     7
 10
50.578803000000001
 20
201.505427
 30
0.0
 40
1.2745349999999991
 50
113.85735200000001
 51
153.49641199999999
  0
ARC
  5
149
  8
0
 62
     7
 10
50.178649999999998
 20
202.38748899999999
 30
0.0
 40
0.306133
 50
93.774816000000015
 51
112.13487600000001
  0
ARC
  5
14A
  8
0
 62
     7
 10
50.160302000000001
 20
200.072507
 30
0.0
 40
2.6204519999999998
 50
79.236787000000007
 51
90.039484999999985
  0
ARC
  5
14B
  8
0
 62
     7
 10
50.372939000000002
 20
201.31956500000001
 30
0.0
 40
1.3558339999999991
 50
62.048566000000001
 51
78.222822999999991
  0
ARC
  5
14C
  8
0
 62
     7
 10
50.587857999999997
 20
201.77229600000001
 30
0.0
 40
0.8554709999999998
 50
10.311752
 51
60.551034999999999
  0
ARC
  5
14D
  8
0
 62
     7
 10
50.103334999999987
 20
201.66256799999999
 30
0.0
 40
1.3519779999999999
 50
359.399452
 51
11.211207999999999
  0
ARC
  5
14E
  8
0
 62
     7
 10
55.62804899999999
 20
201.74009699999999
 30
0.0
 40
2.468685999999999
 50
344.48428699999999
 51
359.99063799999999
  0
ARC
  5
14F
  8
0
 62
     7
 10
56.82603799999999
 20
201.43386799999999
 30
0.0
 40
1.232699999999999
 50
331.64058899999998
 51
343.30380400000001
  0
ARC
  5
150
  8
0
 62
     7
 10
57.394207999999999
 20
201.132801
 30
0.0
 40
0.5897319999999999
 50
314.01930399999998
 51
331.159988
  0
ARC
  5
151
  8
0
 62
     7
 10
57.627229
 20
200.89844099999999
 30
0.0
 40
0.259319
 50
273.71848399999999
 51
312.97855199999998
  0
ARC
  5
152
  8
0
 62
     7
 10
57.643944999999988
 20
203.759075
 30
0.0
 40
3.1194069999999989
 50
260.12133299999999
 51
270.001867
  0
ARC
  5
153
  8
0
 62
     7
 10
57.461477000000002
 20
202.58836299999999
 30
0.0
 40
1.9348629999999989
 50
245.767798
 51
259.49688700000002
  0
ARC
  5
154
  8
0
 62
     7
 10
57.166420000000002
 20
201.89232799999999
 30
0.0
 40
1.179171999999999
 50
222.134818
 51
244.96029400000009
  0
ARC
  5
155
  8
0
 62
     7
 10
56.932039000000003
 20
201.64369300000001
 30
0.0
 40
0.8389969999999998
 50
179.67864299999999
 51
220.281139
  0
ARC
  5
156
  8
0
 62
     7
 10
56.971758000000001
 20
201.644948
 30
0.0
 40
0.87871
 50
138.35174699999999
 51
179.775058
  0
ARC
  5
157
  8
0
 62
     7
 10
57.230990000000013
 20
201.438637
 30
0.0
 40
1.209659
 50
115.302831
 51
139.209541
  0
ARC
  5
158
  8
0
 62
     7
 10
57.531278
 20
200.88632200000001
 30
0.0
 40
1.8376709999999989
 50
97.454682000000005
 51
116.40719
  0
ARC
  5
159
  8
0
 62
     7
 10
57.679768999999993
 20
200.10723400000001
 30
0.0
 40
2.6298449999999991
 50
89.757481999999996
 51
98.460314000000011
  0
ARC
  5
15A
  8
0
 62
     7
 10
57.690775000000002
 20
202.59044
 30
0.0
 40
0.146615
 50
60.736137000000006
 51
89.951212999999996
  0
ARC
  5
15B
  8
0
 62
     7
 10
57.644348000000001
 20
202.49345199999999
 30
0.0
 40
0.254015
 50
50.10940999999999
 51
62.294688000000008
  0
ARC
  5
15C
  8
0
 62
     7
 10
57.555163
 20
202.38702000000001
 30
0.0
 40
0.392873
 50
39.125050999999999
 51
50.084343999999987
  0
ARC
  5
15D
  8
0
 62
     7
 10
57.312866999999997
 20
202.19169500000001
 30
0.0
 40
0.7040930000000002
 50
23.036239999999999
 51
39.013967999999998
  0
ARC
  5
15E
  8
0
 62
     7
 10
56.752544999999998
 20
201.92550299999999
 30
0.0
 40
1.324147999999999
 50
12.420040999999999
 51
24.148513000000001
  0
ARC
  5
15F
  8
0
 62
     7
 10
56.078373999999997
 20
201.75889699999999
 30
0.0
 40
2.0184530000000001
 50
359.45489099999998
 51
12.922715
  0
ARC
  5
160
  8
0
 62
     7
 10
54.984178999999997
 20
201.649846
 30
0.0
 40
0.6634240000000001
 50
328.88198799999998
 51
359.87494199999998
  0
ARC
  5
161
  8
0
 62
     7
 10
54.721232999999991
 20
201.79176899999999
 30
0.0
 40
0.961987
 50
308.86961200000002
 51
329.73906599999998
  0
ARC
  5
162
  8
0
 62
     7
 10
54.330771999999989
 20
202.229422
 30
0.0
 40
1.5480449999999999
 50
294.36429600000002
 51
309.95615299999997
  0
ARC
  5
163
  8
0
 62
     7
 10
53.965242000000003
 20
202.96689900000001
 30
0.0
 40
2.370811999999999
 50
277.20316500000001
 51
295.05887200000001
  0
ARC
  5
164
  8
0
 62
     7
 10
53.834470999999994
 20
203.62751900000001
 30
0.0
 40
3.042975999999999
 50
269.91501399999999
 51
278.08636899999999
  0
ARC
  5
165
  8
0
 62
     7
 10
53.830045999999989
 20
203.55856499999999
 30
0.0
 40
2.9740189999999989
 50
251.89175800000001
 51
269.99830700000001
  0
ARC
  5
166
  8
0
 62
     7
 10
53.544705999999998
 20
202.595842
 30
0.0
 40
1.9704909999999991
 50
233.50955400000001
 51
251.07698300000001
  0
ARC
  5
167
  8
0
 62
     7
 10
53.066865
 20
201.90567799999999
 30
0.0
 40
1.1317669999999991
 50
213.416057
 51
232.17954900000001
  0
ARC
  5
168
  8
0
 62
     7
 10
52.728803999999997
 20
201.664669
 30
0.0
 40
0.717019
 50
181.30031099999999
 51
212.21785299999999
  0
ARC
  5
169
  8
0
 62
     7
 10
52.67427399999999
 20
201.64694
 30
0.0
 40
0.6623070000000001
 50
148.859566
 51
179.873818
  0
ARC
  5
16A
  8
0
 62
     7
 10
52.938048000000002
 20
201.50505699999999
 30
0.0
 40
0.961561
 50
128.873729
 51
149.75160700000001
  0
ARC
  5
16B
  8
0
 62
     7
 10
53.329392000000013
 20
201.067475
 30
0.0
 40
1.5481339999999999
 50
114.39019399999999
 51
129.985691
  0
ARC
  5
16C
  8
0
 62
     7
 10
53.695135999999998
 20
200.330659
 30
0.0
 40
2.3704009999999989
 50
97.221600000000024
 51
115.087219
  0
ARC
  5
16D
  8
0
 62
     7
 10
53.825855000000011
 20
199.66888599999999
 30
0.0
 40
3.0437119999999989
 50
89.922760999999994
 51
98.096811999999986
  0
ARC
  5
16E
  8
0
 62
     7
 10
53.829881000000007
 20
199.74732700000001
 30
0.0
 40
2.965266999999999
 50
71.844770999999994
 51
89.998510999999979
  0
ARC
  5
16F
  8
0
 62
     7
 10
54.113424999999992
 20
200.700379
 30
0.0
 40
1.9715039999999999
 50
53.482024000000003
 51
71.044503000000006
  0
ARC
  5
170
  8
0
 62
     7
 10
54.591264999999993
 20
201.38947999999999
 30
0.0
 40
1.1336429999999991
 50
33.430508000000003
 51
52.165785
  0
ARC
  5
171
  8
0
 62
     7
 10
54.930707999999989
 20
201.631674
 30
0.0
 40
0.7170880000000001
 50
1.336412999999999
 51
32.222661000000002
  0
LINE
  5
172
  8
0
 62
     7
 10
50.365200000000002
 20
199.571
 30
0.0
 11
57.3536
 21
199.571
 31
0.0
  0
ARC
  5
173
  8
0
 62
     7
 10
50.367946999999987
 20
200.142281
 30
0.0
 40
0.5716390000000001
 50
229.25647000000001
 51
269.72494699999999
  0
ARC
  5
174
  8
0
 62
     7
 10
50.263424999999998
 20
199.99691000000001
 30
0.0
 40
0.393595
 50
182.27215799999999
 51
226.97188299999999
  0
ARC
  5
175
  8
0
 62
     7
 10
57.474492000000012
 20
199.984297
 30
0.0
 40
0.371795
 50
307.067317
 51
359.53907500000003
  0
ARC
  5
176
  8
0
 62
     7
 10
57.365938
 20
200.101461
 30
0.0
 40
0.5309560000000002
 50
268.67102
 51
308.793837
  0
LINE
  5
177
  8
0
 62
     7
 10
50.0441
 20
203.88900000000001
 30
0.0
 11
57.5197
 21
203.88900000000001
 31
0.0
  0
LINE
  5
178
  8
0
 62
     7
 10
50.0441
 20
203.88900000000001
 30
0.0
 11
49.870100000000001
 21
203.745
 31
0.0
  0
LINE
  5
179
  8
0
 62
     7
 10
57.690899999999999
 20
203.745
 30
0.0
 11
57.5197
 21
203.88900000000001
 31
0.0
  0
LINE
  5
17A
  8
0
 62
     7
 10
57.690899999999999
 20
202.73699999999999
 30
0.0
 11
57.690899999999999
 21
203.745
 31
0.0
  0
ARC
  5
17B
  8
0
 62
     7
 10
51.737495000000003
 20
154.07862800000001
 30
0.0
 40
0.630083
 50
232.30540999999999
 51
238.27577600000001
  0
ARC
  5
17C
  8
0
 62
     7
 10
52.498778000000001
 20
155.26150699999999
 30
0.0
 40
2.0366930000000001
 50
237.55717400000009
 51
246.96138999999999
  0
ARC
  5
17D
  8
0
 62
     7
 10
53.160398999999991
 20
156.71518999999989
 30
0.0
 40
3.6335790000000001
 50
246.33143199999989
 51
256.74902300000002
  0
ARC
  5
17E
  8
0
 62
     7
 10
53.666691
 20
158.65186499999999
 30
0.0
 40
5.6349530000000003
 50
256.25187599999998
 51
267.45415700000001
  0
ARC
  5
17F
  8
0
 62
     7
 10
53.845866000000001
 20
160.76699400000001
 30
0.0
 40
7.7564190000000002
 50
266.82591400000001
 51
270.047909
  0
ARC
  5
180
  8
0
 62
     7
 10
55.954857999999987
 20
154.05137400000001
 30
0.0
 40
0.596901
 50
301.54657900000001
 51
307.85087199999998
  0
ARC
  5
181
  8
0
 62
     7
 10
55.173445999999998
 20
155.26399599999999
 30
0.0
 40
2.0393870000000001
 50
293.0378970000001
 51
302.43154200000009
  0
ARC
  5
182
  8
0
 62
     7
 10
54.512593000000003
 20
156.71619000000001
 30
0.0
 40
3.6345999999999989
 50
283.25057900000002
 51
293.666045
  0
ARC
  5
183
  8
0
 62
     7
 10
54.006382999999992
 20
158.652625
 30
0.0
 40
5.6357210000000002
 50
272.54756600000002
 51
283.74755399999998
  0
ARC
  5
184
  8
0
 62
     7
 10
53.827483999999998
 20
160.764273
 30
0.0
 40
7.7536990000000001
 50
269.95209399999999
 51
273.17466300000001
  0
LINE
  5
185
  8
0
 62
     7
 10
53.821000000000012
 20
165.91399999999999
 30
0.0
 11
52.320700000000002
 21
165.91399999999999
 31
0.0
  0
LINE
  5
186
  8
0
 62
     7
 10
52.320700000000002
 20
165.91399999999999
 30
0.0
 11
51.320900000000002
 21
153.58000000000001
 31
0.0
  0
LINE
  5
187
  8
0
 62
     7
 10
51.320900000000002
 20
153.58000000000001
 30
0.0
 11
53.821000000000012
 21
153.58000000000001
 31
0.0
  0
LINE
  5
188
  8
0
 62
     7
 10
53.821000000000012
 20
165.91399999999999
 30
0.0
 11
55.320999999999998
 21
165.91399999999999
 31
0.0
  0
LINE
  5
189
  8
0
 62
     7
 10
55.320999999999998
 20
165.91399999999999
 30
0.0
 11
56.321100000000001
 21
153.58000000000001
 31
0.0
  0
LINE
  5
18A
  8
0
 62
     7
 10
56.321100000000001
 20
153.58000000000001
 30
0.0
 11
53.821000000000012
 21
153.58000000000001
 31
0.0
  0
LINE
  5
18B
  8
0
 62
     7
 10
54.637500000000003
 20
166.71299999999999
 30
0.0
 11
52.970700000000001
 21
166.71299999999999
 31
0.0
  0
LINE
  5
18C
  8
0
 62
     7
 10
54.637500000000003
 20
199.571
 30
0.0
 11
54.637500000000003
 21
165.89599999999999
 31
0.0
  0
LINE
  5
18D
  8
0
 62
     7
 10
54.637500000000003
 20
165.89599999999999
 30
0.0
 11
52.970700000000001
 21
165.89599999999999
 31
0.0
  0
LINE
  5
18E
  8
0
 62
     7
 10
52.970700000000001
 20
165.89599999999999
 30
0.0
 11
52.970700000000001
 21
199.571
 31
0.0
  0
LINE
  5
18F
  8
0
 62
     7
 10
56.919499999999999
 20
204.44900000000001
 30
0.0
 11
50.788600000000002
 21
204.44900000000001
 31
0.0
  0
LINE
  5
190
  8
0
 62
     7
 10
50.722499999999997
 20
206.86600000000001
 30
0.0
 11
50.722499999999997
 21
203.88900000000001
 31
0.0
  0
LINE
  5
191
  8
0
 62
     7
 10
56.919499999999999
 20
206.892
 30
0.0
 11
56.919499999999999
 21
203.88900000000001
 31
0.0
  0
LINE
  5
192
  8
0
 62
     7
 10
138.89599999999999
 20
92.8232
 30
0.0
 11
139.66999999999999
 21
92.8232
 31
0.0
  0
LINE
  5
193
  8
0
 62
     7
 10
141.47800000000001
 20
84.847000000000008
 30
0.0
 11
142.65899999999999
 21
84.847000000000008
 31
0.0
  0
LINE
  5
194
  8
0
 62
     7
 10
138.89599999999999
 20
84.847000000000008
 30
0.0
 11
139.58099999999999
 21
84.847000000000008
 31
0.0
  0
ARC
  5
195
  8
0
 62
     7
 10
140.562443
 20
85.229112000000015
 30
0.0
 40
1.2030229999999991
 50
89.996932999999999
 51
112.05441500000001
  0
ARC
  5
196
  8
0
 62
     7
 10
140.483552
 20
85.502345000000005
 30
0.0
 40
0.9206330000000002
 50
113.889278
 51
154.736681
  0
ARC
  5
197
  8
0
 62
     7
 10
140.90352899999999
 20
85.274067999999986
 30
0.0
 40
1.398129999999999
 50
153.62167400000001
 51
170.487808
  0
ARC
  5
198
  8
0
 62
     7
 10
141.78652600000001
 20
85.089615000000009
 30
0.0
 40
2.2997499999999991
 50
169.59099800000001
 51
180.687737
  0
ARC
  5
199
  8
0
 62
     7
 10
139.66419099999999
 20
85.062576000000007
 30
0.0
 40
0.17725
 50
180.18220500000001
 51
193.063513
  0
ARC
  5
19A
  8
0
 62
     7
 10
139.79711499999999
 20
85.091542000000004
 30
0.0
 40
0.313287
 50
192.72902199999999
 51
203.75865999999999
  0
ARC
  5
19B
  8
0
 62
     7
 10
140.00286600000001
 20
85.180616000000015
 30
0.0
 40
0.537489
 50
203.612753
 51
212.06893299999999
  0
ARC
  5
19C
  8
0
 62
     7
 10
140.347655
 20
85.399918000000014
 30
0.0
 40
0.946108
 50
212.23712599999999
 51
226.602936
  0
ARC
  5
19D
  8
0
 62
     7
 10
140.69485
 20
85.737759999999994
 30
0.0
 40
1.430269
 50
225.7953060000001
 51
258.79979200000002
  0
ARC
  5
19E
  8
0
 62
     7
 10
140.595855
 20
85.382828000000003
 30
0.0
 40
1.063240999999999
 50
260.31784599999997
 51
269.87377800000002
  0
ARC
  5
19F
  8
0
 62
     7
 10
140.59232299999999
 20
85.189260000000004
 30
0.0
 40
0.8696719999999999
 50
270.07842199999999
 51
297.10626400000001
  0
ARC
  5
1A0
  8
0
 62
     7
 10
140.420323
 20
85.554715000000016
 30
0.0
 40
1.2734259999999991
 50
296.50295999999997
 51
336.16907099999997
  0
ARC
  5
1A1
  8
0
 62
     7
 10
141.30194399999999
 20
85.155435999999995
 30
0.0
 40
0.30578
 50
337.86082499999998
 51
356.24177200000003
  0
ARC
  5
1A2
  8
0
 62
     7
 10
138.98599100000001
 20
85.137197000000015
 30
0.0
 40
2.6210770000000001
 50
359.96056299999998
 51
10.760656000000001
  0
ARC
  5
1A3
  8
0
 62
     7
 10
140.232336
 20
85.349312999999995
 30
0.0
 40
1.3572610000000001
 50
11.787169
 51
27.944462999999999
  0
ARC
  5
1A4
  8
0
 62
     7
 10
140.68640500000001
 20
85.564756000000003
 30
0.0
 40
0.8554709999999998
 50
29.448955000000002
 51
79.688237999999998
  0
ARC
  5
1A5
  8
0
 62
     7
 10
140.57667799999999
 20
85.080231999999995
 30
0.0
 40
1.3519779999999999
 50
78.788781999999983
 51
90.600538
  0
ARC
  5
1A6
  8
0
 62
     7
 10
140.653561
 20
90.611480000000014
 30
0.0
 40
2.4621529999999989
 50
89.986346999999995
 51
105.536874
  0
ARC
  5
1A7
  8
0
 62
     7
 10
140.348555
 20
91.801297000000005
 30
0.0
 40
1.234364999999999
 50
106.69006899999999
 51
118.34249699999999
  0
ARC
  5
1A8
  8
0
 62
     7
 10
140.047978
 20
92.369529
 30
0.0
 40
0.5915770000000001
 50
118.847837
 51
135.940226
  0
ARC
  5
1A9
  8
0
 62
     7
 10
139.813006
 20
92.603897000000003
 30
0.0
 40
0.259789
 50
137.04725300000001
 51
176.237595
  0
ARC
  5
1AA
  8
0
 62
     7
 10
142.65370100000001
 20
92.619343999999984
 30
0.0
 40
3.0999249999999989
 50
179.970403
 51
189.91327999999999
  0
ARC
  5
1AB
  8
0
 62
     7
 10
141.49978400000001
 20
92.437815000000001
 30
0.0
 40
1.932086999999999
 50
190.50153
 51
204.25126499999999
  0
ARC
  5
1AC
  8
0
 62
     7
 10
140.80615700000001
 20
92.143118999999999
 30
0.0
 40
1.1787389999999991
 50
205.0392040000001
 51
227.873693
  0
ARC
  5
1AD
  8
0
 62
     7
 10
140.55805799999999
 20
91.909242000000006
 30
0.0
 40
0.839301
 50
229.72609399999999
 51
270.30373300000002
  0
ARC
  5
1AE
  8
0
 62
     7
 10
140.559068
 20
91.948615000000004
 30
0.0
 40
0.87867
 50
270.224244
 51
311.64871399999998
  0
ARC
  5
1AF
  8
0
 62
     7
 10
140.3523449999999
 20
92.208193999999992
 30
0.0
 40
1.2101509999999991
 50
310.79477799999989
 51
334.69236000000001
  0
ARC
  5
1B0
  8
0
 62
     7
 10
139.800985
 20
92.507982999999996
 30
0.0
 40
1.8370869999999999
 50
333.59065099999998
 51
352.54881399999999
  0
ARC
  5
1B1
  8
0
 62
     7
 10
139.02535
 20
92.656443999999993
 30
0.0
 40
2.625839
 50
351.53147100000001
 51
0.24774
  0
ARC
  5
1B2
  8
0
 62
     7
 10
141.50315000000001
 20
92.667302000000007
 30
0.0
 40
0.148015
 50
0.192034
 51
29.122706999999998
  0
ARC
  5
1B3
  8
0
 62
     7
 10
141.4090709999999
 20
92.622437000000005
 30
0.0
 40
0.252122
 50
27.624079999999999
 51
39.895716
  0
ARC
  5
1B4
  8
0
 62
     7
 10
141.29892899999999
 20
92.529996999999995
 30
0.0
 40
0.395914
 50
39.935805000000009
 51
50.808426999999988
  0
ARC
  5
1B5
  8
0
 62
     7
 10
141.10620800000001
 20
92.290545999999992
 30
0.0
 40
0.7032840000000001
 50
50.967019999999998
 51
66.956202000000005
  0
ARC
  5
1B6
  8
0
 62
     7
 10
140.840127
 20
91.730806000000001
 30
0.0
 40
1.3227640000000001
 50
65.840879999999999
 51
77.577668000000003
  0
ARC
  5
1B7
  8
0
 62
     7
 10
140.67344800000001
 20
91.056840000000008
 30
0.0
 40
2.0168840000000001
 50
77.072102999999984
 51
90.548304999999985
  0
ARC
  5
1B8
  8
0
 62
     7
 10
140.56395000000001
 20
89.961557999999997
 30
0.0
 40
0.6629430000000001
 50
90.124720999999994
 51
121.129577
  0
ARC
  5
1B9
  8
0
 62
     7
 10
140.70638600000001
 20
89.697761999999997
 30
0.0
 40
0.9624959999999999
 50
120.26931
 51
141.126609
  0
ARC
  5
1BA
  8
0
 62
     7
 10
141.14343400000001
 20
89.307612000000006
 30
0.0
 40
1.547892
 50
140.03630999999999
 51
155.630787
  0
ARC
  5
1BB
  8
0
 62
     7
 10
141.88244900000001
 20
88.941535999999999
 30
0.0
 40
2.3722849999999989
 50
154.94165899999999
 51
172.786621
  0
ARC
  5
1BC
  8
0
 62
     7
 10
142.53277800000001
 20
88.811763999999997
 30
0.0
 40
3.034127999999999
 50
171.89740699999999
 51
180.092715
  0
ARC
  5
1BD
  8
0
 62
     7
 10
142.47119499999999
 20
88.806938000000017
 30
0.0
 40
2.97254
 50
180.00161900000001
 51
198.11748700000001
  0
ARC
  5
1BE
  8
0
 62
     7
 10
141.51048700000001
 20
88.522037999999995
 30
0.0
 40
1.971066999999999
 50
198.93063699999999
 51
216.493774
  0
ARC
  5
1BF
  8
0
 62
     7
 10
140.81992700000001
 20
88.043762000000001
 30
0.0
 40
1.1317669999999991
 50
217.820481
 51
236.58397199999999
  0
ARC
  5
1C0
  8
0
 62
     7
 10
140.57892899999999
 20
87.705718999999974
 30
0.0
 40
0.71704
 50
237.78214299999999
 51
268.68765000000002
  0
ARC
  5
1C1
  8
0
 62
     7
 10
140.561047
 20
87.651331999999996
 30
0.0
 40
0.662467
 50
270.12628100000001
 51
301.13655999999997
  0
ARC
  5
1C2
  8
0
 62
     7
 10
140.41868099999999
 20
87.915807999999998
 30
0.0
 40
0.9625719999999999
 50
300.24966599999999
 51
321.10882400000008
  0
ARC
  5
1C3
  8
0
 62
     7
 10
139.98121499999999
 20
88.306938000000002
 30
0.0
 40
1.5489239999999991
 50
320.00750499999998
 51
335.59670899999998
  0
ARC
  5
1C4
  8
0
 62
     7
 10
139.246735
 20
88.67191600000001
 30
0.0
 40
2.3687549999999988
 50
334.89725600000003
 51
352.77619900000008
  0
ARC
  5
1C5
  8
0
 62
     7
 10
138.593492
 20
88.802189999999996
 30
0.0
 40
3.03356
 50
351.88662799999997
 51
0.088107
  0
ARC
  5
1C6
  8
0
 62
     7
 10
138.663455
 20
88.806782999999996
 30
0.0
 40
2.963592999999999
 50
0.001383
 51
18.165731000000001
  0
ARC
  5
1C7
  8
0
 62
     7
 10
139.61382499999999
 20
89.089453000000006
 30
0.0
 40
1.972658
 50
18.970663999999999
 51
36.524554000000002
  0
ARC
  5
1C8
  8
0
 62
     7
 10
140.30402900000001
 20
89.568235999999985
 30
0.0
 40
1.1333519999999999
 50
37.840882999999998
 51
56.584468000000001
  0
ARC
  5
1C9
  8
0
 62
     7
 10
140.54587000000001
 20
89.907814000000016
 30
0.0
 40
0.716878
 50
57.771970999999979
 51
88.670185999999987
  0
LINE
  5
1CA
  8
0
 62
     7
 10
138.48500000000001
 20
85.342099999999988
 30
0.0
 11
138.48500000000001
 21
92.330500000000001
 31
0.0
  0
ARC
  5
1CB
  8
0
 62
     7
 10
139.054214
 20
85.343889000000004
 30
0.0
 40
0.569116
 50
180.180138
 51
220.83558199999999
  0
ARC
  5
1CC
  8
0
 62
     7
 10
138.91144199999999
 20
85.240517999999994
 30
0.0
 40
0.393794
 50
223.04009199999999
 51
267.71764300000001
  0
ARC
  5
1CD
  8
0
 62
     7
 10
138.89911000000001
 20
92.450406000000015
 30
0.0
 40
0.372781
 50
90.514957999999993
 51
142.85672700000001
  0
ARC
  5
1CE
  8
0
 62
     7
 10
139.01629399999999
 20
92.342866999999998
 30
0.0
 40
0.531336
 50
141.242707
 51
181.331492
  0
LINE
  5
1CF
  8
0
 62
     7
 10
142.803
 20
85.021000000000001
 30
0.0
 11
142.803
 21
92.496600000000001
 31
0.0
  0
LINE
  5
1D0
  8
0
 62
     7
 10
142.803
 20
85.021000000000001
 30
0.0
 11
142.65899999999999
 21
84.847000000000008
 31
0.0
  0
LINE
  5
1D1
  8
0
 62
     7
 10
142.65899999999999
 20
92.6678
 30
0.0
 11
142.803
 21
92.496600000000001
 31
0.0
  0
LINE
  5
1D2
  8
0
 62
     7
 10
141.65100000000001
 20
92.6678
 30
0.0
 11
142.65899999999999
 21
92.6678
 31
0.0
  0
LINE
  5
1D3
  8
0
 62
     7
 10
128.12200000000001
 20
85.737300000000005
 30
0.0
 11
128.715
 21
87.947599999999994
 31
0.0
  0
LINE
  5
1D4
  8
0
 62
     7
 10
128.715
 20
87.947599999999994
 30
0.0
 11
129.30699999999999
 21
85.737300000000005
 31
0.0
  0
LINE
  5
1D5
  8
0
 62
     7
 10
129.30699999999999
 20
85.737300000000005
 30
0.0
 11
128.12200000000001
 21
85.737300000000005
 31
0.0
  0
LINE
  5
1D6
  8
0
 62
     7
 10
129.297
 20
91.825100000000006
 30
0.0
 11
128.70500000000001
 21
89.614400000000003
 31
0.0
  0
LINE
  5
1D7
  8
0
 62
     7
 10
128.70500000000001
 20
89.614400000000003
 30
0.0
 11
128.113
 21
91.825100000000006
 31
0.0
  0
LINE
  5
1D8
  8
0
 62
     7
 10
128.113
 20
91.825100000000006
 30
0.0
 11
129.297
 21
91.825100000000006
 31
0.0
  0
LINE
  5
1D9
  8
0
 62
     7
 10
128.71000000000001
 20
96.543599999999998
 30
0.0
 11
128.71000000000001
 21
85.037899999999993
 31
0.0
  0
LINE
  5
1DA
  8
0
 62
     7
 10
169.83500000000001
 20
96.631399999999999
 30
0.0
 11
170.428
 21
98.841800000000006
 31
0.0
  0
LINE
  5
1DB
  8
0
 62
     7
 10
170.428
 20
98.841800000000006
 30
0.0
 11
171.01900000000001
 21
96.631399999999999
 31
0.0
  0
LINE
  5
1DC
  8
0
 62
     7
 10
171.01900000000001
 20
96.631399999999999
 30
0.0
 11
169.83500000000001
 21
96.631399999999999
 31
0.0
  0
LINE
  5
1DD
  8
0
 62
     7
 10
171.00999999999999
 20
87.505300000000005
 30
0.0
 11
170.41800000000001
 21
85.295199999999994
 31
0.0
  0
LINE
  5
1DE
  8
0
 62
     7
 10
170.41800000000001
 20
85.295199999999994
 30
0.0
 11
169.8249999999999
 21
87.505300000000005
 31
0.0
  0
LINE
  5
1DF
  8
0
 62
     7
 10
169.8249999999999
 20
87.505300000000005
 30
0.0
 11
171.00999999999999
 21
87.505300000000005
 31
0.0
  0
LINE
  5
1E0
  8
0
 62
     7
 10
170.423
 20
98.578199999999995
 30
0.0
 11
170.423
 21
85.295199999999994
 31
0.0
  0
LINE
  5
1E1
  8
0
 62
     7
 10
171.12899999999999
 20
98.841800000000006
 30
0.0
 11
166.01599999999999
 21
98.841800000000006
 31
0.0
  0
LINE
  5
1E2
  8
0
 62
     7
 10
171.12899999999999
 20
85.295199999999994
 30
0.0
 11
163.571
 21
85.295199999999994
 31
0.0
  0
LINE
  5
1E3
  8
0
 62
     7
 10
94.704599999999999
 20
72.969999999999999
 30
0.0
 11
92.494200000000006
 21
73.562200000000004
 31
0.0
  0
LINE
  5
1E4
  8
0
 62
     7
 10
92.494200000000006
 20
73.562200000000004
 30
0.0
 11
94.704599999999999
 21
74.154399999999995
 31
0.0
  0
LINE
  5
1E5
  8
0
 62
     7
 10
94.704599999999999
 20
74.154399999999995
 30
0.0
 11
94.704599999999999
 21
72.969999999999999
 31
0.0
  0
LINE
  5
1E6
  8
0
 62
     7
 10
153.61699999999999
 20
74.144800000000004
 30
0.0
 11
155.828
 21
73.552599999999998
 31
0.0
  0
LINE
  5
1E7
  8
0
 62
     7
 10
155.828
 20
73.552599999999998
 30
0.0
 11
153.61699999999999
 21
72.960300000000004
 31
0.0
  0
LINE
  5
1E8
  8
0
 62
     7
 10
153.61699999999999
 20
72.960300000000004
 30
0.0
 11
153.61699999999999
 21
74.144800000000004
 31
0.0
  0
LINE
  5
1E9
  8
0
 62
     7
 10
93.848099999999988
 20
73.557400000000001
 30
0.0
 11
155.745
 21
73.557400000000001
 31
0.0
  0
LINE
  5
1EA
  8
0
 62
     7
 10
151.39099999999999
 20
66.167599999999993
 30
0.0
 11
149.18000000000001
 21
66.759799999999998
 31
0.0
  0
LINE
  5
1EB
  8
0
 62
     7
 10
149.18000000000001
 20
66.759799999999998
 30
0.0
 11
151.39099999999999
 21
67.352000000000004
 31
0.0
  0
LINE
  5
1EC
  8
0
 62
     7
 10
151.39099999999999
 20
67.352000000000004
 30
0.0
 11
151.39099999999999
 21
66.167599999999993
 31
0.0
  0
LINE
  5
1ED
  8
0
 62
     7
 10
160.154
 20
67.342399999999984
 30
0.0
 11
162.36500000000001
 21
66.750200000000007
 31
0.0
  0
LINE
  5
1EE
  8
0
 62
     7
 10
162.36500000000001
 20
66.750200000000007
 30
0.0
 11
160.154
 21
66.157600000000002
 31
0.0
  0
LINE
  5
1EF
  8
0
 62
     7
 10
160.154
 20
66.157600000000002
 30
0.0
 11
160.154
 21
67.342399999999984
 31
0.0
  0
LINE
  5
1F0
  8
0
 62
     7
 10
149.18000000000001
 20
66.754999999999995
 30
0.0
 11
162.28200000000001
 21
66.754999999999995
 31
0.0
  0
LINE
  5
1F1
  8
0
 62
     7
 10
104.828
 20
96.855299999999986
 30
0.0
 11
104.828
 21
90.936300000000003
 31
0.0
  0
LINE
  5
1F2
  8
0
 62
     7
 10
84.840100000000007
 20
86.282999999999987
 30
0.0
 11
91.918099999999995
 21
86.282999999999987
 31
0.0
  0
LINE
  5
1F3
  8
0
 62
     7
 10
84.840100000000007
 20
91.276300000000006
 30
0.0
 11
91.918099999999995
 21
91.276300000000006
 31
0.0
  0
LINE
  5
1F4
  8
0
 62
     7
 10
92.582400000000007
 20
96.855299999999986
 30
0.0
 11
92.582400000000007
 21
92.092799999999997
 31
0.0
  0
LINE
  5
1F5
  8
0
 62
     7
 10
92.494200000000006
 20
85.462299999999985
 30
0.0
 11
92.494200000000006
 21
72.695400000000006
 31
0.0
  0
LINE
  5
1F6
  8
0
 62
     7
 10
149.18000000000001
 20
79.263900000000007
 30
0.0
 11
149.18000000000001
 21
65.999099999999999
 31
0.0
  0
LINE
  5
1F7
  8
0
 62
     7
 10
162.36500000000001
 20
79.263900000000007
 30
0.0
 11
162.36500000000001
 21
65.999099999999999
 31
0.0
  0
LINE
  5
1F8
  8
0
 62
     7
 10
84.690600000000003
 20
89.065600000000003
 30
0.0
 11
85.282200000000003
 21
91.276300000000006
 31
0.0
  0
LINE
  5
1F9
  8
0
 62
     7
 10
85.282200000000003
 20
91.276300000000006
 30
0.0
 11
85.875099999999989
 21
89.065600000000003
 31
0.0
  0
LINE
  5
1FA
  8
0
 62
     7
 10
85.875099999999989
 20
89.065600000000003
 30
0.0
 11
84.690600000000003
 21
89.065600000000003
 31
0.0
  0
LINE
  5
1FB
  8
0
 62
     7
 10
85.865399999999994
 20
88.294899999999984
 30
0.0
 11
85.273200000000017
 21
86.084900000000005
 31
0.0
  0
LINE
  5
1FC
  8
0
 62
     7
 10
85.273200000000017
 20
86.084900000000005
 30
0.0
 11
84.680599999999984
 21
88.294899999999984
 31
0.0
  0
LINE
  5
1FD
  8
0
 62
     7
 10
84.680599999999984
 20
88.294899999999984
 30
0.0
 11
85.865399999999994
 21
88.294899999999984
 31
0.0
  0
LINE
  5
1FE
  8
0
 62
     7
 10
85.277999999999992
 20
91.276300000000006
 30
0.0
 11
85.277999999999992
 21
86.282999999999987
 31
0.0
  0
LINE
  5
1FF
  8
0
 62
     7
 10
94.793400000000005
 20
95.772900000000007
 30
0.0
 11
92.582400000000007
 21
96.365100000000012
 31
0.0
  0
LINE
  5
200
  8
0
 62
     7
 10
92.582400000000007
 20
96.365100000000012
 30
0.0
 11
94.793400000000005
 21
96.957300000000004
 31
0.0
  0
LINE
  5
201
  8
0
 62
     7
 10
94.793400000000005
 20
96.957300000000004
 30
0.0
 11
94.793400000000005
 21
95.772900000000007
 31
0.0
  0
LINE
  5
202
  8
0
 62
     7
 10
102.617
 20
96.947699999999998
 30
0.0
 11
104.828
 21
96.355500000000021
 31
0.0
  0
LINE
  5
203
  8
0
 62
     7
 10
104.828
 20
96.355500000000021
 30
0.0
 11
102.617
 21
95.762900000000002
 31
0.0
  0
LINE
  5
204
  8
0
 62
     7
 10
102.617
 20
95.762900000000002
 30
0.0
 11
102.617
 21
96.947699999999998
 31
0.0
  0
LINE
  5
205
  8
0
 62
     7
 10
92.815200000000004
 20
96.360299999999995
 30
0.0
 11
104.828
 21
96.360299999999995
 31
0.0
  0
LINE
  5
206
  8
0
  6
AIGENLINE002
 62
     7
 10
90.5518
 20
88.754099999999994
 30
0.0
 11
155.76400000000001
 21
88.754099999999994
 31
0.0
  0
LINE
  5
207
  8
0
  6
AIGENLINE002
 62
     7
 10
155.828
 20
121.559
 30
0.0
 11
155.828
 21
77.081699999999984
 31
0.0
  0
LINE
  5
208
  8
0
 62
     7
 10
92.494200000000006
 20
86.329099999999997
 30
0.0
 11
91.924999999999997
 21
88.8292
 31
0.0
  0
LINE
  5
209
  8
0
 62
     7
 10
92.494200000000006
 20
91.297999999999988
 30
0.0
 11
91.924999999999997
 21
88.797899999999984
 31
0.0
  0
LINE
  5
20A
  8
0
 62
     7
 10
104.828
 20
88.797899999999984
 30
0.0
 11
104.828
 21
87.297500000000014
 31
0.0
  0
LINE
  5
20B
  8
0
 62
     7
 10
104.828
 20
87.297500000000014
 30
0.0
 11
92.494200000000006
 21
86.297799999999995
 31
0.0
  0
LINE
  5
20C
  8
0
 62
     7
 10
92.494200000000006
 20
86.297799999999995
 30
0.0
 11
92.494200000000006
 21
88.797899999999984
 31
0.0
  0
LINE
  5
20D
  8
0
 62
     7
 10
104.828
 20
88.797899999999984
 30
0.0
 11
104.828
 21
90.297899999999998
 31
0.0
  0
LINE
  5
20E
  8
0
 62
     7
 10
104.828
 20
90.297899999999998
 30
0.0
 11
92.494200000000006
 21
91.297999999999988
 31
0.0
  0
LINE
  5
20F
  8
0
 62
     7
 10
92.494200000000006
 20
91.297999999999988
 30
0.0
 11
92.494200000000006
 21
88.797899999999984
 31
0.0
  0
LINE
  5
210
  8
0
 62
     7
 10
105.628
 20
89.614400000000003
 30
0.0
 11
105.628
 21
87.947599999999994
 31
0.0
  0
LINE
  5
211
  8
0
 62
     7
 10
138.48500000000001
 20
89.614400000000003
 30
0.0
 11
104.81
 21
89.614400000000003
 31
0.0
  0
LINE
  5
212
  8
0
 62
     7
 10
104.81
 20
89.614400000000003
 30
0.0
 11
104.81
 21
87.947599999999994
 31
0.0
  0
LINE
  5
213
  8
0
 62
     7
 10
104.81
 20
87.947599999999994
 30
0.0
 11
138.48500000000001
 21
87.947599999999994
 31
0.0
  0
LINE
  5
214
  8
0
 62
     7
 10
143.363
 20
91.8964
 30
0.0
 11
143.363
 21
85.765500000000003
 31
0.0
  0
LINE
  5
215
  8
0
 62
     7
 10
148.59100000000001
 20
85.699399999999997
 30
0.0
 11
142.803
 21
85.699399999999997
 31
0.0
  0
LINE
  5
216
  8
0
 62
     7
 10
148.59100000000001
 20
91.8964
 30
0.0
 11
142.803
 21
91.8964
 31
0.0
  0
LINE
  5
217
  8
0
 62
     7
 10
163.935
 20
98.245099999999994
 30
0.0
 11
162.815
 21
95.818399999999997
 31
0.0
  0
LINE
  5
218
  8
0
 62
     7
 10
162.815
 20
95.818399999999997
 30
0.0
 11
162.815
 21
85.3035
 31
0.0
  0
LINE
  5
219
  8
0
 62
     7
 10
162.815
 20
85.3035
 30
0.0
 11
155.75999999999999
 21
85.3035
 31
0.0
  0
LINE
  5
21A
  8
0
 62
     7
 10
147.48400000000001
 20
98.245099999999994
 30
0.0
 11
148.60499999999999
 21
95.818399999999997
 31
0.0
  0
LINE
  5
21B
  8
0
 62
     7
 10
148.60499999999999
 20
85.699399999999997
 30
0.0
 11
148.60499999999999
 21
85.3035
 31
0.0
  0
LINE
  5
21C
  8
0
 62
     7
 10
148.60499999999999
 20
85.3035
 30
0.0
 11
155.65799999999999
 21
85.3035
 31
0.0
  0
LINE
  5
21D
  8
0
 62
     7
 10
162.38499999999999
 20
85.149500000000003
 30
0.0
 11
162.38499999999999
 21
80.262299999999996
 31
0.0
  0
LINE
  5
21E
  8
0
 62
     7
 10
162.38499999999999
 20
80.2898
 30
0.0
 11
161.614
 21
79.549099999999996
 31
0.0
  0
LINE
  5
21F
  8
0
 62
     7
 10
149.184
 20
85.269099999999995
 30
0.0
 11
149.184
 21
80.262299999999996
 31
0.0
  0
LINE
  5
220
  8
0
 62
     7
 10
149.184
 20
80.2898
 30
0.0
 11
149.95400000000001
 21
79.549800000000005
 31
0.0
  0
LINE
  5
221
  8
0
 62
     7
 10
162.38499999999999
 20
80.2898
 30
0.0
 11
149.184
 21
80.2898
 31
0.0
  0
LINE
  5
222
  8
0
 62
     7
 10
162.38499999999999
 20
85.280799999999999
 30
0.0
 11
149.184
 21
85.280799999999999
 31
0.0
  0
LINE
  5
223
  8
0
 62
     7
 10
149.95400000000001
 20
85.280799999999999
 30
0.0
 11
149.95400000000001
 21
79.549800000000005
 31
0.0
  0
LINE
  5
224
  8
0
 62
     7
 10
161.614
 20
85.280799999999999
 30
0.0
 11
161.614
 21
79.549099999999996
 31
0.0
  0
LINE
  5
225
  8
0
 62
     7
 10
161.614
 20
79.549099999999996
 30
0.0
 11
149.95400000000001
 21
79.549099999999996
 31
0.0
  0
TEXT
  5
226
  8
_________2
 62
     7
 10
24.5868
 20
0.707627
 30
0.0
 40
3.9357000000000002
  1
ヨーロッパ製洗面器用
 41
0.5
  0
TEXT
  5
227
  8
_________2
 62
     7
 10
109.179
 20
24.226099999999999
 30
0.0
 40
3.9357000000000002
  1
ポップアップ式排水ヘッド部
 41
0.5
  0
LINE
  5
228
  8
_________2
 62
     7
 10
205.30099999999999
 20
127.41200000000001
 30
0.0
 11
183.55099999999999
 21
127.41200000000001
 31
0.0
  0
LINE
  5
229
  8
_________2
 62
     7
 10
100.3
 20
-4.0907299999999998
 30
0.0
 11
100.3
 21
-21.071000000000002
 31
0.0
  0
LINE
  5
22A
  8
_________2
 62
     7
 10
100.3
 20
275.93099999999998
 30
0.0
 11
100.3
 21
258.911
 31
0.0
  0
LINE
  5
22B
  8
_________2
 62
     7
 10
17.049499999999998
 20
127.41200000000001
 30
0.0
 11
-4.7008599999999987
 21
127.41200000000001
 31
0.0
  0
LINE
  5
22C
  8
_________2
 62
     7
 10
76.741
 20
29.805099999999999
 30
0.0
 11
74.554699999999997
 21
29.805099999999999
 31
0.0
  0
LINE
  5
22D
  8
_________2
 62
     7
 10
77.233699999999999
 20
29.805099999999999
 30
0.0
 11
76.981499999999997
 21
29.805099999999999
 31
0.0
  0
LINE
  5
22E
  8
_________2
 62
     7
 10
77.726299999999995
 20
29.805099999999999
 30
0.0
 11
80.651200000000003
 21
29.805099999999999
 31
0.0
  0
LINE
  5
22F
  8
_________2
 62
     7
 10
77.233699999999999
 20
29.805099999999999
 30
0.0
 11
77.485900000000001
 21
29.805099999999999
 31
0.0
  0
LINE
  5
230
  8
_________2
 62
     7
 10
70.837500000000006
 20
29.805099999999999
 30
0.0
 11
68.650499999999994
 21
29.805099999999999
 31
0.0
  0
LINE
  5
231
  8
_________2
 62
     7
 10
71.329400000000007
 20
29.805099999999999
 30
0.0
 11
71.0779
 21
29.805099999999999
 31
0.0
  0
LINE
  5
232
  8
_________2
 62
     7
 10
71.329400000000007
 20
30.297699999999999
 30
0.0
 11
71.329400000000007
 21
32.484699999999997
 31
0.0
  0
LINE
  5
233
  8
_________2
 62
     7
 10
71.329400000000007
 20
29.805099999999999
 30
0.0
 11
71.329400000000007
 21
30.057300000000001
 31
0.0
  0
LINE
  5
234
  8
_________2
 62
     7
 10
71.822100000000006
 20
29.805099999999999
 30
0.0
 11
74.009
 21
29.805099999999999
 31
0.0
  0
LINE
  5
235
  8
_________2
 62
     7
 10
71.329400000000007
 20
29.805099999999999
 30
0.0
 11
71.581599999999995
 21
29.805099999999999
 31
0.0
  0
LINE
  5
236
  8
_________2
 62
     7
 10
71.329400000000007
 20
29.313099999999999
 30
0.0
 11
71.329400000000007
 21
27.126200000000001
 31
0.0
  0
LINE
  5
237
  8
_________2
 62
     7
 10
71.329400000000007
 20
29.805099999999999
 30
0.0
 11
71.329400000000007
 21
29.553599999999999
 31
0.0
  0
LINE
  5
238
  8
_________2
 62
     7
 10
75.040499999999994
 20
28.5855
 30
0.0
 11
80.218500000000006
 21
27.720800000000001
 31
0.0
  0
LINE
  5
239
  8
_________2
 62
     7
 10
75.040499999999994
 20
31.024699999999999
 30
0.0
 11
80.218500000000006
 21
31.8901
 31
0.0
  0
LINE
  5
23A
  8
_________2
 62
     7
 10
80.218500000000006
 20
27.720800000000001
 30
0.0
 11
80.218500000000006
 21
31.8901
 31
0.0
  0
LINE
  5
23B
  8
_________2
 62
     7
 10
75.040499999999994
 20
28.5855
 30
0.0
 11
75.040499999999994
 21
31.024699999999999
 31
0.0
  0
ARC
  5
23C
  8
_________2
 62
     7
 10
71.283190000000005
 20
29.758130999999999
 30
0.0
 40
1.2673709999999989
 50
2.1232950000000002
 51
87.909056000000007
  0
ARC
  5
23D
  8
_________2
 62
     7
 10
71.375959999999992
 20
29.758557
 30
0.0
 40
1.2669559999999991
 50
92.104701000000006
 51
177.89526900000001
  0
ARC
  5
23E
  8
_________2
 62
     7
 10
71.376357999999996
 20
29.852015000000002
 30
0.0
 40
1.2673680000000001
 50
182.12203600000001
 51
267.877993
  0
ARC
  5
23F
  8
_________2
 62
     7
 10
71.282541000000009
 20
29.852692999999999
 30
0.0
 40
1.2680439999999991
 50
272.11916400000001
 51
357.84848499999998
  0
ARC
  5
240
  8
_________2
 62
     7
 10
71.329430000000002
 20
29.805087
 30
0.0
 40
2.0849849999999992
 50
0.00001
 51
89.999980000000008
  0
ARC
  5
241
  8
_________2
 62
     7
 10
71.409075999999999
 20
29.726157000000001
 30
0.0
 40
2.165379999999999
 50
92.107876000000005
 51
177.91103200000001
  0
ARC
  5
242
  8
_________2
 62
     7
 10
71.409439000000006
 20
29.885096000000001
 30
0.0
 40
2.1657829999999998
 50
182.117133
 51
267.88289700000001
  0
ARC
  5
243
  8
_________2
 62
     7
 10
71.249459000000002
 20
29.885774000000001
 30
0.0
 40
2.1664590000000001
 50
272.11546800000002
 51
357.86560400000002
  0
TEXT
  5
244
  8
_________2
 62
     7
 10
104.605
 20
1.67984
 30
0.0
 40
3.0923400000000001
  1
図番
 41
0.5
  0
LINE
  5
245
  8
_________2
 62
     7
 10
103.551
 20
5.9090699999999989
 30
0.0
 11
183.55099999999999
 21
5.9090699999999989
 31
0.0
  0
TEXT
  5
246
  8
_________2
 62
     7
 10
104.605
 20
11.679600000000001
 30
0.0
 40
3.0923400000000001
  1
品番
 41
0.5
  0
TEXT
  5
247
  8
_________2
 62
     7
 10
104.605
 20
31.8184
 30
0.0
 40
3.0923400000000001
  1
名称
 41
0.5
  0
TEXT
  5
248
  8
_________2
 62
     7
 10
91.845058333333341
 20
26.822299999999998
 30
0.0
 40
3.6545800000000002
  1
mm
 41
0.5
 72
     1
 11
93.367800000000003
 21
26.822299999999998
 31
0.0
  0
TEXT
  5
249
  8
_________2
 62
     7
 10
85.643199999999993
 20
31.8184
 30
0.0
 40
3.0923400000000001
  1
単位
 41
0.5
  0
TEXT
  5
24A
  8
_________2
 62
     7
 10
85.643199999999993
 20
19.411200000000001
 30
0.0
 40
3.0923400000000001
  1
尺度
 41
0.5
  0
TEXT
  5
24B
  8
_________2
 62
     7
 10
90.548758666666686
 20
13.2182
 30
0.0
 40
3.6545800000000002
  1
1 ： 3
 41
0.5
 72
     1
 11
93.959699999999998
 21
13.2182
 31
0.0
  0
TEXT
  5
24C
  8
_________2
 62
     7
 10
137.974425
 20
9.1082000000000001
 30
0.0
 40
3.9357000000000002
  1
CET355
 41
0.5
 72
     1
 11
143.55000000000001
 21
9.1082000000000001
 31
0.0
  0
TEXT
  5
24D
  8
_________2
 62
     7
 10
137.974425
 20
-0.892285
 30
0.0
 40
3.9357000000000002
  1
CET355
 41
0.5
 72
     1
 11
143.55000000000001
 21
-0.892285
 31
0.0
  0
TEXT
  5
24E
  8
_________2
 62
     7
 10
39.425300333333333
 20
13.603400000000001
 30
0.0
 40
3.6545800000000002
  1
早川
 41
0.5
 72
     1
 11
41.313499999999998
 21
13.603400000000001
 31
0.0
  0
TEXT
  5
24F
  8
_________2
 62
     7
 10
20.790390666666671
 20
13.603400000000001
 30
0.0
 40
3.6545800000000002
  1
石原
 41
0.5
 72
     1
 11
22.7395
 21
13.603400000000001
 31
0.0
  0
TEXT
  5
250
  8
_________2
 62
     7
 10
67.785799999999995
 20
13.2182
 30
0.0
 40
3.6545800000000002
  1
15.07.15
 41
0.5
  0
TEXT
  5
251
  8
_________2
 62
     7
 10
66.593100000000007
 20
19.411200000000001
 30
0.0
 40
3.0923400000000001
  1
日付
 41
0.5
  0
TEXT
  5
252
  8
_________2
 62
     7
 10
29.639399999999998
 20
19.411200000000001
 30
0.0
 40
3.0923400000000001
  1
検図
 41
0.5
  0
TEXT
  5
253
  8
_________2
 62
     7
 10
18.021100000000001
 20
5.2117699999999987
 30
0.0
 40
3.0923400000000001
  1
備考
 41
0.5
  0
TEXT
  5
254
  8
_________2
 62
     7
 10
18.021100000000001
 20
19.411200000000001
 30
0.0
 40
3.0923400000000001
  1
製図
 41
0.5
  0
TEXT
  5
255
  8
_________2
 62
     7
 10
23.788465333333338
 20
27.937100000000001
 30
0.0
 40
4.4979399999999989
  1
セラトレーディング株式会社
 41
0.5
 72
     1
 11
41.180500000000002
 21
27.937100000000001
 31
0.0
  0
LINE
  5
256
  8
_________2
 62
     7
 10
183.55099999999999
 20
-4.0907299999999998
 30
0.0
 11
17.049499999999998
 21
-4.0907299999999998
 31
0.0
  0
LINE
  5
257
  8
_________2
 62
     7
 10
17.049499999999998
 20
-4.0907299999999998
 30
0.0
 11
17.049499999999998
 21
258.911
 31
0.0
  0
LINE
  5
258
  8
_________2
 62
     7
 10
17.049499999999998
 20
258.911
 30
0.0
 11
183.55099999999999
 21
258.911
 31
0.0
  0
LINE
  5
259
  8
_________2
 62
     7
 10
183.55099999999999
 20
258.911
 30
0.0
 11
183.55099999999999
 21
-4.0907299999999998
 31
0.0
  0
LINE
  5
25A
  8
_________2
 62
     7
 10
65.549899999999994
 20
9.4092999999999982
 30
0.0
 11
65.549899999999994
 21
35.909100000000002
 31
0.0
  0
LINE
  5
25B
  8
_________2
 62
     7
 10
84.549700000000016
 20
9.4092999999999982
 30
0.0
 11
84.549700000000016
 21
35.909100000000002
 31
0.0
  0
LINE
  5
25C
  8
_________2
 62
     7
 10
103.551
 20
-4.0907299999999998
 30
0.0
 11
103.551
 21
35.909100000000002
 31
0.0
  0
LINE
  5
25D
  8
_________2
 62
     7
 10
28.549299999999999
 20
9.4092999999999982
 30
0.0
 11
28.549299999999999
 21
23.409600000000001
 31
0.0
  0
LINE
  5
25E
  8
_________2
 62
     7
 10
17.049499999999998
 20
9.4092999999999982
 30
0.0
 11
103.551
 21
9.4092999999999982
 31
0.0
  0
LINE
  5
25F
  8
_________2
 62
     7
 10
17.049499999999998
 20
23.409600000000001
 30
0.0
 11
103.551
 21
23.409600000000001
 31
0.0
  0
LINE
  5
260
  8
_________2
 62
     7
 10
103.551
 20
15.908899999999999
 30
0.0
 11
183.55099999999999
 21
15.908899999999999
 31
0.0
  0
LINE
  5
261
  8
_________2
 62
     7
 10
17.049499999999998
 20
35.909100000000002
 30
0.0
 11
183.55099999999999
 21
35.909100000000002
 31
0.0
  0
ENDSEC
  0
EOF
