  0
SECTION
  2
HEADER
  9
$ACADVER
  1
AC1009
  9
$INSBASE
 10
0.0
 20
0.0
 30
0.0
  9
$EXTMIN
 10
-4.70052
 20
-21.071400000000001
 30
0.0
  9
$EXTMAX
 10
205.30099999999999
 20
275.93000000000001
 30
0.0
  9
$LIMMIN
 10
0.0
 20
0.0
  9
$LIMMAX
 10
12.0
 20
9.0
  9
$ORTHOMODE
 70
     0
  9
$REGENMODE
 70
     1
  9
$FILLMODE
 70
     1
  9
$QTEXTMODE
 70
     0
  9
$MIRRTEXT
 70
     1
  9
$DRAGMODE
 70
     2
  9
$LTSCALE
 40
1.0
  9
$OSMODE
 70
    37
  9
$ATTMODE
 70
     1
  9
$TEXTSIZE
 40
0.0
  9
$TRACEWID
 40
0.05
  9
$TEXTSTYLE
  7
STANDARD
  9
$CLAYER
  8
0
  9
$CELTYPE
  6
CONTINUOUS
  9
$CECOLOR
 62
   256
  9
$DIMSCALE
 40
1.0
  9
$DIMASZ
 40
0.18
  9
$DIMEXO
 40
0.0625
  9
$DIMDLI
 40
0.38
  9
$DIMRND
 40
0.0
  9
$DIMDLE
 40
0.0
  9
$DIMEXE
 40
0.18
  9
$DIMTP
 40
0.0
  9
$DIMTM
 40
0.0
  9
$DIMTXT
 40
0.18
  9
$DIMCEN
 40
0.09
  9
$DIMTSZ
 40
0.0
  9
$DIMTOL
 70
     0
  9
$DIMLIM
 70
     0
  9
$DIMTIH
 70
     1
  9
$DIMTOH
 70
     1
  9
$DIMSE1
 70
     0
  9
$DIMSE2
 70
     0
  9
$DIMTAD
 70
     0
  9
$DIMZIN
 70
     0
  9
$DIMBLK
  1

  9
$DIMASO
 70
     1
  9
$DIMSHO
 70
     1
  9
$DIMPOST
  1

  9
$DIMAPOST
  1

  9
$DIMALT
 70
     0
  9
$DIMALTD
 70
     2
  9
$DIMALTF
 40
25.399999999999999
  9
$DIMLFAC
 40
1.0
  9
$DIMTOFL
 70
     0
  9
$DIMTVP
 40
0.0
  9
$DIMTIX
 70
     0
  9
$DIMSOXD
 70
     0
  9
$DIMSAH
 70
     0
  9
$DIMBLK1
  1

  9
$DIMBLK2
  1

  9
$DIMSTYLE
  2
STANDARD
  9
$DIMCLRD
 70
     0
  9
$DIMCLRE
 70
     0
  9
$DIMCLRT
 70
     0
  9
$DIMTFAC
 40
1.0
  9
$DIMGAP
 40
0.09
  9
$LUNITS
 70
     2
  9
$LUPREC
 70
     4
  9
$SKETCHINC
 40
0.1
  9
$FILLETRAD
 40
0.0
  9
$AUNITS
 70
     0
  9
$AUPREC
 70
     0
  9
$MENU
  1
.
  9
$ELEVATION
 40
0.0
  9
$PELEVATION
 40
0.0
  9
$THICKNESS
 40
0.0
  9
$LIMCHECK
 70
     0
  9
$BLIPMODE
 70
     0
  9
$CHAMFERA
 40
0.0
  9
$CHAMFERB
 40
0.0
  9
$SKPOLY
 70
     0
  9
$TDCREATE
 40
2444972.375
  9
$TDUPDATE
 40
2458513.2538311458
  9
$TDINDWG
 40
0.0000321412
  9
$TDUSRTIMER
 40
0.0000321412
  9
$USRTIMER
 70
     1
  9
$ANGBASE
 50
0.0
  9
$ANGDIR
 70
     0
  9
$PDMODE
 70
     0
  9
$PDSIZE
 40
0.0
  9
$PLINEWID
 40
0.0
  9
$COORDS
 70
     1
  9
$SPLFRAME
 70
     0
  9
$SPLINETYPE
 70
     6
  9
$SPLINESEGS
 70
     8
  9
$ATTDIA
 70
     1
  9
$ATTREQ
 70
     1
  9
$HANDLING
 70
     1
  9
$HANDSEED
  5
807
  9
$SURFTAB1
 70
     6
  9
$SURFTAB2
 70
     6
  9
$SURFTYPE
 70
     6
  9
$SURFU
 70
     6
  9
$SURFV
 70
     6
  9
$UCSNAME
  2

  9
$UCSORG
 10
0.0
 20
0.0
 30
0.0
  9
$UCSXDIR
 10
1.0
 20
0.0
 30
0.0
  9
$UCSYDIR
 10
0.0
 20
1.0
 30
0.0
  9
$PUCSNAME
  2

  9
$PUCSORG
 10
0.0
 20
0.0
 30
0.0
  9
$PUCSXDIR
 10
1.0
 20
0.0
 30
0.0
  9
$PUCSYDIR
 10
0.0
 20
1.0
 30
0.0
  9
$USERI1
 70
     0
  9
$USERI2
 70
     0
  9
$USERI3
 70
     0
  9
$USERI4
 70
     0
  9
$USERI5
 70
     0
  9
$USERR1
 40
0.0
  9
$USERR2
 40
0.0
  9
$USERR3
 40
0.0
  9
$USERR4
 40
0.0
  9
$USERR5
 40
0.0
  9
$WORLDVIEW
 70
     1
  9
$SHADEDGE
 70
     3
  9
$SHADEDIF
 70
    70
  9
$TILEMODE
 70
     1
  9
$MAXACTVP
 70
    48
  9
$PLIMCHECK
 70
     0
  9
$PEXTMIN
 10
1.0000000000000000E+020
 20
1.0000000000000000E+020
 30
1.0000000000000000E+020
  9
$PEXTMAX
 10
-1.0000000000000000E+020
 20
-1.0000000000000000E+020
 30
-1.0000000000000000E+020
  9
$PLIMMIN
 10
0.0
 20
0.0
  9
$PLIMMAX
 10
12.0
 20
9.0
  9
$UNITMODE
 70
     0
  9
$VISRETAIN
 70
     1
  9
$PLINEGEN
 70
     0
  9
$PSLTSCALE
 70
     1
  0
ENDSEC
  0
SECTION
  2
TABLES
  0
TABLE
  2
VPORT
 70
     1
  0
VPORT
  2
*ACTIVE
 70
     0
 10
0.0
 20
0.0
 11
1.0
 21
1.0
 12
190.8815905717185
 22
127.4293
 13
0.0
 23
0.0
 14
1.0
 24
1.0
 15
0.0
 25
0.0
 16
0.0
 26
0.0
 36
1.0
 17
0.0
 27
0.0
 37
0.0
 40
280.94834154544247
 41
2.298642533936651
 42
50.0
 43
0.0
 44
0.0
 50
0.0
 51
0.0
 71
     0
 72
   100
 73
     1
 74
     1
 75
     0
 76
     0
 77
     0
 78
     0
  0
ENDTAB
  0
TABLE
  2
LTYPE
 70
     2
  0
LTYPE
  2
CONTINUOUS
 70
     0
  3
Solid line
 72
    65
 73
     0
 40
0.0
  0
LTYPE
  2
AIGENLINE001
 70
     0
  3
generate AI->DXF Converter
 72
    65
 73
     4
 40
5.8561449999999988
 49
3.5278
 49
-0.776115
 49
0.776115
 49
-0.776115
  0
ENDTAB
  0
TABLE
  2
LAYER
 70
     2
  0
LAYER
  2
0
 70
     0
 62
     7
  6
CONTINUOUS
  0
LAYER
  2
_________2
 70
     0
 62
     7
  6
CONTINUOUS
  0
ENDTAB
  0
TABLE
  2
STYLE
 70
     1
  0
STYLE
  2
STANDARD
 70
     0
 40
0.0
 41
0.0
 50
0.0
 71
     0
 42
0.0
  3
TXT
  4
EXTFONT.SHX
  0
ENDTAB
  0
TABLE
  2
VIEW
 70
     0
  0
ENDTAB
  0
TABLE
  2
UCS
 70
     0
  0
ENDTAB
  0
TABLE
  2
APPID
 70
     3
  0
APPID
  2
ACAD
 70
     0
  0
APPID
  2
ACAD_NAV_VCDISPLAY
 70
     0
  0
APPID
  2
ACAD_MLEADERVER
 70
     0
  0
ENDTAB
  0
TABLE
  2
DIMSTYLE
 70
     1
  0
DIMSTYLE
  2
STANDARD
 70
     0
  3

  4

  5

  6

  7

 40
1.0
 41
0.18
 42
0.0625
 43
0.38
 44
0.18
 45
0.0
 46
0.0
 47
0.0
 48
0.0
140
0.18
141
0.09
142
0.0
143
25.399999999999999
144
1.0
145
0.0
146
1.0
147
0.09
 71
     0
 72
     0
 73
     1
 74
     1
 75
     0
 76
     0
 77
     0
 78
     0
170
     0
171
     2
172
     0
173
     0
174
     0
175
     0
176
     0
177
     0
178
     0
  0
ENDTAB
  0
ENDSEC
  0
SECTION
  2
BLOCKS
  0
BLOCK
  8
0
  2
$MODEL_SPACE
 70
     0
 10
0.0
 20
0.0
 30
0.0
  3
$MODEL_SPACE
  1

  0
ENDBLK
  5
1A
  8
0
  0
BLOCK
 67
     1
  8
0
  2
$PAPER_SPACE
 70
     0
 10
0.0
 20
0.0
 30
0.0
  3
$PAPER_SPACE
  1

  0
ENDBLK
  5
17
 67
     1
  8
0
  0
ENDSEC
  0
SECTION
  2
ENTITIES
  0
TEXT
  5
22
  8
0
 62
     7
 10
164.32522800000001
 20
79.062299999999993
 30
0.0
 40
3.0923400000000001
  1
Rc 1/2
 41
0.5
 72
     2
 11
171.953
 21
79.062299999999993
 31
0.0
  0
TEXT
  5
23
  8
0
 62
     7
 10
164.32522800000001
 20
121.10299999999999
 30
0.0
 40
3.0923400000000001
  1
Rc 1/2
 41
0.5
 72
     2
 11
171.953
 21
121.10299999999999
 31
0.0
  0
TEXT
  5
24
  8
0
 62
     7
 10
124.532
 20
79.994900000000001
 30
0.0
 40
3.0923400000000001
  1
CET9805
 41
0.5
  0
TEXT
  5
25
  8
0
 62
     7
 10
97.028999999999996
 20
75.195199999999986
 30
0.0
 40
3.0923400000000001
  1
CET3575S
 41
0.5
  0
TEXT
  5
26
  8
0
 62
     7
 10
107.41374500000001
 20
130.078
 30
0.0
 40
3.0923400000000001
  1
65.5
 41
0.5
 72
     1
 11
109.733
 21
130.078
 31
0.0
  0
TEXT
  5
27
  8
0
 62
     7
 10
136.65272049999999
 20
130.078
 30
0.0
 40
3.0923400000000001
  1
104～124
 41
0.5
 72
     1
 11
141.31700000000001
 21
130.078
 31
0.0
  0
TEXT
  5
28
  8
0
 62
     7
 10
155.861525
 20
123.524
 30
0.0
 40
3.0923400000000001
  1
29
 41
0.5
 72
     1
 11
157.15000000000001
 21
123.524
 31
0.0
  0
TEXT
  5
29
  8
0
 62
     7
 10
132.720653
 20
123.524
 30
0.0
 40
3.0923400000000001
  1
75～95
 41
0.5
 72
     1
 11
136.483
 21
123.524
 31
0.0
  0
TEXT
  5
2A
  8
0
 62
     7
 10
169.047
 20
98.094924999999989
 30
0.0
 40
3.0923400000000001
  1
84
 50
90.0
 41
0.5
 72
     1
 11
169.047
 21
99.383399999999995
 31
0.0
  0
TEXT
  5
2B
  8
0
 62
     7
 10
92.188599999999994
 20
97.345240000000004
 30
0.0
 40
3.0923400000000001
  1
%%c45
 50
90.0
 41
0.5
 72
     1
 11
92.188599999999994
 21
99.406800000000004
 31
0.0
  0
TEXT
  5
2C
  8
0
 62
     7
 10
58.477782500000004
 20
224.53899999999999
 30
0.0
 40
3.0923400000000001
  1
108
 41
0.5
 72
     1
 11
60.152799999999999
 21
224.53899999999999
 31
0.0
  0
TEXT
  5
2D
  8
0
 62
     7
 10
58.606930000000013
 20
125.586
 30
0.0
 40
3.0923400000000001
  1
100
 41
0.5
 72
     1
 11
60.153100000000002
 21
125.586
 31
0.0
  0
TEXT
  5
2E
  8
0
 62
     7
 10
34.311999999999998
 20
97.86063
 30
0.0
 40
3.0923400000000001
  1
100
 50
90.0
 41
0.5
 72
     1
 11
34.311999999999998
 21
99.406800000000004
 31
0.0
  0
LINE
  5
2F
  8
0
 62
     7
 10
48.1524
 20
99.406800000000004
 30
0.0
 11
49.485700000000001
 21
99.406800000000004
 31
0.0
  0
LINE
  5
30
  8
0
 62
     7
 10
49.485700000000001
 20
99.406800000000004
 30
0.0
 11
48.1524
 21
99.406800000000004
 31
0.0
  0
LINE
  5
31
  8
0
 62
     7
 10
49.485700000000001
 20
99.406800000000004
 30
0.0
 11
48.1524
 21
99.406800000000004
 31
0.0
  0
LINE
  5
32
  8
0
 62
     7
 10
48.1524
 20
99.406800000000004
 30
0.0
 11
49.485700000000001
 21
99.406800000000004
 31
0.0
  0
LINE
  5
33
  8
0
 62
     7
 10
60.152799999999999
 20
111.407
 30
0.0
 11
59.486199999999997
 21
110.73999999999999
 31
0.0
  0
LINE
  5
34
  8
0
 62
     7
 10
59.486199999999997
 20
110.73999999999999
 30
0.0
 11
60.152799999999999
 21
110.074
 31
0.0
  0
LINE
  5
35
  8
0
 62
     7
 10
60.152799999999999
 20
110.074
 30
0.0
 11
60.152799999999999
 21
110.407
 31
0.0
  0
LINE
  5
36
  8
0
 62
     7
 10
60.152799999999999
 20
110.407
 30
0.0
 11
59.818899999999992
 21
110.73999999999999
 31
0.0
  0
LINE
  5
37
  8
0
 62
     7
 10
59.818899999999992
 20
110.73999999999999
 30
0.0
 11
60.152799999999999
 21
111.07299999999999
 31
0.0
  0
LINE
  5
38
  8
0
 62
     7
 10
60.152799999999999
 20
111.07299999999999
 30
0.0
 11
60.152799999999999
 21
111.407
 31
0.0
  0
LINE
  5
39
  8
0
 62
     7
 10
60.152799999999999
 20
111.407
 30
0.0
 11
60.152799999999999
 21
111.07299999999999
 31
0.0
  0
LINE
  5
3A
  8
0
 62
     7
 10
60.152799999999999
 20
111.07299999999999
 30
0.0
 11
60.4863
 21
110.73999999999999
 31
0.0
  0
LINE
  5
3B
  8
0
 62
     7
 10
60.4863
 20
110.73999999999999
 30
0.0
 11
60.152799999999999
 21
110.407
 31
0.0
  0
LINE
  5
3C
  8
0
 62
     7
 10
60.152799999999999
 20
110.407
 30
0.0
 11
60.152799999999999
 21
110.074
 31
0.0
  0
LINE
  5
3D
  8
0
 62
     7
 10
60.152799999999999
 20
110.074
 30
0.0
 11
60.819099999999999
 21
110.73999999999999
 31
0.0
  0
LINE
  5
3E
  8
0
 62
     7
 10
60.819099999999999
 20
110.73999999999999
 30
0.0
 11
60.152799999999999
 21
111.407
 31
0.0
  0
LINE
  5
3F
  8
0
 62
     7
 10
120.65000000000001
 20
93.273099999999999
 30
0.0
 11
133.65000000000001
 21
93.273099999999999
 31
0.0
  0
LINE
  5
40
  8
0
 62
     7
 10
120.65000000000001
 20
91.633899999999997
 30
0.0
 11
133.65000000000001
 21
91.633899999999997
 31
0.0
  0
LINE
  5
41
  8
0
 62
     7
 10
120.65000000000001
 20
93.453599999999994
 30
0.0
 11
133.65000000000001
 21
93.453599999999994
 31
0.0
  0
LINE
  5
42
  8
0
 62
     7
 10
133.65000000000001
 20
91.453400000000002
 30
0.0
 11
120.65000000000001
 21
91.453400000000002
 31
0.0
  0
LINE
  5
43
  8
0
 62
     7
 10
54.018700000000003
 20
174.43700000000001
 30
0.0
 11
54.018700000000003
 21
187.43700000000001
 31
0.0
  0
LINE
  5
44
  8
0
 62
     7
 10
52.379600000000011
 20
174.43700000000001
 30
0.0
 11
52.379600000000011
 21
187.43700000000001
 31
0.0
  0
LINE
  5
45
  8
0
 62
     7
 10
54.199300000000001
 20
174.43700000000001
 30
0.0
 11
54.199300000000001
 21
187.43700000000001
 31
0.0
  0
LINE
  5
46
  8
0
 62
     7
 10
52.198999999999991
 20
187.43700000000001
 30
0.0
 11
52.198999999999991
 21
174.43700000000001
 31
0.0
  0
LINE
  5
47
  8
0
 62
     7
 10
120.65000000000001
 20
105.54000000000001
 30
0.0
 11
133.65000000000001
 21
105.54000000000001
 31
0.0
  0
LINE
  5
48
  8
0
 62
     7
 10
120.65000000000001
 20
107.18000000000001
 30
0.0
 11
133.65000000000001
 21
107.18000000000001
 31
0.0
  0
LINE
  5
49
  8
0
 62
     7
 10
120.65000000000001
 20
105.36
 30
0.0
 11
133.65000000000001
 21
105.36
 31
0.0
  0
LINE
  5
4A
  8
0
 62
     7
 10
133.65000000000001
 20
107.36
 30
0.0
 11
120.65000000000001
 21
107.36
 31
0.0
  0
LINE
  5
4B
  8
0
 62
     7
 10
147.983
 20
85.383099999999999
 30
0.0
 11
147.63200000000001
 21
85.734800000000007
 31
0.0
  0
LINE
  5
4C
  8
0
 62
     7
 10
157.00200000000001
 20
85.734800000000007
 30
0.0
 11
156.65000000000001
 21
85.383099999999999
 31
0.0
  0
LINE
  5
4D
  8
0
 62
     7
 10
152.31700000000001
 20
85.734800000000007
 30
0.0
 11
157.00200000000001
 21
85.734800000000007
 31
0.0
  0
LINE
  5
4E
  8
0
 62
     7
 10
156.65000000000001
 20
85.383099999999999
 30
0.0
 11
152.31700000000001
 21
85.383099999999999
 31
0.0
  0
LINE
  5
4F
  8
0
 62
     7
 10
147.63200000000001
 20
85.734800000000007
 30
0.0
 11
152.31700000000001
 21
85.734800000000007
 31
0.0
  0
LINE
  5
50
  8
0
 62
     7
 10
152.31700000000001
 20
85.383099999999999
 30
0.0
 11
147.983
 21
85.383099999999999
 31
0.0
  0
LINE
  5
51
  8
0
 62
     7
 10
147.31100000000001
 20
87.383300000000006
 30
0.0
 11
147.54499999999999
 21
87.383300000000006
 31
0.0
  0
LINE
  5
52
  8
0
 62
     7
 10
147.54400000000001
 20
89.383200000000002
 30
0.0
 11
147.49600000000001
 21
90.498400000000004
 31
0.0
  0
ARC
  5
53
  8
0
 62
     7
 10
145.86908199999999
 20
90.380210999999989
 30
0.0
 40
1.631699
 50
4.1540099999999986
 51
7.9158479999999987
  0
ARC
  5
54
  8
0
 62
     7
 10
147.111503
 20
90.546651999999995
 30
0.0
 40
0.378246
 50
8.8624869999999998
 51
26.154890999999999
  0
ARC
  5
55
  8
0
 62
     7
 10
147.04709800000001
 20
90.502420999999998
 30
0.0
 40
0.4556930000000001
 50
27.577341000000001
 51
34.929490000000001
  0
LINE
  5
56
  8
0
 62
     7
 10
147.24600000000001
 20
90.763300000000001
 30
0.0
 11
147.30600000000001
 21
89.383200000000002
 31
0.0
  0
LINE
  5
57
  8
0
 62
     7
 10
147.30600000000001
 20
89.383200000000002
 30
0.0
 11
147.54400000000001
 21
89.383200000000002
 31
0.0
  0
LINE
  5
58
  8
0
 62
     7
 10
147.23099999999999
 20
89.383200000000002
 30
0.0
 11
147.166
 21
90.763300000000001
 31
0.0
  0
LINE
  5
59
  8
0
 62
     7
 10
146.96299999999999
 20
90.763300000000001
 30
0.0
 11
147.20599999999999
 21
89.383200000000002
 31
0.0
  0
LINE
  5
5A
  8
0
 62
     7
 10
147.20599999999999
 20
89.383200000000002
 30
0.0
 11
147.23099999999999
 21
89.383200000000002
 31
0.0
  0
ARC
  5
5B
  8
0
 62
     7
 10
160.981336
 20
71.461535999999995
 30
0.0
 40
23.331517999999999
 50
124.17920100000001
 51
124.64477599999999
  0
ARC
  5
5C
  8
0
 62
     7
 10
153.044319
 20
82.955671999999979
 30
0.0
 40
9.3632910000000003
 50
124.672589
 51
126.335173
  0
LINE
  5
5D
  8
0
 62
     7
 10
147.31100000000001
 20
87.383300000000006
 30
0.0
 11
147.20599999999999
 21
89.383200000000002
 31
0.0
  0
ARC
  5
5E
  8
0
 62
     7
 10
166.690549
 20
88.396469999999994
 30
0.0
 40
19.171921999999999
 50
177.04974100000001
 51
183.02921900000001
  0
ARC
  5
5F
  8
0
 62
     7
 10
167.80586099999999
 20
88.439773999999986
 30
0.0
 40
20.521923999999999
 50
177.36500699999999
 51
182.95083399999999
  0
LINE
  5
60
  8
0
 62
     7
 10
150.61699999999999
 20
90.817800000000005
 30
0.0
 11
150.608
 21
90.736099999999993
 31
0.0
  0
LINE
  5
61
  8
0
 62
     7
 10
150.608
 20
90.736099999999993
 30
0.0
 11
150.40799999999999
 21
90.776099999999985
 31
0.0
  0
ARC
  5
62
  8
0
 62
     7
 10
150.73559399999999
 20
95.466358
 30
0.0
 40
3.1411150000000001
 50
263.91815800000001
 51
276.08186100000012
  0
LINE
  5
63
  8
0
 62
     7
 10
151.0679999999999
 20
92.342899999999986
 30
0.0
 11
151.01900000000001
 21
91.394800000000004
 31
0.0
  0
ARC
  5
64
  8
0
 62
     7
 10
152.31741400000001
 20
99.384145000000004
 30
0.0
 40
5.0011890000000001
 50
231.041641
 51
248.95287300000001
  0
ARC
  5
65
  8
0
 62
     7
 10
151.151028
 20
94.103605000000016
 30
0.0
 40
0.010327
 50
20.181477999999998
 51
78.188344000000001
  0
ARC
  5
66
  8
0
 62
     7
 10
151.008206
 20
93.766671000000002
 30
0.0
 40
0.376091
 50
67.332967000000011
 51
74.774007999999995
  0
ARC
  5
67
  8
0
 62
     7
 10
130.647829
 20
25.563642000000002
 30
0.0
 40
71.553211000000005
 50
73.385595999999993
 51
73.439711000000003
  0
ARC
  5
68
  8
0
 62
     7
 10
151.64643699999999
 20
96.185422000000003
 30
0.0
 40
2.1243119999999989
 50
251.035731
 51
253.47494900000001
  0
ARC
  5
69
  8
0
 62
     7
 10
151.48384200000001
 20
95.736508000000015
 30
0.0
 40
1.6469439999999991
 50
247.493718
 51
251.30995799999991
  0
ARC
  5
6A
  8
0
 62
     7
 10
151.449409
 20
95.686616999999984
 30
0.0
 40
1.5877229999999991
 50
243.533242
 51
247.952482
  0
ARC
  5
6B
  8
0
 62
     7
 10
151.47075599999999
 20
95.774461000000016
 30
0.0
 40
1.6759939999999991
 50
239.70709700000009
 51
244.21836500000001
  0
ARC
  5
6C
  8
0
 62
     7
 10
151.671449
 20
96.099636000000004
 30
0.0
 40
2.058022999999999
 50
235.67550199999999
 51
239.44916599999999
  0
ARC
  5
6D
  8
0
 62
     7
 10
151.847295
 20
94.053966000000017
 30
0.0
 40
0.6886320000000001
 50
101.68665300000001
 51
175.56906699999999
  0
ARC
  5
6E
  8
0
 62
     7
 10
170.96347299999999
 20
87.090743000000003
 30
0.0
 40
21.719348
 50
159.425387
 51
160.33424600000001
  0
LINE
  5
6F
  8
0
 62
     7
 10
150.40299999999999
 20
92.342899999999986
 30
0.0
 11
150.511
 21
94.400000000000006
 31
0.0
  0
LINE
  5
70
  8
0
 62
     7
 10
151.161
 20
94.107200000000006
 30
0.0
 11
151.0679999999999
 21
92.342899999999986
 31
0.0
  0
ARC
  5
71
  8
0
 62
     7
 10
150.330084
 20
91.453913999999983
 30
0.0
 40
0.691229
 50
272.48682500000001
 51
355.09625899999998
  0
LINE
  5
72
  8
0
 62
     7
 10
150.35300000000001
 20
90.763300000000001
 30
0.0
 11
150.40299999999999
 21
92.342899999999986
 31
0.0
  0
ARC
  5
73
  8
0
 62
     7
 10
152.29428799999999
 20
99.383193000000006
 30
0.0
 40
4.9776040000000004
 50
170.99881600000001
 51
189.00118399999999
  0
ARC
  5
74
  8
0
 62
     7
 10
511.185047
 20
307.19364100000001
 30
0.0
 40
419.36140899999992
 50
209.950177
 51
210.07307900000001
  0
LINE
  5
75
  8
0
 62
     7
 10
147.82499999999999
 20
97.828900000000004
 30
0.0
 11
147.37799999999999
 21
98.604399999999998
 31
0.0
  0
ARC
  5
76
  8
0
 62
     7
 10
152.424778
 20
99.383193000000006
 30
0.0
 40
4.7606459999999986
 50
150.652646
 51
209.347354
  0
ARC
  5
77
  8
0
 62
     7
 10
-2346.5369999999998
 20
1540.5055400000001
 30
0.0
 40
2879.9659999999999
 50
329.99171699999999
 51
330.027423
  0
ARC
  5
78
  8
0
 62
     7
 10
152.31566699999999
 20
99.387327999999997
 30
0.0
 40
4.9961339999999987
 50
111.04797000000001
 51
128.97946999999999
  0
ARC
  5
79
  8
0
 62
     7
 10
151.84593699999999
 20
104.710007
 30
0.0
 40
0.6870960000000002
 50
184.239135
 51
255.33407700000001
  0
ARC
  5
7A
  8
0
 62
     7
 10
151.52059800000001
 20
102.902906
 30
0.0
 40
1.7779509999999989
 50
120.207984
 51
124.60107600000001
  0
ARC
  5
7B
  8
0
 62
     7
 10
151.552077
 20
102.84086000000001
 30
0.0
 40
1.847413
 50
115.991027
 51
120.083511
  0
ARC
  5
7C
  8
0
 62
     7
 10
151.52029200000001
 20
102.928999
 30
0.0
 40
1.7542880000000001
 50
108.73702400000001
 51
116.319419
  0
ARC
  5
7D
  8
0
 62
     7
 10
151.44677999999999
 20
103.20739
 30
0.0
 40
1.467171
 50
105.9786459999999
 51
109.51067399999999
  0
ARC
  5
7E
  8
0
 62
     7
 10
151.92490100000001
 20
101.72319899999999
 30
0.0
 40
3.026066999999999
 50
105.668117
 51
106.945871
  0
ARC
  5
7F
  8
0
 62
     7
 10
150.82822899999999
 20
105.53412
 30
0.0
 40
0.9398009999999999
 50
287.29769199999998
 51
289.86832299999992
  0
ARC
  5
80
  8
0
 62
     7
 10
151.14296999999999
 20
104.671115
 30
0.0
 40
0.02137
 50
282.59389499999997
 51
326.16680700000001
  0
LINE
  5
81
  8
0
 62
     7
 10
151.316
 20
104.383
 30
0.0
 11
151.316
 21
104.265
 31
0.0
  0
ARC
  5
82
  8
0
 62
     7
 10
170.12167199999999
 20
111.37505899999999
 30
0.0
 40
20.825491
 50
199.66642100000001
 51
200.61340000000001
  0
ARC
  5
83
  8
0
 62
     7
 10
150.73559399999999
 20
103.173098
 30
0.0
 40
3.2676989999999999
 50
84.154574999999994
 51
95.845405000000014
  0
LINE
  5
84
  8
0
 62
     7
 10
151.01900000000001
 20
107.371
 30
0.0
 11
151.0679999999999
 21
106.42400000000001
 31
0.0
  0
LINE
  5
85
  8
0
 62
     7
 10
150.511
 20
104.366
 30
0.0
 11
150.40299999999999
 21
106.42400000000001
 31
0.0
  0
LINE
  5
86
  8
0
 62
     7
 10
151.0679999999999
 20
106.42400000000001
 30
0.0
 11
151.161
 21
104.65900000000001
 31
0.0
  0
ARC
  5
87
  8
0
 62
     7
 10
-646.2482829999999
 20
560.966047
 30
0.0
 40
917.70236599999987
 50
329.971273
 51
330.02745399999998
  0
ARC
  5
88
  8
0
 62
     7
 10
788.94592199999988
 20
-266.72832099999999
 30
0.0
 40
739.05964900000004
 50
149.95793
 51
150.027356
  0
ARC
  5
89
  8
0
 62
     7
 10
152.4571159999999
 20
99.248294000000001
 30
0.0
 40
5.4756099999999988
 50
110.8192
 51
178.58648199999999
  0
LINE
  5
8A
  8
0
 62
     7
 10
149.173
 20
95.495199999999997
 30
0.0
 11
148.27500000000001
 21
97.049999999999997
 31
0.0
  0
ARC
  5
8B
  8
0
 62
     7
 10
152.455782
 20
99.517137000000005
 30
0.0
 40
5.4742439999999997
 50
181.40027900000001
 51
249.190302
  0
LINE
  5
8C
  8
0
 62
     7
 10
150.35300000000001
 20
90.763300000000001
 30
0.0
 11
133.65000000000001
 21
90.763300000000001
 31
0.0
  0
LINE
  5
8D
  8
0
 62
     7
 10
133.65000000000001
 20
92.342899999999986
 30
0.0
 11
150.40299999999999
 21
92.342899999999986
 31
0.0
  0
LINE
  5
8E
  8
0
 62
     7
 10
133.65000000000001
 20
106.42400000000001
 30
0.0
 11
150.40299999999999
 21
106.42400000000001
 31
0.0
  0
ARC
  5
8F
  8
0
 62
     7
 10
147.28975500000001
 20
107.984477
 30
0.0
 40
0.029333
 50
129.280406
 51
140.71956399999999
  0
ARC
  5
90
  8
0
 62
     7
 10
147.03165799999999
 20
108.219869
 30
0.0
 40
0.320325
 50
318.39660900000013
 51
339.38578000000001
  0
ARC
  5
91
  8
0
 62
     7
 10
146.783388
 20
108.328413
 30
0.0
 40
0.5910840000000001
 50
338.01062999999999
 51
346.15983799999998
  0
ARC
  5
92
  8
0
 62
     7
 10
146.242086
 20
108.467158
 30
0.0
 40
1.149872999999999
 50
345.89925799999997
 51
354.28870799999999
  0
ARC
  5
93
  8
0
 62
     7
 10
163.92278999999999
 20
131.49867
 30
0.0
 40
28.453565000000001
 50
235.210038
 51
235.66494
  0
ARC
  5
94
  8
0
 62
     7
 10
155.07113100000001
 20
118.707173
 30
0.0
 40
12.898103000000001
 50
233.8435749999999
 51
235.081097
  0
ARC
  5
95
  8
0
 62
     7
 10
144.620757
 20
104.50219300000001
 30
0.0
 40
4.7371059999999989
 50
53.155281999999993
 51
54.004531
  0
ARC
  5
96
  8
0
 62
     7
 10
146.70627500000001
 20
107.387147
 30
0.0
 40
1.177320999999999
 50
53.603930999999989
 51
54.720751
  0
LINE
  5
97
  8
0
 62
     7
 10
147.386
 20
108.348
 30
0.0
 11
147.63200000000001
 21
113.032
 31
0.0
  0
LINE
  5
98
  8
0
 62
     7
 10
150.61699999999999
 20
107.949
 30
0.0
 11
150.608
 21
108.03100000000001
 31
0.0
  0
LINE
  5
99
  8
0
 62
     7
 10
150.40000000000001
 20
107.989
 30
0.0
 11
150.608
 21
108.03100000000001
 31
0.0
  0
LINE
  5
9A
  8
0
 62
     7
 10
147.63200000000001
 20
113.032
 30
0.0
 11
147.983
 21
113.383
 31
0.0
  0
LINE
  5
9B
  8
0
 62
     7
 10
133.65000000000001
 20
108.003
 30
0.0
 11
150.35300000000001
 21
108.003
 31
0.0
  0
ARC
  5
9C
  8
0
 62
     7
 10
150.330635
 20
107.312926
 30
0.0
 40
0.690612
 50
4.8415339999999993
 51
87.842751000000007
  0
LINE
  5
9D
  8
0
 62
     7
 10
150.40299999999999
 20
106.42400000000001
 30
0.0
 11
150.35300000000001
 21
108.003
 31
0.0
  0
LINE
  5
9E
  8
0
 62
     7
 10
154.11199999999999
 20
94.716599999999985
 30
0.0
 11
153.21600000000001
 21
94.716599999999985
 31
0.0
  0
LINE
  5
9F
  8
0
 62
     7
 10
153.21600000000001
 20
94.716599999999985
 30
0.0
 11
152.31700000000001
 21
94.716599999999985
 31
0.0
  0
ARC
  5
A0
  8
0
 62
     7
 10
152.32161500000001
 20
99.37390400000001
 30
0.0
 40
4.9895079999999989
 50
291.02600899999999
 51
308.97951599999999
  0
ARC
  5
A1
  8
0
 62
     7
 10
152.302121
 20
98.388902999999999
 30
0.0
 40
4.3047059999999986
 50
273.60153500000001
 51
282.69956999999999
  0
ARC
  5
A2
  8
0
 62
     7
 10
152.31819899999999
 20
98.014488999999998
 30
0.0
 40
3.9300290000000002
 50
268.70525500000002
 51
273.71049399999998
  0
ARC
  5
A3
  8
0
 62
     7
 10
152.333958
 20
98.533115000000009
 30
0.0
 40
4.4488799999999991
 50
264.17990300000002
 51
268.65326600000009
  0
ARC
  5
A4
  8
0
 62
     7
 10
149.91580099999999
 20
94.438967000000005
 30
0.0
 40
1.9948049999999991
 50
350.42540500000001
 51
8.570532
  0
ARC
  5
A5
  8
0
 62
     7
 10
152.56617
 20
103.223529
 30
0.0
 40
8.8213840000000001
 50
279.84126300000003
 51
284.45693699999998
  0
ARC
  5
A6
  8
0
 62
     7
 10
152.35718700000001
 20
104.44555
 30
0.0
 40
10.061143
 50
275.77597800000001
 51
279.82441599999999
  0
ARC
  5
A7
  8
0
 62
     7
 10
156.41329999999999
 20
92.782133000000002
 30
0.0
 40
3.463654
 50
151.48790399999999
 51
156.02572599999999
  0
ARC
  5
A8
  8
0
 62
     7
 10
102.503659
 20
67.273989999999998
 30
0.0
 40
59.015066000000012
 50
27.672362
 51
27.966211999999999
  0
ARC
  5
A9
  8
0
 62
     7
 10
155.25101100000001
 20
94.631621999999993
 30
0.0
 40
2.0507719999999998
 50
177.432188
 51
192.44986499999999
  0
ARC
  5
AA
  8
0
 62
     7
 10
150.610839
 20
93.794324000000003
 30
0.0
 40
2.8324139999999991
 50
13.083233999999999
 51
19.202138999999999
  0
ARC
  5
AB
  8
0
 62
     7
 10
-63.554322999999997
 20
103.263918
 30
0.0
 40
215.63164900000001
 50
357.21250099999997
 51
357.566216
  0
LINE
  5
AC
  8
0
 62
     7
 10
151.822
 20
92.777399999999986
 30
0.0
 11
151.785
 21
91.956000000000003
 31
0.0
  0
ARC
  5
AD
  8
0
 62
     7
 10
155.49820199999999
 20
95.233468999999985
 30
0.0
 40
1.8156709999999989
 50
261.51463999999999
 51
270.06276600000001
  0
ARC
  5
AE
  8
0
 62
     7
 10
155.623323
 20
96.193992000000009
 30
0.0
 40
2.7841990000000001
 50
256.26072299999998
 51
261.88466499999998
  0
ARC
  5
AF
  8
0
 62
     7
 10
155.972387
 20
97.675110000000004
 30
0.0
 40
4.30586
 50
248.55946599999999
 51
256.42965199999998
  0
ARC
  5
B0
  8
0
 62
     7
 10
157.198375
 20
101.08647999999999
 30
0.0
 40
7.9300039999999994
 50
244.84780900000001
 51
249.324138
  0
ARC
  5
B1
  8
0
 62
     7
 10
159.82844299999999
 20
107.014869
 30
0.0
 40
14.414787
 50
242.84017600000001
 51
245.40039400000001
  0
ARC
  5
B2
  8
0
 62
     7
 10
158.0935649999999
 20
93.358572999999978
 30
0.0
 40
0.6914540000000001
 50
91.932425000000009
 51
175.08628200000001
  0
LINE
  5
B3
  8
0
 62
     7
 10
155.5
 20
93.417799999999986
 30
0.0
 11
155.512
 21
93.543199999999985
 31
0.0
  0
LINE
  5
B4
  8
0
 62
     7
 10
155.512
 20
93.543199999999985
 30
0.0
 11
155.53700000000001
 21
93.662400000000005
 31
0.0
  0
LINE
  5
B5
  8
0
 62
     7
 10
155.53700000000001
 20
93.662400000000005
 30
0.0
 11
155.577
 21
93.771299999999997
 31
0.0
  0
LINE
  5
B6
  8
0
 62
     7
 10
155.577
 20
93.771299999999997
 30
0.0
 11
155.63
 21
93.866699999999994
 31
0.0
  0
LINE
  5
B7
  8
0
 62
     7
 10
155.63
 20
93.866699999999994
 30
0.0
 11
155.69200000000001
 21
93.944900000000004
 31
0.0
  0
LINE
  5
B8
  8
0
 62
     7
 10
155.69200000000001
 20
93.944900000000004
 30
0.0
 11
155.762
 21
94.002399999999994
 31
0.0
  0
LINE
  5
B9
  8
0
 62
     7
 10
155.762
 20
94.002399999999994
 30
0.0
 11
155.83799999999999
 21
94.037899999999979
 31
0.0
  0
LINE
  5
BA
  8
0
 62
     7
 10
155.83799999999999
 20
94.037899999999979
 30
0.0
 11
155.916
 21
94.049599999999998
 31
0.0
  0
ARC
  5
BB
  8
0
 62
     7
 10
155.91403600000001
 20
99.194516000000021
 30
0.0
 40
5.1448819999999991
 50
263.04146900000001
 51
270.02590300000003
  0
ARC
  5
BC
  8
0
 62
     7
 10
156.39320799999999
 20
104.230993
 30
0.0
 40
10.203200000000001
 50
260.18601100000001
 51
263.79695199999998
  0
ARC
  5
BD
  8
0
 62
     7
 10
157.71463399999999
 20
112.39426400000001
 30
0.0
 40
18.472466000000001
 50
257.71044499999999
 51
260.46312699999999
  0
ARC
  5
BE
  8
0
 62
     7
 10
162.414467
 20
134.776681
 30
0.0
 40
41.342702999999993
 50
257.36293799999999
 51
257.94884400000001
  0
LINE
  5
BF
  8
0
 62
     7
 10
155.5
 20
93.417799999999986
 30
0.0
 11
157.405
 21
93.417799999999986
 31
0.0
  0
ARC
  5
C0
  8
0
 62
     7
 10
161.683516
 20
87.389438999999996
 30
0.0
 40
0.339619
 50
270.69266699999997
 51
331.93930599999999
  0
LINE
  5
C1
  8
0
 62
     7
 10
161.68799999999999
 20
87.049800000000005
 30
0.0
 11
160.98699999999999
 21
87.049800000000005
 31
0.0
  0
ARC
  5
C2
  8
0
 62
     7
 10
160.99858399999999
 20
87.395418000000006
 30
0.0
 40
0.345771
 50
184.92020299999999
 51
268.06108999999998
  0
LINE
  5
C3
  8
0
 62
     7
 10
160.92099999999999
 20
88.629099999999994
 30
0.0
 11
161.75399999999999
 21
88.629099999999994
 31
0.0
  0
ARC
  5
C4
  8
0
 62
     7
 10
160.753995
 20
90.264526000000004
 30
0.0
 40
1.643918
 50
264.178451
 51
275.82156900000001
  0
ARC
  5
C5
  8
0
 62
     7
 10
162.01091700000001
 20
93.368465999999984
 30
0.0
 40
4.7463499999999987
 50
266.89429699999999
 51
269.665569
  0
LINE
  5
C6
  8
0
 62
     7
 10
161.68799999999999
 20
87.049800000000005
 30
0.0
 11
161.75399999999999
 21
88.629099999999994
 31
0.0
  0
LINE
  5
C7
  8
0
 62
     7
 10
161.983
 20
87.229699999999994
 30
0.0
 11
161.983
 21
87.255200000000016
 31
0.0
  0
LINE
  5
C8
  8
0
 62
     7
 10
161.983
 20
87.255200000000016
 30
0.0
 11
161.983
 21
87.330299999999994
 31
0.0
  0
LINE
  5
C9
  8
0
 62
     7
 10
161.983
 20
87.330299999999994
 30
0.0
 11
161.983
 21
87.453599999999994
 31
0.0
  0
LINE
  5
CA
  8
0
 62
     7
 10
161.983
 20
87.453599999999994
 30
0.0
 11
161.983
 21
87.622799999999998
 31
0.0
  0
LINE
  5
CB
  8
0
 62
     7
 10
161.983
 20
87.622799999999998
 30
0.0
 11
161.983
 21
87.830500000000015
 31
0.0
  0
LINE
  5
CC
  8
0
 62
     7
 10
161.983
 20
87.830500000000015
 30
0.0
 11
161.983
 21
88.072999999999993
 31
0.0
  0
LINE
  5
CD
  8
0
 62
     7
 10
161.983
 20
88.072999999999993
 30
0.0
 11
161.983
 21
88.338300000000004
 31
0.0
  0
LINE
  5
CE
  8
0
 62
     7
 10
161.983
 20
88.338300000000004
 30
0.0
 11
161.983
 21
88.622200000000007
 31
0.0
  0
LINE
  5
CF
  8
0
 62
     7
 10
160.92099999999999
 20
88.629099999999994
 30
0.0
 11
160.98699999999999
 21
87.049800000000005
 31
0.0
  0
LINE
  5
D0
  8
0
 62
     7
 10
160.654
 20
87.365799999999993
 30
0.0
 11
160.58699999999999
 21
88.629099999999994
 31
0.0
  0
ARC
  5
D1
  8
0
 62
     7
 10
159.93750199999999
 20
91.558033999999992
 30
0.0
 40
3.1411150000000001
 50
83.918138999999996
 51
96.081842000000009
  0
LINE
  5
D2
  8
0
 62
     7
 10
159.67099999999999
 20
94.049599999999998
 30
0.0
 11
159.60499999999999
 21
94.681499999999986
 31
0.0
  0
ARC
  5
D3
  8
0
 62
     7
 10
159.014859
 20
93.696116000000004
 30
0.0
 40
1.303042
 50
4.5970769999999987
 51
6.7436369999999979
  0
ARC
  5
D4
  8
0
 62
     7
 10
160.11219399999999
 20
93.816973000000004
 30
0.0
 40
0.199303
 50
9.2845880000000012
 51
27.97113400000001
  0
ARC
  5
D5
  8
0
 62
     7
 10
160.154257
 20
93.837980999999985
 30
0.0
 40
0.152304
 50
28.413125999999998
 51
44.589748999999998
  0
ARC
  5
D6
  8
0
 62
     7
 10
160.147873
 20
93.826260000000005
 30
0.0
 40
0.165125
 50
45.931300999999991
 51
69.307329999999993
  0
ARC
  5
D7
  8
0
 62
     7
 10
160.00849299999999
 20
93.539214000000001
 30
0.0
 40
0.4837710000000001
 50
65.875388000000001
 51
79.249320999999995
  0
ARC
  5
D8
  8
0
 62
     7
 10
159.86022800000001
 20
92.975401000000005
 30
0.0
 40
1.066114
 50
77.072673999999992
 51
85.769176999999999
  0
ARC
  5
D9
  8
0
 62
     7
 10
159.68254099999999
 20
91.070130000000006
 30
0.0
 40
2.979527
 50
85.064542999999986
 51
90.224816000000018
  0
ARC
  5
DA
  8
0
 62
     7
 10
159.682919
 20
93.745086999999984
 30
0.0
 40
0.635767
 50
2.9507019999999988
 51
16.107600999999999
  0
ARC
  5
DB
  8
0
 62
     7
 10
159.96856099999999
 20
93.818413000000007
 30
0.0
 40
0.341108
 50
17.586217000000001
 51
38.780863000000011
  0
ARC
  5
DC
  8
0
 62
     7
 10
160.07087000000001
 20
93.889712000000003
 30
0.0
 40
0.216863
 50
41.027064000000003
 51
69.652474999999995
  0
ARC
  5
DD
  8
0
 62
     7
 10
160.057738
 20
93.846852999999996
 30
0.0
 40
0.261626
 50
70.219740999999999
 51
92.641958000000017
  0
ARC
  5
DE
  8
0
 62
     7
 10
160.055138
 20
93.644800999999987
 30
0.0
 40
0.4634970000000001
 50
91.169450999999995
 51
98.563495000000003
  0
ARC
  5
DF
  8
0
 62
     7
 10
160.194895
 20
92.767929000000024
 30
0.0
 40
1.3514250000000001
 50
98.886866999999995
 51
104.75588399999999
  0
ARC
  5
E0
  8
0
 62
     7
 10
159.51796300000001
 20
95.540749000000005
 30
0.0
 40
1.5032490000000001
 50
278.92110700000001
 51
282.78748200000001
  0
ARC
  5
E1
  8
0
 62
     7
 10
159.66778600000001
 20
94.625189000000006
 30
0.0
 40
0.5755630000000001
 50
270.305004
 51
278.32072299999999
  0
LINE
  5
E2
  8
0
 62
     7
 10
161.75399999999999
 20
88.629099999999994
 30
0.0
 11
161.983
 21
93.013999999999996
 31
0.0
  0
LINE
  5
E3
  8
0
 62
     7
 10
161.983
 20
88.622200000000007
 30
0.0
 11
161.983
 21
93.013999999999996
 31
0.0
  0
LINE
  5
E4
  8
0
 62
     7
 10
154.768
 20
94.681499999999986
 30
0.0
 11
159.60499999999999
 21
94.681499999999986
 31
0.0
  0
LINE
  5
E5
  8
0
 62
     7
 10
159.67099999999999
 20
94.049599999999998
 30
0.0
 11
155.916
 21
94.049599999999998
 31
0.0
  0
LINE
  5
E6
  8
0
 62
     7
 10
153.583
 20
99.383399999999995
 30
0.0
 11
153.583
 21
97.430999999999997
 31
0.0
  0
ARC
  5
E7
  8
0
 62
     7
 10
153.1508
 20
99.377184000000014
 30
0.0
 40
1.99404
 50
272.37132300000002
 51
283.543746
  0
ARC
  5
E8
  8
0
 62
     7
 10
153.149854
 20
99.379887999999994
 30
0.0
 40
1.9968900000000001
 50
283.55195500000002
 51
294.70161400000001
  0
ARC
  5
E9
  8
0
 62
     7
 10
153.15682200000001
 20
99.372546999999997
 30
0.0
 40
1.987311
 50
294.60754500000002
 51
305.69817799999998
  0
ARC
  5
EA
  8
0
 62
     7
 10
153.30125200000001
 20
99.191300999999996
 30
0.0
 40
1.7558819999999991
 50
305.32189099999999
 51
311.61384700000002
  0
ARC
  5
EB
  8
0
 62
     7
 10
153.23966799999999
 20
99.288177000000005
 30
0.0
 40
1.869297999999999
 50
311.05311599999999
 51
316.895602
  0
ARC
  5
EC
  8
0
 62
     7
 10
153.197036
 20
99.349722999999997
 30
0.0
 40
1.9425439999999989
 50
316.42946499999999
 51
327.64732599999991
  0
ARC
  5
ED
  8
0
 62
     7
 10
153.11130499999999
 20
99.403937999999997
 30
0.0
 40
2.0439790000000002
 50
327.649496
 51
338.237416
  0
ARC
  5
EE
  8
0
 62
     7
 10
153.068342
 20
99.404181999999992
 30
0.0
 40
2.0840299999999989
 50
338.66914400000002
 51
349.03688199999999
  0
ARC
  5
EF
  8
0
 62
     7
 10
153.028694
 20
99.40329100000001
 30
0.0
 40
2.122800999999999
 50
349.26399099999998
 51
354.35742700000009
  0
ARC
  5
F0
  8
0
 62
     7
 10
153.330995
 20
99.375067000000001
 30
0.0
 40
1.819191
 50
354.30591299999998
 51
0.261336
  0
LINE
  5
F1
  8
0
 62
     7
 10
153.14400000000001
 20
97.383099999999999
 30
0.0
 11
152.322
 21
97.383099999999999
 31
0.0
  0
ARC
  5
F2
  8
0
 62
     7
 10
153.13263900000001
 20
100.289663
 30
0.0
 40
2.9065549999999991
 50
270.218658
 51
271.98477300000002
  0
LINE
  5
F3
  8
0
 62
     7
 10
152.322
 20
97.549899999999994
 30
0.0
 11
152.322
 21
97.383099999999999
 31
0.0
  0
ARC
  5
F4
  8
0
 62
     7
 10
152.34962400000001
 20
97.395167999999998
 30
0.0
 40
0.021864
 50
175.06111000000001
 51
213.4072339999999
  0
ARC
  5
F5
  8
0
 62
     7
 10
153.718345
 20
97.522929000000005
 30
0.0
 40
1.3961909999999991
 50
178.894172
 51
185.17274499999999
  0
ARC
  5
F6
  8
0
 62
     7
 10
151.65639200000001
 20
89.714213999999998
 30
0.0
 40
11.773401
 50
80.949964000000008
 51
82.302747999999994
  0
ARC
  5
F7
  8
0
 62
     7
 10
153.126721
 20
99.064263999999994
 30
0.0
 40
2.3085450000000001
 50
71.705984999999998
 51
80.485670999999996
  0
ARC
  5
F8
  8
0
 62
     7
 10
153.303583
 20
99.682358999999991
 30
0.0
 40
1.666377999999999
 50
56.354546999999997
 51
70.808785999999998
  0
ARC
  5
F9
  8
0
 62
     7
 10
153.04817600000001
 20
99.254941000000017
 30
0.0
 40
2.1638399999999991
 50
51.343415999999991
 51
56.995068999999987
  0
ARC
  5
FA
  8
0
 62
     7
 10
153.15982099999999
 20
99.392752999999999
 30
0.0
 40
1.9864820000000001
 50
32.495704000000003
 51
51.375135
  0
ARC
  5
FB
  8
0
 62
     7
 10
153.37493499999999
 20
99.589915000000005
 30
0.0
 40
1.699883
 50
21.795658
 51
30.785710999999999
  0
ARC
  5
FC
  8
0
 62
     7
 10
150.56893500000001
 20
98.431733999999992
 30
0.0
 40
4.735441999999999
 50
18.279432
 51
22.201304
  0
LINE
  5
FD
  8
0
 62
     7
 10
152.322
 20
101.383
 30
0.0
 11
153.14400000000001
 21
101.383
 31
0.0
  0
LINE
  5
FE
  8
0
 62
     7
 10
153.14400000000001
 20
101.383
 30
0.0
 11
153.233
 21
101.38200000000001
 31
0.0
  0
LINE
  5
FF
  8
0
 62
     7
 10
152.322
 20
101.217
 30
0.0
 11
152.322
 21
101.383
 31
0.0
  0
ARC
  5
100
  8
0
 62
     7
 10
153.85922400000001
 20
101.217568
 30
0.0
 40
1.53681
 50
173.810756
 51
180.039411
  0
LINE
  5
101
  8
0
 62
     7
 10
153.583
 20
101.342
 30
0.0
 11
153.583
 21
99.383399999999995
 31
0.0
  0
LINE
  5
102
  8
0
 62
     7
 10
157.256
 20
98.604399999999998
 30
0.0
 11
156.358
 21
97.049999999999997
 31
0.0
  0
ARC
  5
103
  8
0
 62
     7
 10
157.47824800000001
 20
98.067141000000007
 30
0.0
 40
0.649253
 50
89.806162999999984
 51
108.938001
  0
LINE
  5
104
  8
0
 62
     7
 10
157.47999999999999
 20
98.716399999999993
 30
0.0
 11
159.49600000000001
 21
98.716399999999993
 31
0.0
  0
LINE
  5
105
  8
0
 62
     7
 10
159.42599999999999
 20
98.716399999999993
 30
0.0
 11
159.42599999999999
 21
98.084900000000005
 31
0.0
  0
LINE
  5
106
  8
0
 62
     7
 10
157.47999999999999
 20
98.716399999999993
 30
0.0
 11
157.47999999999999
 21
98.084900000000005
 31
0.0
  0
LINE
  5
107
  8
0
 62
     7
 10
157.47999999999999
 20
98.084900000000005
 30
0.0
 11
159.42599999999999
 21
98.084900000000005
 31
0.0
  0
ARC
  5
108
  8
0
 62
     7
 10
155.076359
 20
88.854942000000008
 30
0.0
 40
9.5379120000000004
 50
75.400797999999995
 51
78.283058999999994
  0
ARC
  5
109
  8
0
 62
     7
 10
-206.551931
 20
-108.427256
 30
0.0
 40
419.36140899999992
 50
29.950157999999998
 51
30.073060000000002
  0
ARC
  5
10A
  8
0
 62
     7
 10
797.02885599999991
 20
470.16146199999991
 30
0.0
 40
739.05964900000004
 50
209.972644
 51
210.04207
  0
LINE
  5
10B
  8
0
 62
     7
 10
157.47999999999999
 20
100.05
 30
0.0
 11
159.49600000000001
 21
100.05
 31
0.0
  0
ARC
  5
10C
  8
0
 62
     7
 10
157.48111599999999
 20
100.722875
 30
0.0
 40
0.6728800000000001
 50
251.49356299999999
 51
269.94282700000002
  0
LINE
  5
10D
  8
0
 62
     7
 10
159.42599999999999
 20
100.681
 30
0.0
 11
159.42599999999999
 21
100.05
 31
0.0
  0
LINE
  5
10E
  8
0
 62
     7
 10
159.42599999999999
 20
100.681
 30
0.0
 11
157.47999999999999
 21
100.681
 31
0.0
  0
LINE
  5
10F
  8
0
 62
     7
 10
157.47999999999999
 20
100.681
 30
0.0
 11
157.47999999999999
 21
100.05
 31
0.0
  0
ARC
  5
110
  8
0
 62
     7
 10
155.095978
 20
109.800963
 30
0.0
 40
9.4260579999999994
 50
281.76610800000009
 51
284.65306900000002
  0
ARC
  5
111
  8
0
 62
     7
 10
152.20957899999999
 20
99.383193000000006
 30
0.0
 40
4.7595640000000001
 50
330.64534500000002
 51
29.354655000000001
  0
ARC
  5
112
  8
0
 62
     7
 10
152.311678
 20
99.383193000000006
 30
0.0
 40
5.0051019999999991
 50
351.04869500000001
 51
8.9513049999999996
  0
LINE
  5
113
  8
0
 62
     7
 10
154.11199999999999
 20
104.05
 30
0.0
 11
153.21600000000001
 21
104.05
 31
0.0
  0
LINE
  5
114
  8
0
 62
     7
 10
153.21600000000001
 20
104.05
 30
0.0
 11
152.31700000000001
 21
104.05
 31
0.0
  0
ARC
  5
115
  8
0
 62
     7
 10
152.304441
 20
99.364811000000003
 30
0.0
 40
5.0218220000000002
 50
51.066746999999999
 51
68.905772999999996
  0
LINE
  5
116
  8
0
 62
     7
 10
152.31700000000001
 20
104.383
 30
0.0
 11
152.31700000000001
 21
104.05
 31
0.0
  0
LINE
  5
117
  8
0
 62
     7
 10
153.31700000000001
 20
104.383
 30
0.0
 11
153.31700000000001
 21
104.05
 31
0.0
  0
LINE
  5
118
  8
0
 62
     7
 10
152.31700000000001
 20
104.383
 30
0.0
 11
153.31700000000001
 21
104.383
 31
0.0
  0
LINE
  5
119
  8
0
 62
     7
 10
152.816
 20
105.015
 30
0.0
 11
151.81700000000001
 21
105.015
 31
0.0
  0
LINE
  5
11A
  8
0
 62
     7
 10
151.785
 20
106.81
 30
0.0
 11
151.81700000000001
 21
106.111
 31
0.0
  0
LINE
  5
11B
  8
0
 62
     7
 10
151.81700000000001
 20
105.015
 30
0.0
 11
151.81700000000001
 21
104.383
 31
0.0
  0
LINE
  5
11C
  8
0
 62
     7
 10
152.816
 20
104.383
 30
0.0
 11
152.816
 21
105.015
 31
0.0
  0
ARC
  5
11D
  8
0
 62
     7
 10
152.2623669999999
 20
99.289978000000005
 30
0.0
 40
4.7604550000000003
 50
30.644074
 51
89.343594999999993
  0
ARC
  5
11E
  8
0
 62
     7
 10
-598.82055699999989
 20
-333.31954000000002
 30
0.0
 40
871.52220699999987
 50
29.944963000000001
 51
30.062995000000001
  0
ARC
  5
11F
  8
0
 62
     7
 10
152.204791
 20
99.217422999999997
 30
0.0
 40
5.4750339999999991
 50
15.510019
 51
83.585693999999975
  0
ARC
  5
120
  8
0
 62
     7
 10
160.099568
 20
98.083331999999984
 30
0.0
 40
0.007882
 50
98.762053000000023
 51
168.52848700000001
  0
ARC
  5
121
  8
0
 62
     7
 10
160.138721
 20
97.966071000000014
 30
0.0
 40
0.131401
 50
91.428307000000004
 51
107.88457699999999
  0
ARC
  5
122
  8
0
 62
     7
 10
160.19523000000001
 20
97.092981000000009
 30
0.0
 40
1.0062279999999999
 50
87.180835000000002
 51
93.406210000000002
  0
ARC
  5
123
  8
0
 62
     7
 10
160.129435
 20
95.270661000000004
 30
0.0
 40
2.8296799999999989
 50
84.011702999999997
 51
87.665024999999986
  0
ARC
  5
124
  8
0
 62
     7
 10
160.10856200000001
 20
103.751605
 30
0.0
 40
3.0863480000000001
 50
273.047166
 51
275.87809700000003
  0
ARC
  5
125
  8
0
 62
     7
 10
160.19821999999999
 20
101.864463
 30
0.0
 40
1.197155999999999
 50
266.99424399999998
 51
273.5633509999999
  0
ARC
  5
126
  8
0
 62
     7
 10
160.12790000000001
 20
100.724819
 30
0.0
 40
0.056373
 50
230.23767400000011
 51
277.69226300000003
  0
LINE
  5
127
  8
0
 62
     7
 10
161.983
 20
99.383399999999995
 30
0.0
 11
161.983
 21
105.752
 31
0.0
  0
ARC
  5
128
  8
0
 62
     7
 10
159.496578
 20
100.846806
 30
0.0
 40
0.796812
 50
269.946777
 51
291.02632999999997
  0
ARC
  5
129
  8
0
 62
     7
 10
159.45600400000001
 20
100.980428
 30
0.0
 40
0.936148
 50
290.409965
 51
308.39374299999997
  0
ARC
  5
12A
  8
0
 62
     7
 10
159.219683
 20
101.303285
 30
0.0
 40
1.336049
 50
307.73780599999998
 51
320.24866900000001
  0
ARC
  5
12B
  8
0
 62
     7
 10
158.275238
 20
102.140365
 30
0.0
 40
2.597742999999999
 50
319.374392
 51
325.83380899999997
  0
ARC
  5
12C
  8
0
 62
     7
 10
159.496578
 20
97.919578999999985
 30
0.0
 40
0.796812
 50
68.973669999999998
 51
90.053223000000017
  0
ARC
  5
12D
  8
0
 62
     7
 10
159.45600400000001
 20
97.785956999999996
 30
0.0
 40
0.936148
 50
51.606256999999999
 51
69.590035
  0
ARC
  5
12E
  8
0
 62
     7
 10
159.25034199999999
 20
97.494855999999984
 30
0.0
 40
1.292179999999999
 50
39.538068000000003
 51
52.475458000000003
  0
ARC
  5
12F
  8
0
 62
     7
 10
158.275238
 20
96.626019999999997
 30
0.0
 40
2.597742999999999
 50
34.166191000000012
 51
40.625607999999993
  0
ARC
  5
130
  8
0
 62
     7
 10
159.40329700000001
 20
100.740702
 30
0.0
 40
0.6910880000000002
 50
271.90303299999999
 51
355.08450699999997
  0
ARC
  5
131
  8
0
 62
     7
 10
159.402862
 20
98.02522500000002
 30
0.0
 40
0.691561
 50
4.950264999999999
 51
88.062194999999988
  0
ARC
  5
132
  8
0
 62
     7
 10
159.75904499999999
 20
94.899101999999999
 30
0.0
 40
3.2031329999999998
 50
84.036325999999988
 51
95.963654000000005
  0
ARC
  5
133
  8
0
 62
     7
 10
159.75904499999999
 20
103.932193
 30
0.0
 40
3.2676989999999999
 50
264.15459499999997
 51
275.84542499999998
  0
ARC
  5
134
  8
0
 62
     7
 10
950.88139899999999
 20
-362.19966099999999
 30
0.0
 40
917.70236599999987
 50
149.97125299999999
 51
150.027434
  0
ARC
  5
135
  8
0
 62
     7
 10
-484.31280599999991
 20
465.49470599999989
 30
0.0
 40
739.05964900000004
 50
329.95794999999998
 51
330.027376
  0
ARC
  5
136
  8
0
 62
     7
 10
152.26171099999999
 20
99.478245999999999
 30
0.0
 40
4.7619569999999989
 50
270.66409199999998
 51
329.340913
  0
LINE
  5
137
  8
0
 62
     7
 10
160.42500000000001
 20
98.084900000000005
 30
0.0
 11
160.92099999999999
 21
88.629099999999994
 31
0.0
  0
LINE
  5
138
  8
0
 62
     7
 10
161.983
 20
93.013999999999996
 30
0.0
 11
161.983
 21
99.383399999999995
 31
0.0
  0
LINE
  5
139
  8
0
 62
     7
 10
160.58699999999999
 20
88.629099999999994
 30
0.0
 11
160.09200000000001
 21
98.084900000000005
 31
0.0
  0
LINE
  5
13A
  8
0
 62
     7
 10
159.60499999999999
 20
94.681499999999986
 30
0.0
 11
159.42599999999999
 21
98.084900000000005
 31
0.0
  0
ARC
  5
13B
  8
0
 62
     7
 10
152.25507099999999
 20
99.466464000000002
 30
0.0
 40
5.4049279999999991
 50
297.711253
 51
345.19015300000001
  0
LINE
  5
13C
  8
0
 62
     7
 10
152.816
 20
109.383
 30
0.0
 11
151.81700000000001
 21
109.383
 31
0.0
  0
ARC
  5
13D
  8
0
 62
     7
 10
155.42065600000001
 20
107.574423
 30
0.0
 40
1.773944
 50
90.057145000000006
 51
98.698117000000011
  0
ARC
  5
13E
  8
0
 62
     7
 10
155.55580599999999
 20
106.62801899999999
 30
0.0
 40
2.7299189999999989
 50
98.498156000000023
 51
106.099869
  0
ARC
  5
13F
  8
0
 62
     7
 10
156.01645199999999
 20
104.918706
 30
0.0
 40
4.5000450000000001
 50
105.699628
 51
110.03280700000001
  0
ARC
  5
140
  8
0
 62
     7
 10
156.69345000000001
 20
103.028693
 30
0.0
 40
6.5076269999999994
 50
109.932417
 51
113.022857
  0
ARC
  5
141
  8
0
 62
     7
 10
158.20377300000001
 20
99.454556000000025
 30
0.0
 40
10.387767
 50
112.979748
 51
117.00167
  0
ARC
  5
142
  8
0
 62
     7
 10
160.779898
 20
94.122050999999985
 30
0.0
 40
16.309080999999999
 50
116.559939
 51
117.882913
  0
ARC
  5
143
  8
0
 62
     7
 10
166.85832400000001
 20
82.408181999999996
 30
0.0
 40
29.505894000000001
 50
117.67818
 51
118.41800600000001
  0
ARC
  5
144
  8
0
 62
     7
 10
157.88419300000001
 20
109.40769
 30
0.0
 40
0.691554
 50
184.92103299999999
 51
268.06026000000003
  0
LINE
  5
145
  8
0
 62
     7
 10
157.00200000000001
 20
113.032
 30
0.0
 11
157.19499999999999
 21
109.348
 31
0.0
  0
ARC
  5
146
  8
0
 62
     7
 10
155.83912900000001
 20
104.084638
 30
0.0
 40
4.6318939999999991
 50
89.965143000000012
 51
95.392465000000016
  0
ARC
  5
147
  8
0
 62
     7
 10
156.104435
 20
100.802674
 30
0.0
 40
7.9243909999999991
 50
95.072163000000003
 51
97.282910999999984
  0
ARC
  5
148
  8
0
 62
     7
 10
156.499233
 20
97.586945999999998
 30
0.0
 40
11.164235
 50
97.200585999999987
 51
101.130655
  0
ARC
  5
149
  8
0
 62
     7
 10
158.3622629999999
 20
87.235962000000015
 30
0.0
 40
21.680833
 50
100.680751
 51
102.7356829999999
  0
ARC
  5
14A
  8
0
 62
     7
 10
163.99766099999999
 20
61.75377499999999
 30
0.0
 40
47.778590000000001
 50
102.590706
 51
103.53393800000001
  0
LINE
  5
14B
  8
0
 62
     7
 10
155.84200000000001
 20
108.717
 30
0.0
 11
155.762
 21
108.729
 31
0.0
  0
LINE
  5
14C
  8
0
 62
     7
 10
155.762
 20
108.729
 30
0.0
 11
155.685
 21
108.764
 31
0.0
  0
LINE
  5
14D
  8
0
 62
     7
 10
155.685
 20
108.764
 30
0.0
 11
155.614
 21
108.822
 31
0.0
  0
LINE
  5
14E
  8
0
 62
     7
 10
155.614
 20
108.822
 30
0.0
 11
155.55000000000001
 21
108.899
 31
0.0
  0
LINE
  5
14F
  8
0
 62
     7
 10
155.55000000000001
 20
108.899
 30
0.0
 11
155.49700000000001
 21
108.995
 31
0.0
  0
LINE
  5
150
  8
0
 62
     7
 10
155.49700000000001
 20
108.995
 30
0.0
 11
155.45699999999999
 21
109.104
 31
0.0
  0
LINE
  5
151
  8
0
 62
     7
 10
155.45699999999999
 20
109.104
 30
0.0
 11
155.43100000000001
 21
109.223
 31
0.0
  0
LINE
  5
152
  8
0
 62
     7
 10
155.43100000000001
 20
109.223
 30
0.0
 11
155.41900000000001
 21
109.348
 31
0.0
  0
LINE
  5
153
  8
0
 62
     7
 10
157.19499999999999
 20
109.348
 30
0.0
 11
155.41900000000001
 21
109.348
 31
0.0
  0
LINE
  5
154
  8
0
 62
     7
 10
156.65000000000001
 20
113.383
 30
0.0
 11
152.31700000000001
 21
113.383
 31
0.0
  0
LINE
  5
155
  8
0
 62
     7
 10
156.65000000000001
 20
113.383
 30
0.0
 11
157.00200000000001
 21
113.032
 31
0.0
  0
ARC
  5
156
  8
0
 62
     7
 10
159.76142999999999
 20
115.424449
 30
0.0
 40
6.708969999999999
 50
271.01534900000013
 51
272.96434799999997
  0
ARC
  5
157
  8
0
 62
     7
 10
159.99634900000001
 20
110.319306
 30
0.0
 40
1.5987809999999989
 50
274.01818399999991
 51
280.34290600000008
  0
ARC
  5
158
  8
0
 62
     7
 10
160.13599500000001
 20
109.500641
 30
0.0
 40
0.7684060000000001
 50
281.05913900000002
 51
289.91787999999991
  0
ARC
  5
159
  8
0
 62
     7
 10
160.29398699999999
 20
109.047453
 30
0.0
 40
0.288562
 50
291.07892500000003
 51
306.58710000000002
  0
ARC
  5
15A
  8
0
 62
     7
 10
160.39852500000001
 20
108.902326
 30
0.0
 40
0.109753
 50
307.92522200000002
 51
335.46324499999997
  0
ARC
  5
15B
  8
0
 62
     7
 10
160.31608800000001
 20
108.952603
 30
0.0
 40
0.205946
 50
332.26147099999997
 51
351.41517299999998
  0
ARC
  5
15C
  8
0
 62
     7
 10
159.980512
 20
108.994195
 30
0.0
 40
0.544044
 50
352.35954299999997
 51
359.71114799999998
  0
LINE
  5
15D
  8
0
 62
     7
 10
161.75399999999999
 20
110.137
 30
0.0
 11
160.92099999999999
 21
110.137
 31
0.0
  0
ARC
  5
15E
  8
0
 62
     7
 10
160.753995
 20
108.534171
 30
0.0
 40
1.611432999999999
 50
84.060655000000025
 51
95.939325000000011
  0
ARC
  5
15F
  8
0
 62
     7
 10
162.00697199999999
 20
105.94852
 30
0.0
 40
4.1960800000000003
 50
90.324417000000011
 51
93.459492999999995
  0
ARC
  5
160
  8
0
 62
     7
 10
160.14696499999999
 20
111.208477
 30
0.0
 40
3.1411150000000001
 50
263.91815800000001
 51
276.08186100000012
  0
ARC
  5
161
  8
0
 62
     7
 10
159.896064
 20
109.020883
 30
0.0
 40
0.6320800000000001
 50
343.84686599999998
 51
357.04986100000002
  0
ARC
  5
162
  8
0
 62
     7
 10
160.18143800000001
 20
108.946268
 30
0.0
 40
0.337302
 50
321.09813300000008
 51
342.53478699999999
  0
ARC
  5
163
  8
0
 62
     7
 10
160.278817
 20
108.878118
 30
0.0
 40
0.218873
 50
290.76863300000002
 51
318.97283399999998
  0
ARC
  5
164
  8
0
 62
     7
 10
160.267742
 20
108.920086
 30
0.0
 40
0.26208
 50
267.24431700000002
 51
289.779111
  0
ARC
  5
165
  8
0
 62
     7
 10
160.26305500000001
 20
109.123203
 30
0.0
 40
0.464961
 50
261.84934399999997
 51
269.02481299999999
  0
ARC
  5
166
  8
0
 62
     7
 10
160.39071000000001
 20
109.939295
 30
0.0
 40
1.2909520000000001
 50
255.16358099999999
 51
261.37611800000002
  0
ARC
  5
167
  8
0
 62
     7
 10
159.765703
 20
107.436018
 30
0.0
 40
1.2894330000000001
 50
76.799909999999997
 51
81.120318999999995
  0
ARC
  5
168
  8
0
 62
     7
 10
159.87723299999999
 20
108.128112
 30
0.0
 40
0.588428
 50
81.447683999999995
 51
89.700133999999991
  0
LINE
  5
169
  8
0
 62
     7
 10
159.81399999999999
 20
108.08499999999999
 30
0.0
 11
159.88
 21
108.717
 31
0.0
  0
ARC
  5
16A
  8
0
 62
     7
 10
161.68339
 20
111.377045
 30
0.0
 40
0.339521
 50
27.984641
 51
89.285958999999991
  0
LINE
  5
16B
  8
0
 62
     7
 10
160.98699999999999
 20
111.717
 30
0.0
 11
161.68799999999999
 21
111.717
 31
0.0
  0
ARC
  5
16C
  8
0
 62
     7
 10
160.99813499999999
 20
111.371439
 30
0.0
 40
0.345284
 50
91.867215000000002
 51
175.15149199999999
  0
LINE
  5
16D
  8
0
 62
     7
 10
161.75399999999999
 20
110.137
 30
0.0
 11
161.68799999999999
 21
111.717
 31
0.0
  0
LINE
  5
16E
  8
0
 62
     7
 10
161.983
 20
110.145
 30
0.0
 11
161.983
 21
110.426
 31
0.0
  0
LINE
  5
16F
  8
0
 62
     7
 10
161.983
 20
110.426
 30
0.0
 11
161.983
 21
110.693
 31
0.0
  0
LINE
  5
170
  8
0
 62
     7
 10
161.983
 20
110.693
 30
0.0
 11
161.983
 21
110.934
 31
0.0
  0
LINE
  5
171
  8
0
 62
     7
 10
161.983
 20
110.934
 30
0.0
 11
161.983
 21
111.143
 31
0.0
  0
LINE
  5
172
  8
0
 62
     7
 10
161.983
 20
111.143
 30
0.0
 11
161.983
 21
111.31100000000001
 31
0.0
  0
LINE
  5
173
  8
0
 62
     7
 10
161.983
 20
111.31100000000001
 30
0.0
 11
161.983
 21
111.43600000000001
 31
0.0
  0
LINE
  5
174
  8
0
 62
     7
 10
161.983
 20
111.43600000000001
 30
0.0
 11
161.983
 21
111.511
 31
0.0
  0
LINE
  5
175
  8
0
 62
     7
 10
161.983
 20
111.511
 30
0.0
 11
161.983
 21
111.536
 31
0.0
  0
LINE
  5
176
  8
0
 62
     7
 10
160.98699999999999
 20
111.717
 30
0.0
 11
160.92099999999999
 21
110.137
 31
0.0
  0
LINE
  5
177
  8
0
 62
     7
 10
160.58699999999999
 20
110.137
 30
0.0
 11
160.654
 21
111.401
 31
0.0
  0
LINE
  5
178
  8
0
 62
     7
 10
159.81399999999999
 20
108.08499999999999
 30
0.0
 11
152.816
 21
108.08499999999999
 31
0.0
  0
LINE
  5
179
  8
0
 62
     7
 10
155.84200000000001
 20
108.717
 30
0.0
 11
159.88
 21
108.717
 31
0.0
  0
LINE
  5
17A
  8
0
 62
     7
 10
161.983
 20
105.752
 30
0.0
 11
161.75399999999999
 21
110.137
 31
0.0
  0
LINE
  5
17B
  8
0
 62
     7
 10
160.92099999999999
 20
110.137
 30
0.0
 11
160.42500000000001
 21
100.681
 31
0.0
  0
LINE
  5
17C
  8
0
 62
     7
 10
160.09200000000001
 20
100.681
 30
0.0
 11
160.58699999999999
 21
110.137
 31
0.0
  0
LINE
  5
17D
  8
0
 62
     7
 10
161.983
 20
105.752
 30
0.0
 11
161.983
 21
110.145
 31
0.0
  0
LINE
  5
17E
  8
0
 62
     7
 10
159.42599999999999
 20
100.681
 30
0.0
 11
159.81399999999999
 21
108.08499999999999
 31
0.0
  0
LINE
  5
17F
  8
0
 62
     7
 10
151.81700000000001
 20
109.383
 30
0.0
 11
151.81700000000001
 21
105.015
 31
0.0
  0
LINE
  5
180
  8
0
 62
     7
 10
152.816
 20
105.015
 30
0.0
 11
152.816
 21
109.383
 31
0.0
  0
ARC
  5
181
  8
0
 62
     7
 10
152.371374
 20
99.288880000000006
 30
0.0
 40
4.761552
 50
90.655456999999984
 51
149.34837400000001
  0
ARC
  5
182
  8
0
 62
     7
 10
152.371399
 20
99.478251000000014
 30
0.0
 40
4.7619540000000002
 50
210.659199
 51
269.3442950000001
  0
ARC
  5
183
  8
0
 62
     7
 10
152.31673000000001
 20
99.383535999999992
 30
0.0
 40
3.4921440000000001
 50
359.997184
 51
89.997154000000009
  0
ARC
  5
184
  8
0
 62
     7
 10
152.45106699999999
 20
99.24884200000001
 30
0.0
 40
3.6293190000000002
 50
92.118521000000015
 51
177.87579700000001
  0
ARC
  5
185
  8
0
 62
     7
 10
152.45108999999999
 20
99.517553000000021
 30
0.0
 40
3.6293289999999998
 50
182.118911
 51
267.88111900000001
  0
ARC
  5
186
  8
0
 62
     7
 10
152.18267499999999
 20
99.516876999999994
 30
0.0
 40
3.6286550000000002
 50
272.1199180000001
 51
357.89139699999998
  0
LINE
  5
187
  8
0
 62
     7
 10
152.31700000000001
 20
94.716599999999985
 30
0.0
 11
151.417
 21
94.716599999999985
 31
0.0
  0
LINE
  5
188
  8
0
 62
     7
 10
151.417
 20
94.716599999999985
 30
0.0
 11
150.96600000000001
 21
94.716599999999985
 31
0.0
  0
LINE
  5
189
  8
0
 62
     7
 10
150.96600000000001
 20
94.716599999999985
 30
0.0
 11
150.52099999999999
 21
94.716599999999985
 31
0.0
  0
LINE
  5
18A
  8
0
 62
     7
 10
152.31700000000001
 20
104.05
 30
0.0
 11
151.417
 21
104.05
 31
0.0
  0
LINE
  5
18B
  8
0
 62
     7
 10
151.417
 20
104.05
 30
0.0
 11
150.96600000000001
 21
104.05
 31
0.0
  0
LINE
  5
18C
  8
0
 62
     7
 10
150.96600000000001
 20
104.05
 30
0.0
 11
150.52099999999999
 21
104.05
 31
0.0
  0
ARC
  5
18D
  8
0
 62
     7
 10
152.20176699999999
 20
99.267871
 30
0.0
 40
3.1283009999999991
 50
2.1157799999999991
 51
87.890765999999985
  0
ARC
  5
18E
  8
0
 62
     7
 10
152.432343
 20
99.267567
 30
0.0
 40
3.1286160000000001
 50
92.114576000000014
 51
177.878838
  0
ARC
  5
18F
  8
0
 62
     7
 10
152.432376
 20
99.498838000000021
 30
0.0
 40
3.128638
 50
182.11520400000001
 51
267.88482599999998
  0
ARC
  5
190
  8
0
 62
     7
 10
152.20141799999999
 20
99.498849000000007
 30
0.0
 40
3.1286489999999998
 50
272.115388
 51
357.88462199999998
  0
LINE
  5
191
  8
0
 62
     7
 10
151.316
 20
104.383
 30
0.0
 11
152.31700000000001
 21
104.383
 31
0.0
  0
ARC
  5
192
  8
0
 62
     7
 10
152.316902
 20
99.383364
 30
0.0
 40
2.8332649999999999
 50
0.00001
 51
89.999980000000008
  0
ARC
  5
193
  8
0
 62
     7
 10
152.316903
 20
99.383364
 30
0.0
 40
2.8332649999999999
 50
90.0
 51
179.99996999999999
  0
ARC
  5
194
  8
0
 62
     7
 10
152.316902
 20
99.383364
 30
0.0
 40
2.8332639999999989
 50
179.99996999999999
 51
270.00002000000001
  0
ARC
  5
195
  8
0
 62
     7
 10
152.316902
 20
99.383364999999998
 30
0.0
 40
2.8332649999999999
 50
270.00002000000001
 51
359.99999000000003
  0
ARC
  5
196
  8
0
 62
     7
 10
152.315383
 20
99.356769999999997
 30
0.0
 40
2.1750949999999998
 50
269.11435299999999
 51
294.9618200000001
  0
ARC
  5
197
  8
0
 62
     7
 10
152.40075400000001
 20
99.429399000000004
 30
0.0
 40
2.2506119999999989
 50
181.17203799999999
 51
266.96932299999997
  0
ARC
  5
198
  8
0
 62
     7
 10
152.31845899999999
 20
99.418524000000005
 30
0.0
 40
2.1681309999999998
 50
155.01743500000001
 51
180.92918800000001
  0
ARC
  5
199
  8
0
 62
     7
 10
152.35727
 20
99.306805000000011
 30
0.0
 40
2.2520950000000002
 50
67.10857
 51
152.857619
  0
LINE
  5
19A
  8
0
 62
     7
 10
150.31700000000001
 20
99.383399999999995
 30
0.0
 11
150.31700000000001
 21
99.389200000000017
 31
0.0
  0
ARC
  5
19B
  8
0
 62
     7
 10
152.316869
 20
99.383052000000021
 30
0.0
 40
2.0002110000000002
 50
89.841144999999997
 51
179.82324399999999
  0
LINE
  5
19C
  8
0
 62
     7
 10
152.322
 20
97.383099999999999
 30
0.0
 11
152.31700000000001
 21
97.383099999999999
 31
0.0
  0
ARC
  5
19D
  8
0
 62
     7
 10
152.316902
 20
99.383364
 30
0.0
 40
2.0002349999999991
 50
179.99996999999999
 51
270.00002000000001
  0
ARC
  5
19E
  8
0
 62
     7
 10
150.12410299999999
 20
92.033637999999996
 30
0.0
 40
1.6626849999999991
 50
340.4845279999999
 51
357.32490799999999
  0
ARC
  5
19F
  8
0
 62
     7
 10
150.31590600000001
 20
91.971400000000003
 30
0.0
 40
1.46112
 50
330.745543
 51
340.27230500000002
  0
ARC
  5
1A0
  8
0
 62
     7
 10
150.45398800000001
 20
91.895302999999984
 30
0.0
 40
1.3034619999999999
 50
320.025263
 51
330.697722
  0
ARC
  5
1A1
  8
0
 62
     7
 10
150.63834900000001
 20
91.744631999999996
 30
0.0
 40
1.0653859999999999
 50
306.88832100000002
 51
319.86502400000001
  0
ARC
  5
1A2
  8
0
 62
     7
 10
150.750754
 20
91.594072999999995
 30
0.0
 40
0.8774960000000001
 50
291.22201899999999
 51
306.91920199999998
  0
ARC
  5
1A3
  8
0
 62
     7
 10
150.77408199999999
 20
91.528879000000003
 30
0.0
 40
0.8082819999999999
 50
274.75001400000002
 51
291.35333300000002
  0
ARC
  5
1A4
  8
0
 62
     7
 10
150.77071900000001
 20
91.572906000000003
 30
0.0
 40
0.8524360000000001
 50
259.00399700000003
 51
274.730253
  0
ARC
  5
1A5
  8
0
 62
     7
 10
151.41669300000001
 20
88.651815999999997
 30
0.0
 40
3.3246820000000001
 50
83.640146999999999
 51
96.359832999999995
  0
ARC
  5
1A6
  8
0
 62
     7
 10
150.77070900000001
 20
107.158858
 30
0.0
 40
0.886782
 50
85.586718999999974
 51
100.564504
  0
ARC
  5
1A7
  8
0
 62
     7
 10
150.771804
 20
107.22386899999999
 30
0.0
 40
0.8218899999999999
 50
68.898418000000007
 51
85.314076999999997
  0
ARC
  5
1A8
  8
0
 62
     7
 10
150.77385599999999
 20
107.21775
 30
0.0
 40
0.82687
 50
60.963560999999999
 51
69.183730000000011
  0
ARC
  5
1A9
  8
0
 62
     7
 10
150.71482399999999
 20
107.11917099999999
 30
0.0
 40
0.9417180000000001
 50
53.438783999999991
 51
60.734447000000003
  0
ARC
  5
1AA
  8
0
 62
     7
 10
150.64774600000001
 20
107.030845
 30
0.0
 40
1.0526219999999991
 50
40.220684999999989
 51
53.369978000000003
  0
ARC
  5
1AB
  8
0
 62
     7
 10
150.51378399999999
 20
106.911694
 30
0.0
 40
1.231857999999999
 50
29.115705999999999
 51
40.428821999999997
  0
ARC
  5
1AC
  8
0
 62
     7
 10
150.20466200000001
 20
106.745448
 30
0.0
 40
1.5828189999999991
 50
20.079820000000002
 51
28.928495999999999
  0
ARC
  5
1AD
  8
0
 62
     7
 10
150.23910900000001
 20
106.766193
 30
0.0
 40
1.5433629999999989
 50
10.757400000000001
 51
19.795545000000001
  0
ARC
  5
1AE
  8
0
 62
     7
 10
150.093864
 20
106.72868800000001
 30
0.0
 40
1.6930829999999999
 50
2.7645710000000001
 51
11.086883
  0
ARC
  5
1AF
  8
0
 62
     7
 10
151.41669300000001
 20
110.12070799999999
 30
0.0
 40
3.3307820000000001
 50
263.65186299999999
 51
276.34815700000001
  0
ARC
  5
1B0
  8
0
 62
     7
 10
151.52176900000001
 20
90.810993000000011
 30
0.0
 40
3.31589
 50
83.748987000000014
 51
96.250992999999994
  0
ARC
  5
1B1
  8
0
 62
     7
 10
151.50528600000001
 20
107.52879
 30
0.0
 40
2.8901849999999989
 50
263.15298899999999
 51
276.18500699999998
  0
LINE
  5
1B2
  8
0
 62
     7
 10
157.00200000000001
 20
113.032
 30
0.0
 11
147.63200000000001
 21
113.032
 31
0.0
  0
LINE
  5
1B3
  8
0
 62
     7
 10
152.322
 20
97.549899999999994
 30
0.0
 11
152.31100000000001
 21
97.549899999999994
 31
0.0
  0
ARC
  5
1B4
  8
0
 62
     7
 10
152.38771499999999
 20
99.45375300000002
 30
0.0
 40
1.905408999999999
 50
181.951221
 51
267.70430299999998
  0
ARC
  5
1B5
  8
0
 62
     7
 10
152.38618600000001
 20
99.313305000000014
 30
0.0
 40
1.9042749999999991
 50
91.919091000000009
 51
177.72557399999999
  0
LINE
  5
1B6
  8
0
 62
     7
 10
152.31700000000001
 20
113.383
 30
0.0
 11
147.983
 21
113.383
 31
0.0
  0
ARC
  5
1B7
  8
0
 62
     7
 10
152.31673000000001
 20
99.383537000000004
 30
0.0
 40
3.0980219999999998
 50
359.996824
 51
89.996793999999994
  0
ARC
  5
1B8
  8
0
 62
     7
 10
152.316731
 20
99.383192000000022
 30
0.0
 40
3.0983669999999992
 50
89.996814999999984
 51
179.99678499999999
  0
ARC
  5
1B9
  8
0
 62
     7
 10
152.316902
 20
99.383364
 30
0.0
 40
3.098538
 50
179.99996999999999
 51
270.00002000000001
  0
ARC
  5
1BA
  8
0
 62
     7
 10
152.31655699999999
 20
99.383021000000014
 30
0.0
 40
3.098195
 50
270.00639100000001
 51
0.006361
  0
LINE
  5
1BB
  8
0
 62
     7
 10
157.405
 20
93.417799999999986
 30
0.0
 11
157.00200000000001
 21
85.734800000000007
 31
0.0
  0
LINE
  5
1BC
  8
0
 62
     7
 10
147.63200000000001
 20
85.734800000000007
 30
0.0
 11
147.54499999999999
 21
87.383300000000006
 31
0.0
  0
LINE
  5
1BD
  8
0
 62
     7
 10
133.65000000000001
 20
108.003
 30
0.0
 11
133.65000000000001
 21
106.336
 31
0.0
  0
LINE
  5
1BE
  8
0
 62
     7
 10
133.65000000000001
 20
90.786799999999999
 30
0.0
 11
133.65000000000001
 21
92.366299999999995
 31
0.0
  0
LINE
  5
1BF
  8
0
 62
     7
 10
133.65000000000001
 20
92.366299999999995
 30
0.0
 11
133.65000000000001
 21
97.13160000000002
 31
0.0
  0
LINE
  5
1C0
  8
0
 62
     7
 10
133.65000000000001
 20
97.13160000000002
 30
0.0
 11
133.65000000000001
 21
106.336
 31
0.0
  0
LINE
  5
1C1
  8
0
 62
     7
 10
66.286500000000004
 20
174.43700000000001
 30
0.0
 11
66.286500000000004
 21
187.43700000000001
 31
0.0
  0
LINE
  5
1C2
  8
0
 62
     7
 10
67.925700000000006
 20
174.43700000000001
 30
0.0
 11
67.925700000000006
 21
187.43700000000001
 31
0.0
  0
LINE
  5
1C3
  8
0
 62
     7
 10
66.105900000000005
 20
174.43700000000001
 30
0.0
 11
66.105900000000005
 21
187.43700000000001
 31
0.0
  0
LINE
  5
1C4
  8
0
 62
     7
 10
68.105500000000006
 20
187.43700000000001
 30
0.0
 11
68.105500000000006
 21
174.43700000000001
 31
0.0
  0
LINE
  5
1C5
  8
0
 62
     7
 10
59.178800000000003
 20
85.603600000000014
 30
0.0
 11
58.6614
 21
85.603600000000014
 31
0.0
  0
LINE
  5
1C6
  8
0
 62
     7
 10
58.6614
 20
85.603600000000014
 30
0.0
 11
59.178800000000003
 21
85.603600000000014
 31
0.0
  0
LINE
  5
1C7
  8
0
 62
     7
 10
120.65000000000001
 20
95.623400000000004
 30
0.0
 11
133.65000000000001
 21
95.623400000000004
 31
0.0
  0
LINE
  5
1C8
  8
0
 62
     7
 10
133.65000000000001
 20
103.19
 30
0.0
 11
120.65000000000001
 21
103.19
 31
0.0
  0
LINE
  5
1C9
  8
0
 62
     7
 10
99.774000000000015
 20
91.906800000000004
 30
0.0
 11
99.834000000000003
 21
91.906800000000004
 31
0.0
  0
ARC
  5
1CA
  8
0
 62
     7
 10
99.093138999999994
 20
106.629971
 30
0.0
 40
0.277028
 50
92.107718000000006
 51
177.89225200000001
  0
ARC
  5
1CB
  8
0
 62
     7
 10
115.926671
 20
115.796739
 30
0.0
 40
0.277028
 50
92.107718000000006
 51
177.89225200000001
  0
ARC
  5
1CC
  8
0
 62
     7
 10
114.143653
 20
106.733895
 30
0.0
 40
0.173027
 50
2.0446049999999989
 51
87.955384999999993
  0
LINE
  5
1CD
  8
0
 62
     7
 10
114.65000000000001
 20
105.73999999999999
 30
0.0
 11
114.31699999999999
 21
105.73999999999999
 31
0.0
  0
LINE
  5
1CE
  8
0
 62
     7
 10
114.15000000000001
 20
106.907
 30
0.0
 11
99.082999999999998
 21
106.907
 31
0.0
  0
LINE
  5
1CF
  8
0
 62
     7
 10
120.65000000000001
 20
116.074
 30
0.0
 11
120.65000000000001
 21
115.807
 31
0.0
  0
LINE
  5
1D0
  8
0
 62
     7
 10
115.65000000000001
 20
106.907
 30
0.0
 11
114.65000000000001
 21
106.907
 31
0.0
  0
LINE
  5
1D1
  8
0
 62
     7
 10
115.916
 20
116.074
 30
0.0
 11
120.65000000000001
 21
116.074
 31
0.0
  0
ARC
  5
1D2
  8
0
 62
     7
 10
99.093138999999994
 20
92.183611999999997
 30
0.0
 40
0.277028
 50
182.1077479999999
 51
267.89228200000002
  0
LINE
  5
1D3
  8
0
 62
     7
 10
99.972500000000011
 20
91.972899999999996
 30
0.0
 11
99.974500000000006
 21
91.974299999999999
 31
0.0
  0
LINE
  5
1D4
  8
0
 62
     7
 10
99.974500000000006
 20
91.974299999999999
 30
0.0
 11
99.977999999999994
 21
91.977099999999979
 31
0.0
  0
LINE
  5
1D5
  8
0
 62
     7
 10
99.977999999999994
 20
91.977099999999979
 30
0.0
 11
99.980699999999999
 21
91.979500000000002
 31
0.0
  0
LINE
  5
1D6
  8
0
 62
     7
 10
99.980699999999999
 20
91.979500000000002
 30
0.0
 11
99.984200000000016
 21
91.982200000000006
 31
0.0
  0
ARC
  5
1D7
  8
0
 62
     7
 10
99.938772
 20
92.045466999999988
 30
0.0
 40
0.077868
 50
305.68420200000003
 51
312.89462300000002
  0
ARC
  5
1D8
  8
0
 62
     7
 10
99.564401000000004
 20
92.532842000000016
 30
0.0
 40
0.692128
 50
308.13194600000003
 51
310.86724299999997
  0
ARC
  5
1D9
  8
0
 62
     7
 10
99.677552000000006
 20
92.635456000000005
 30
0.0
 40
0.7388819999999999
 50
282.71552200000002
 51
286.52624300000008
  0
ARC
  5
1DA
  8
0
 62
     7
 10
99.793963000000005
 20
92.196993000000006
 30
0.0
 40
0.28572
 50
289.158188
 51
298.84984199999991
  0
ARC
  5
1DB
  8
0
 62
     7
 10
99.636387999999997
 20
92.463032999999996
 30
0.0
 40
0.5948510000000001
 50
299.77932099999998
 51
302.966702
  0
ARC
  5
1DC
  8
0
 62
     7
 10
99.701808000000014
 20
92.335735
 30
0.0
 40
0.4526800000000001
 50
304.78745600000002
 51
306.28791200000001
  0
LINE
  5
1DD
  8
0
 62
     7
 10
99.969700000000003
 20
91.970900000000015
 30
0.0
 11
99.972500000000011
 21
91.972899999999996
 31
0.0
  0
ARC
  5
1DE
  8
0
 62
     7
 10
100.03860899999999
 20
91.933492000000001
 30
0.0
 40
0.071802
 50
125.137023
 51
132.18256600000001
  0
ARC
  5
1DF
  8
0
 62
     7
 10
100.182112
 20
91.798012999999983
 30
0.0
 40
0.268093
 50
127.94336800000001
 51
133.58381399999999
  0
LINE
  5
1E0
  8
0
 62
     7
 10
99.082999999999998
 20
91.906800000000004
 30
0.0
 11
99.774000000000015
 21
91.906800000000004
 31
0.0
  0
LINE
  5
1E1
  8
0
 62
     7
 10
98.816300000000012
 20
92.173400000000001
 30
0.0
 11
98.816300000000012
 21
99.406800000000004
 31
0.0
  0
LINE
  5
1E2
  8
0
 62
     7
 10
105.184
 20
91.906800000000004
 30
0.0
 11
105.65000000000001
 21
91.906800000000004
 31
0.0
  0
ARC
  5
1E3
  8
0
 62
     7
 10
124.668442
 20
130.32836399999999
 30
0.0
 40
43.110954
 50
242.90479300000001
 51
242.95107200000001
  0
ARC
  5
1E4
  8
0
 62
     7
 10
105.17565500000001
 20
92.170381999999989
 30
0.0
 40
0.262511
 50
244.7494779999999
 51
267.36408299999999
  0
LINE
  5
1E5
  8
0
 62
     7
 10
105.164
 20
91.908100000000005
 30
0.0
 11
105.184
 21
91.909499999999994
 31
0.0
  0
ARC
  5
1E6
  8
0
 62
     7
 10
107.150158
 20
94.578135999999986
 30
0.0
 40
2.8682210000000001
 50
246.21017499999999
 51
292.97481599999998
  0
ARC
  5
1E7
  8
0
 62
     7
 10
107.14951000000001
 20
84.466486000000003
 30
0.0
 40
7.5898799999999991
 50
78.751245999999995
 51
101.394457
  0
LINE
  5
1E8
  8
0
 62
     7
 10
114.31699999999999
 20
93.073300000000003
 30
0.0
 11
114.65000000000001
 21
93.073300000000003
 31
0.0
  0
ARC
  5
1E9
  8
0
 62
     7
 10
114.143653
 20
92.079688000000004
 30
0.0
 40
0.173027
 50
272.04461500000002
 51
357.95539500000001
  0
LINE
  5
1EA
  8
0
 62
     7
 10
114.65000000000001
 20
91.906800000000004
 30
0.0
 11
115.65000000000001
 21
91.906800000000004
 31
0.0
  0
LINE
  5
1EB
  8
0
 62
     7
 10
114.31699999999999
 20
99.406800000000004
 30
0.0
 11
114.31699999999999
 21
92.073499999999996
 31
0.0
  0
LINE
  5
1EC
  8
0
 62
     7
 10
108.63
 20
91.906800000000004
 30
0.0
 11
114.15000000000001
 21
91.906800000000004
 31
0.0
  0
ARC
  5
1ED
  8
0
 62
     7
 10
115.926676
 20
83.016848999999993
 30
0.0
 40
0.2770329999999999
 50
182.10873799999999
 51
267.89129200000002
  0
ARC
  5
1EE
  8
0
 62
     7
 10
105.025167
 20
92.079391000000001
 30
0.0
 40
0.102872
 50
225.24810299999999
 51
236.17311100000001
  0
ARC
  5
1EF
  8
0
 62
     7
 10
101.903306
 20
88.380105000000015
 30
0.0
 40
4.737995999999999
 50
49.938234000000001
 51
51.658664999999992
  0
ARC
  5
1F0
  8
0
 62
     7
 10
102.73958399999999
 20
89.413045999999994
 30
0.0
 40
3.4090829999999999
 50
51.913084000000012
 51
56.330399999999997
  0
ARC
  5
1F1
  8
0
 62
     7
 10
102.337914
 20
88.839219
 30
0.0
 40
4.109367999999999
 50
56.105109999999989
 51
59.722805999999999
  0
ARC
  5
1F2
  8
0
 62
     7
 10
102.618213
 20
89.326157999999978
 30
0.0
 40
3.5475279999999989
 50
59.667227999999987
 51
64.923068000000001
  0
ARC
  5
1F3
  8
0
 62
     7
 10
102.48089400000001
 20
89.059352000000004
 30
0.0
 40
3.847402999999999
 50
64.754881999999995
 51
73.129724999999993
  0
ARC
  5
1F4
  8
0
 62
     7
 10
102.487205
 20
89.087339999999998
 30
0.0
 40
3.8187889999999989
 50
73.098465000000004
 51
82.344724999999997
  0
ARC
  5
1F5
  8
0
 62
     7
 10
102.483092
 20
89.07572900000001
 30
0.0
 40
3.8308449999999992
 50
82.306902000000008
 51
92.44026700000002
  0
ARC
  5
1F6
  8
0
 62
     7
 10
102.460182
 20
89.336127000000005
 30
0.0
 40
3.569726999999999
 50
92.250839999999997
 51
98.317741000000026
  0
ARC
  5
1F7
  8
0
 62
     7
 10
102.494539
 20
88.988393000000002
 30
0.0
 40
3.9188059999999991
 50
98.079295000000002
 51
103.36144299999999
  0
ARC
  5
1F8
  8
0
 62
     7
 10
102.46651199999999
 20
89.117520999999996
 30
0.0
 40
3.7866979999999999
 50
103.40035399999999
 51
113.139397
  0
ARC
  5
1F9
  8
0
 62
     7
 10
102.523302
 20
88.981213999999994
 30
0.0
 40
3.934356999999999
 50
113.119838
 51
117.822599
  0
ARC
  5
1FA
  8
0
 62
     7
 10
102.670193
 20
88.747196000000002
 30
0.0
 40
4.2099310000000001
 50
118.10411999999999
 51
121.751138
  0
ARC
  5
1FB
  8
0
 62
     7
 10
102.616238
 20
88.871763000000001
 30
0.0
 40
4.0756610000000002
 50
122.027674
 51
126.518196
  0
ARC
  5
1FC
  8
0
 62
     7
 10
102.06603
 20
89.611606000000009
 30
0.0
 40
3.153656999999999
 50
126.483315
 51
129.924768
  0
ARC
  5
1FD
  8
0
 62
     7
 10
102.77113
 20
88.755184
 30
0.0
 40
4.2629659999999996
 50
129.80510699999999
 51
130.62979899999999
  0
LINE
  5
1FE
  8
0
 62
     7
 10
120.65000000000001
 20
82.739999999999995
 30
0.0
 11
115.916
 21
82.739999999999995
 31
0.0
  0
LINE
  5
1FF
  8
0
 62
     7
 10
98.816300000000012
 20
99.406800000000004
 30
0.0
 11
98.816300000000012
 21
106.64
 31
0.0
  0
LINE
  5
200
  8
0
 62
     7
 10
120.65000000000001
 20
106.73999999999999
 30
0.0
 11
120.65000000000001
 21
99.406800000000004
 31
0.0
  0
LINE
  5
201
  8
0
 62
     7
 10
114.31699999999999
 20
106.73999999999999
 30
0.0
 11
114.31699999999999
 21
99.406800000000004
 31
0.0
  0
LINE
  5
202
  8
0
 62
     7
 10
120.65000000000001
 20
115.807
 30
0.0
 11
120.65000000000001
 21
82.739999999999995
 31
0.0
  0
LINE
  5
203
  8
0
 62
     7
 10
115.65000000000001
 20
83.006699999999995
 30
0.0
 11
115.65000000000001
 21
115.807
 31
0.0
  0
LINE
  5
204
  8
0
 62
     7
 10
114.65000000000001
 20
106.907
 30
0.0
 11
114.65000000000001
 21
91.906800000000004
 31
0.0
  0
LINE
  5
205
  8
0
 62
     7
 10
63.936199999999999
 20
174.43700000000001
 30
0.0
 11
63.936199999999999
 21
187.43700000000001
 31
0.0
  0
LINE
  5
206
  8
0
 62
     7
 10
56.369
 20
187.43700000000001
 30
0.0
 11
56.369
 21
174.43700000000001
 31
0.0
  0
LINE
  5
207
  8
0
 62
     7
 10
67.652799999999999
 20
168.43700000000001
 30
0.0
 11
67.652799999999999
 21
169.43700000000001
 31
0.0
  0
LINE
  5
208
  8
0
 62
     7
 10
52.6524
 20
168.43700000000001
 30
0.0
 11
52.6524
 21
169.43700000000001
 31
0.0
  0
LINE
  5
209
  8
0
 62
     7
 10
67.652799999999999
 20
168.43700000000001
 30
0.0
 11
52.6524
 21
168.43700000000001
 31
0.0
  0
ARC
  5
20A
  8
0
 62
     7
 10
69.048362999999995
 20
210.711184
 30
0.0
 40
0.4577130000000001
 50
348.77284100000003
 51
356.156814
  0
ARC
  5
20B
  8
0
 62
     7
 10
66.097063000000006
 20
210.98263700000001
 30
0.0
 40
3.421351
 50
354.93373600000001
 51
358.20442800000001
  0
ARC
  5
20C
  8
0
 62
     7
 10
59.104109999999991
 20
211.25122400000001
 30
0.0
 40
10.419402
 50
357.93310300000002
 51
0.088609
  0
ARC
  5
20D
  8
0
 62
     7
 10
69.559168
 20
210.75371799999999
 30
0.0
 40
0.016498
 50
91.833767000000009
 51
134.99716799999999
  0
ARC
  5
20E
  8
0
 62
     7
 10
69.595905000000002
 20
210.71583899999999
 30
0.0
 40
0.069264
 50
134.331661
 51
157.21091000000001
  0
ARC
  5
20F
  8
0
 62
     7
 10
69.848135999999997
 20
210.60008400000001
 30
0.0
 40
0.346759
 50
155.72039899999999
 51
166.14312100000001
  0
ARC
  5
210
  8
0
 62
     7
 10
70.590796999999995
 20
210.400823
 30
0.0
 40
1.115637999999999
 50
165.34207000000001
 51
168.56170900000001
  0
LINE
  5
211
  8
0
 62
     7
 10
69.558599999999998
 20
215.77000000000001
 30
0.0
 11
69.558599999999998
 21
210.77000000000001
 31
0.0
  0
LINE
  5
212
  8
0
 62
     7
 10
65.097200000000001
 20
215.58199999999999
 30
0.0
 11
65.097200000000001
 21
214.666
 31
0.0
  0
LINE
  5
213
  8
0
 62
     7
 10
55.207999999999998
 20
215.58199999999999
 30
0.0
 11
55.207999999999998
 21
214.666
 31
0.0
  0
LINE
  5
214
  8
0
 62
     7
 10
51.080800000000011
 20
215.77000000000001
 30
0.0
 11
51.403199999999998
 21
215.77000000000001
 31
0.0
  0
LINE
  5
215
  8
0
 62
     7
 10
51.080800000000011
 20
215.77000000000001
 30
0.0
 11
51.310200000000002
 21
215.53999999999999
 31
0.0
  0
LINE
  5
216
  8
0
 62
     7
 10
68.902000000000001
 20
215.77000000000001
 30
0.0
 11
69.224500000000006
 21
215.77000000000001
 31
0.0
  0
LINE
  5
217
  8
0
 62
     7
 10
69.224500000000006
 20
215.77000000000001
 30
0.0
 11
68.995000000000005
 21
215.53999999999999
 31
0.0
  0
LINE
  5
218
  8
0
 62
     7
 10
55.166699999999999
 20
215.53999999999999
 30
0.0
 11
55.207999999999998
 21
215.58199999999999
 31
0.0
  0
ARC
  5
219
  8
0
 62
     7
 10
54.872748999999999
 20
215.58079000000001
 30
0.0
 40
0.335257
 50
0.148328
 51
34.380704999999999
  0
ARC
  5
21A
  8
0
 62
     7
 10
65.434618999999998
 20
215.58012199999999
 30
0.0
 40
0.337409
 50
145.73181500000001
 51
179.73911100000001
  0
LINE
  5
21B
  8
0
 62
     7
 10
65.138599999999997
 20
215.53999999999999
 30
0.0
 11
65.097200000000001
 21
215.58199999999999
 31
0.0
  0
LINE
  5
21C
  8
0
 62
     7
 10
51.310200000000002
 20
214.70699999999999
 30
0.0
 11
50.814799999999991
 21
214.21199999999999
 31
0.0
  0
ARC
  5
21D
  8
0
 62
     7
 10
51.15814799999999
 20
214.22208900000001
 30
0.0
 40
0.343515
 50
181.73186799999991
 51
268.23851300000001
  0
ARC
  5
21E
  8
0
 62
     7
 10
69.146842000000007
 20
214.22231500000001
 30
0.0
 40
0.343748
 50
271.7981299999999
 51
358.23152799999991
  0
LINE
  5
21F
  8
0
 62
     7
 10
68.995000000000005
 20
214.70699999999999
 30
0.0
 11
69.490399999999994
 21
214.21199999999999
 31
0.0
  0
ARC
  5
220
  8
0
 62
     7
 10
54.861288999999999
 20
214.67968300000001
 30
0.0
 40
0.346987
 50
272.29865100000001
 51
357.73100799999997
  0
LINE
  5
221
  8
0
 62
     7
 10
55.207999999999998
 20
214.666
 30
0.0
 11
55.166699999999999
 21
214.70699999999999
 31
0.0
  0
ARC
  5
222
  8
0
 62
     7
 10
65.442910999999995
 20
214.67866699999999
 30
0.0
 40
0.345932
 50
182.10741400000001
 51
267.86296700000003
  0
LINE
  5
223
  8
0
 62
     7
 10
65.097200000000001
 20
214.666
 30
0.0
 11
65.138599999999997
 21
214.70699999999999
 31
0.0
  0
ARC
  5
224
  8
0
 62
     7
 10
66.328712999999993
 20
214.373527
 30
0.0
 40
0.009887
 50
201.911711
 51
263.65543600000001
  0
ARC
  5
225
  8
0
 62
     7
 10
66.399833000000001
 20
214.595294
 30
0.0
 40
0.242589
 50
252.68221399999999
 51
264.66928899999999
  0
ARC
  5
226
  8
0
 62
     7
 10
66.646174999999999
 20
216.59194500000001
 30
0.0
 40
2.2542840000000002
 50
263.14973700000002
 51
267.195536
  0
ARC
  5
227
  8
0
 62
     7
 10
67.085525000000004
 20
224.757103
 30
0.0
 40
10.431233000000001
 50
266.97955899999999
 51
270.3682740000001
  0
ARC
  5
228
  8
0
 62
     7
 10
67.157933999999983
 20
226.780146
 30
0.0
 40
12.454062
 50
269.97533600000003
 51
273.07548800000001
  0
ARC
  5
229
  8
0
 62
     7
 10
67.778548000000001
 20
215.35900000000001
 30
0.0
 40
1.0160919999999991
 50
272.68305600000002
 51
280.66221300000001
  0
ARC
  5
22A
  8
0
 62
     7
 10
67.968970999999996
 20
214.37955700000001
 30
0.0
 40
0.019261
 50
262.76057600000001
 51
329.69425799999999
  0
ARC
  5
22B
  8
0
 62
     7
 10
67.976435999999993
 20
214.36605700000001
 30
0.0
 40
0.009913
 50
22.424320999999999
 51
83.726016000000016
  0
ARC
  5
22C
  8
0
 62
     7
 10
67.905109999999993
 20
214.14121
 30
0.0
 40
0.245616
 50
72.853837999999996
 51
84.688713000000007
  0
ARC
  5
22D
  8
0
 62
     7
 10
67.657418000000007
 20
212.118258
 30
0.0
 40
2.2835830000000001
 50
83.198924000000005
 51
87.192656999999997
  0
ARC
  5
22E
  8
0
 62
     7
 10
67.218142
 20
203.95026100000001
 30
0.0
 40
10.463362999999999
 50
86.980742000000006
 51
90.359053000000003
  0
ARC
  5
22F
  8
0
 62
     7
 10
67.147206000000011
 20
201.92549199999999
 30
0.0
 40
12.487928
 50
89.975380000000001
 51
93.039787999999987
  0
ARC
  5
230
  8
0
 62
     7
 10
66.530706000000009
 20
213.34701699999999
 30
0.0
 40
1.0498279999999991
 50
92.496516999999983
 51
100.544016
  0
ARC
  5
231
  8
0
 62
     7
 10
66.336124999999996
 20
214.35998900000001
 30
0.0
 40
0.019289
 50
82.638587999999984
 51
149.29407399999999
  0
LINE
  5
232
  8
0
 62
     7
 10
65.762799999999999
 20
214.267
 30
0.0
 11
66.150700000000001
 21
213.87899999999999
 31
0.0
  0
LINE
  5
233
  8
0
 62
     7
 10
66.150700000000001
 20
213.87899999999999
 30
0.0
 11
69.157600000000002
 21
213.87899999999999
 31
0.0
  0
LINE
  5
234
  8
0
 62
     7
 10
69.157600000000002
 20
213.87899999999999
 30
0.0
 11
68.662199999999999
 21
214.374
 31
0.0
  0
LINE
  5
235
  8
0
 62
     7
 10
65.471400000000003
 20
214.374
 30
0.0
 11
65.430000000000007
 21
214.333
 31
0.0
  0
ARC
  5
236
  8
0
 62
     7
 10
65.309984999999983
 20
214.679067
 30
0.0
 40
0.366314
 50
275.09339999999997
 51
289.12693899999999
  0
ARC
  5
237
  8
0
 62
     7
 10
65.740575000000007
 20
214.241028
 30
0.0
 40
0.03406
 50
49.244743999999997
 51
78.350393000000011
  0
ARC
  5
238
  8
0
 62
     7
 10
65.635079000000005
 20
213.879853
 30
0.0
 40
0.410225
 50
74.101755000000011
 51
83.309590999999983
  0
ARC
  5
239
  8
0
 62
     7
 10
65.345016000000001
 20
211.728444
 30
0.0
 40
2.5810490000000001
 50
82.478449999999995
 51
86.295969000000014
  0
ARC
  5
23A
  8
0
 62
     7
 10
64.930637000000004
 20
205.98783599999999
 30
0.0
 40
8.3365439999999982
 50
86.002795999999975
 51
87.168127999999996
  0
LINE
  5
23B
  8
0
 62
     7
 10
51.147599999999997
 20
213.87899999999999
 30
0.0
 11
51.643000000000001
 21
214.374
 31
0.0
  0
LINE
  5
23C
  8
0
 62
     7
 10
51.147599999999997
 20
213.87899999999999
 30
0.0
 11
54.154499999999992
 21
213.87899999999999
 31
0.0
  0
LINE
  5
23D
  8
0
 62
     7
 10
54.542400000000001
 20
214.267
 30
0.0
 11
54.154499999999992
 21
213.87899999999999
 31
0.0
  0
ARC
  5
23E
  8
0
 62
     7
 10
55.385523999999997
 20
206.01195999999999
 30
0.0
 40
8.3129990000000014
 50
92.915400999999974
 51
94.508584999999997
  0
ARC
  5
23F
  8
0
 62
     7
 10
54.833683999999991
 20
212.88048800000001
 30
0.0
 40
1.4223819999999989
 50
94.097426999999996
 51
100.262615
  0
ARC
  5
240
  8
0
 62
     7
 10
54.586171999999991
 20
214.202698
 30
0.0
 40
0.077641
 50
94.358298999999988
 51
124.310276
  0
ARC
  5
241
  8
0
 62
     7
 10
54.902098999999993
 20
214.37128100000001
 30
0.0
 40
0.046804
 50
234.92916
 51
261.721566
  0
ARC
  5
242
  8
0
 62
     7
 10
55.020395999999991
 20
214.891131
 30
0.0
 40
0.579808
 50
257.54629999999997
 51
264.29031400000002
  0
LINE
  5
243
  8
0
 62
     7
 10
54.833899999999993
 20
214.374
 30
0.0
 11
54.875199999999992
 21
214.333
 31
0.0
  0
ARC
  5
244
  8
0
 62
     7
 10
52.328099000000002
 20
214.373527
 30
0.0
 40
0.009884
 50
201.91182900000001
 51
263.72879799999998
  0
ARC
  5
245
  8
0
 62
     7
 10
52.399399000000003
 20
214.596329
 30
0.0
 40
0.243627
 50
252.71695299999999
 51
264.67273999999998
  0
ARC
  5
246
  8
0
 62
     7
 10
52.646101999999992
 20
216.59895399999999
 30
0.0
 40
2.2612959999999989
 50
263.159808
 51
267.19849500000009
  0
ARC
  5
247
  8
0
 62
     7
 10
53.085744999999989
 20
224.77781999999999
 30
0.0
 40
10.451949000000001
 50
266.98269499999998
 51
270.36675700000001
  0
ARC
  5
248
  8
0
 62
     7
 10
53.158011000000002
 20
226.780146
 30
0.0
 40
12.454062
 50
269.97533600000003
 51
273.07548800000001
  0
ARC
  5
249
  8
0
 62
     7
 10
53.778624999999991
 20
215.35900000000001
 30
0.0
 40
1.0160919999999991
 50
272.68305600000002
 51
280.66221300000001
  0
ARC
  5
24A
  8
0
 62
     7
 10
53.969048000000001
 20
214.37955700000001
 30
0.0
 40
0.019261
 50
262.76057600000001
 51
329.69425799999999
  0
ARC
  5
24B
  8
0
 62
     7
 10
53.97651299999999
 20
214.36605700000001
 30
0.0
 40
0.009913
 50
22.424320999999999
 51
83.726016000000016
  0
ARC
  5
24C
  8
0
 62
     7
 10
53.905186999999998
 20
214.14121
 30
0.0
 40
0.245616
 50
72.853837999999996
 51
84.688713000000007
  0
ARC
  5
24D
  8
0
 62
     7
 10
53.65749499999999
 20
212.118258
 30
0.0
 40
2.2835830000000001
 50
83.198924000000005
 51
87.192656999999997
  0
ARC
  5
24E
  8
0
 62
     7
 10
53.218218999999991
 20
203.95026100000001
 30
0.0
 40
10.463362999999999
 50
86.980742000000006
 51
90.359053000000003
  0
ARC
  5
24F
  8
0
 62
     7
 10
53.147282999999987
 20
201.90885
 30
0.0
 40
12.504569999999999
 50
89.975412000000006
 51
93.037762999999998
  0
ARC
  5
250
  8
0
 62
     7
 10
52.53044899999999
 20
213.34360000000001
 30
0.0
 40
1.053245999999999
 50
92.494269999999986
 51
100.52727299999999
  0
ARC
  5
251
  8
0
 62
     7
 10
52.335537000000002
 20
214.359948
 30
0.0
 40
0.01933
 50
82.628901999999997
 51
149.22740999999999
  0
LINE
  5
252
  8
0
 62
     7
 10
65.230900000000005
 20
215.77000000000001
 30
0.0
 11
65.368700000000004
 21
215.77000000000001
 31
0.0
  0
LINE
  5
253
  8
0
 62
     7
 10
65.368700000000004
 20
215.77000000000001
 30
0.0
 11
65.663600000000002
 21
215.77000000000001
 31
0.0
  0
LINE
  5
254
  8
0
 62
     7
 10
65.663600000000002
 20
215.77000000000001
 30
0.0
 11
66.081800000000001
 21
215.77000000000001
 31
0.0
  0
LINE
  5
255
  8
0
 62
     7
 10
66.081800000000001
 20
215.77000000000001
 30
0.0
 11
66.583399999999983
 21
215.77000000000001
 31
0.0
  0
LINE
  5
256
  8
0
 62
     7
 10
66.583399999999983
 20
215.77000000000001
 30
0.0
 11
66.802499999999995
 21
215.77000000000001
 31
0.0
  0
ARC
  5
257
  8
0
 62
     7
 10
65.471744999999999
 20
215.539884
 30
0.0
 40
0.333191
 50
136.293871
 51
179.92565999999999
  0
LINE
  5
258
  8
0
 62
     7
 10
66.802499999999995
 20
215.77000000000001
 30
0.0
 11
67.330299999999994
 21
215.77000000000001
 31
0.0
  0
LINE
  5
259
  8
0
 62
     7
 10
66.802499999999995
 20
215.77000000000001
 30
0.0
 11
66.802499999999995
 21
215.47399999999999
 31
0.0
  0
LINE
  5
25A
  8
0
 62
     7
 10
52.974899999999991
 20
215.77000000000001
 30
0.0
 11
53.502699999999997
 21
215.77000000000001
 31
0.0
  0
LINE
  5
25B
  8
0
 62
     7
 10
51.403199999999998
 20
215.77000000000001
 30
0.0
 11
51.540999999999997
 21
215.77000000000001
 31
0.0
  0
LINE
  5
25C
  8
0
 62
     7
 10
51.540999999999997
 20
215.77000000000001
 30
0.0
 11
51.835900000000002
 21
215.77000000000001
 31
0.0
  0
LINE
  5
25D
  8
0
 62
     7
 10
51.835900000000002
 20
215.77000000000001
 30
0.0
 11
52.25419999999999
 21
215.77000000000001
 31
0.0
  0
LINE
  5
25E
  8
0
 62
     7
 10
52.25419999999999
 20
215.77000000000001
 30
0.0
 11
52.755099999999999
 21
215.77000000000001
 31
0.0
  0
LINE
  5
25F
  8
0
 62
     7
 10
52.755099999999999
 20
215.77000000000001
 30
0.0
 11
52.974899999999991
 21
215.77000000000001
 31
0.0
  0
ARC
  5
260
  8
0
 62
     7
 10
51.645834999999991
 20
215.538173
 30
0.0
 40
0.335643
 50
136.28988200000001
 51
179.63411400000001
  0
LINE
  5
261
  8
0
 62
     7
 10
52.974899999999991
 20
215.77000000000001
 30
0.0
 11
52.974899999999991
 21
215.47399999999999
 31
0.0
  0
ARC
  5
262
  8
0
 62
     7
 10
51.337645000000002
 20
215.581456
 30
0.0
 40
0.049455
 50
236.29045500000001
 51
261.01550200000003
  0
ARC
  5
263
  8
0
 62
     7
 10
51.469388000000002
 20
216.147244
 30
0.0
 40
0.630261
 50
257.21557100000001
 51
264.75327600000003
  0
ARC
  5
264
  8
0
 62
     7
 10
51.839273999999989
 20
219.598265
 30
0.0
 40
4.1009859999999989
 50
264.0161700000001
 51
267.14288699999997
  0
ARC
  5
265
  8
0
 62
     7
 10
52.451611
 20
230.75874200000001
 30
0.0
 40
15.278212
 50
266.93559099999999
 51
268.57117099999999
  0
ARC
  5
266
  8
0
 62
     7
 10
52.933570000000003
 20
248.91362000000001
 30
0.0
 40
33.439475000000002
 50
268.52129400000001
 51
270.0707910000001
  0
LINE
  5
267
  8
0
 62
     7
 10
51.310200000000002
 20
215.53999999999999
 30
0.0
 11
51.310200000000002
 21
214.70699999999999
 31
0.0
  0
LINE
  5
268
  8
0
 62
     7
 10
52.974899999999991
 20
214.441
 30
0.0
 11
53.502699999999997
 21
214.441
 31
0.0
  0
LINE
  5
269
  8
0
 62
     7
 10
67.330299999999994
 20
215.77000000000001
 30
0.0
 11
67.870500000000007
 21
215.77000000000001
 31
0.0
  0
LINE
  5
26A
  8
0
 62
     7
 10
67.870500000000007
 20
215.77000000000001
 30
0.0
 11
68.348699999999994
 21
215.77000000000001
 31
0.0
  0
LINE
  5
26B
  8
0
 62
     7
 10
68.348699999999994
 20
215.77000000000001
 30
0.0
 11
68.693899999999999
 21
215.77000000000001
 31
0.0
  0
LINE
  5
26C
  8
0
 62
     7
 10
68.693899999999999
 20
215.77000000000001
 30
0.0
 11
68.879999999999995
 21
215.77000000000001
 31
0.0
  0
LINE
  5
26D
  8
0
 62
     7
 10
68.879999999999995
 20
215.77000000000001
 30
0.0
 11
68.902000000000001
 21
215.77000000000001
 31
0.0
  0
LINE
  5
26E
  8
0
 62
     7
 10
67.330299999999994
 20
215.77000000000001
 30
0.0
 11
67.330299999999994
 21
215.47399999999999
 31
0.0
  0
ARC
  5
26F
  8
0
 62
     7
 10
68.654456999999994
 20
215.536179
 30
0.0
 40
0.340587
 50
0.695979
 51
43.379984999999998
  0
ARC
  5
270
  8
0
 62
     7
 10
65.165959999999984
 20
215.58133900000001
 30
0.0
 40
0.049334
 50
236.25509099999999
 51
261.02964800000001
  0
ARC
  5
271
  8
0
 62
     7
 10
65.297625999999994
 20
216.14630199999999
 30
0.0
 40
0.6293180000000002
 50
257.206165
 51
264.74983900000001
  0
ARC
  5
272
  8
0
 62
     7
 10
65.667309000000003
 20
219.593175
 30
0.0
 40
4.095898
 50
264.01223299999998
 51
267.14065799999997
  0
ARC
  5
273
  8
0
 62
     7
 10
66.279133999999999
 20
230.73774299999999
 30
0.0
 40
15.257210000000001
 50
266.93365399999999
 51
268.57055600000001
  0
ARC
  5
274
  8
0
 62
     7
 10
66.761134999999996
 20
248.888644
 30
0.0
 40
33.414499999999997
 50
268.52073100000001
 51
270.07101699999998
  0
LINE
  5
275
  8
0
 62
     7
 10
65.138599999999997
 20
214.70699999999999
 30
0.0
 11
65.138599999999997
 21
215.53999999999999
 31
0.0
  0
LINE
  5
276
  8
0
 62
     7
 10
55.166699999999999
 20
214.70699999999999
 30
0.0
 11
55.166699999999999
 21
215.53999999999999
 31
0.0
  0
LINE
  5
277
  8
0
 62
     7
 10
53.502699999999997
 20
215.77000000000001
 30
0.0
 11
54.042900000000003
 21
215.77000000000001
 31
0.0
  0
LINE
  5
278
  8
0
 62
     7
 10
54.042900000000003
 20
215.77000000000001
 30
0.0
 11
54.520400000000002
 21
215.77000000000001
 31
0.0
  0
LINE
  5
279
  8
0
 62
     7
 10
54.520400000000002
 20
215.77000000000001
 30
0.0
 11
54.866199999999999
 21
215.77000000000001
 31
0.0
  0
LINE
  5
27A
  8
0
 62
     7
 10
54.866199999999999
 20
215.77000000000001
 30
0.0
 11
55.052300000000002
 21
215.77000000000001
 31
0.0
  0
LINE
  5
27B
  8
0
 62
     7
 10
55.052300000000002
 20
215.77000000000001
 30
0.0
 11
55.074300000000001
 21
215.77000000000001
 31
0.0
  0
LINE
  5
27C
  8
0
 62
     7
 10
53.502699999999997
 20
215.77000000000001
 30
0.0
 11
53.502699999999997
 21
215.47399999999999
 31
0.0
  0
ARC
  5
27D
  8
0
 62
     7
 10
53.513022999999997
 20
249.423644
 30
0.0
 40
33.949475
 50
269.98253999999997
 51
271.89477299999999
  0
ARC
  5
27E
  8
0
 62
     7
 10
54.361525
 20
223.59262899999999
 30
0.0
 40
8.1045309999999997
 50
271.937434
 51
274.542238
  0
ARC
  5
27F
  8
0
 62
     7
 10
54.937243999999993
 20
216.57210799999999
 30
0.0
 40
1.0606180000000001
 50
273.573645
 51
281.21600899999999
  0
ARC
  5
280
  8
0
 62
     7
 10
55.138737999999996
 20
215.58018100000001
 30
0.0
 40
0.048672
 50
275.66511500000001
 51
305.010716
  0
ARC
  5
281
  8
0
 62
     7
 10
54.831012999999999
 20
215.53889599999999
 30
0.0
 40
0.335652
 50
0.24241
 51
43.538020000000003
  0
LINE
  5
282
  8
0
 62
     7
 10
67.330299999999994
 20
215.47399999999999
 30
0.0
 11
66.802499999999995
 21
215.47399999999999
 31
0.0
  0
LINE
  5
283
  8
0
 62
     7
 10
66.802499999999995
 20
215.47399999999999
 30
0.0
 11
66.802499999999995
 21
214.773
 31
0.0
  0
ARC
  5
284
  8
0
 62
     7
 10
54.819946999999999
 20
214.721025
 30
0.0
 40
0.346987
 50
272.29865100000001
 51
357.73100799999997
  0
ARC
  5
285
  8
0
 62
     7
 10
55.143047000000003
 20
214.67362399999999
 30
0.0
 40
0.041121
 50
54.949782999999989
 51
80.117659000000003
  0
ARC
  5
286
  8
0
 62
     7
 10
55.020738000000001
 20
214.17781199999999
 30
0.0
 40
0.551704
 50
76.438693000000001
 51
84.680130000000005
  0
ARC
  5
287
  8
0
 62
     7
 10
54.662266000000002
 20
210.93710300000001
 30
0.0
 40
3.8121089999999991
 50
83.831454000000008
 51
86.954387999999994
  0
ARC
  5
288
  8
0
 62
     7
 10
54.068970999999998
 20
200.60253800000001
 30
0.0
 40
14.163665
 50
86.778931
 51
88.504021999999992
  0
ARC
  5
289
  8
0
 62
     7
 10
53.549190000000003
 20
182.04496399999999
 30
0.0
 40
32.728503000000003
 50
88.44252400000002
 51
90.081428000000017
  0
LINE
  5
28A
  8
0
 62
     7
 10
53.502699999999997
 20
214.773
 30
0.0
 11
53.502699999999997
 21
214.441
 31
0.0
  0
ARC
  5
28B
  8
0
 62
     7
 10
54.811766000000013
 20
214.34895399999999
 30
0.0
 40
0.03364
 50
48.933869000000001
 51
79.253101000000001
  0
ARC
  5
28C
  8
0
 62
     7
 10
54.704346999999999
 20
213.979454
 30
0.0
 40
0.418296
 50
74.228757000000002
 51
83.385060999999993
  0
ARC
  5
28D
  8
0
 62
     7
 10
54.407625000000003
 20
211.76147499999999
 30
0.0
 40
2.6559810000000001
 50
82.538449
 51
86.406672999999998
  0
ARC
  5
28E
  8
0
 62
     7
 10
53.91957399999999
 20
204.68088900000001
 30
0.0
 40
9.7533309999999993
 50
86.152178000000006
 51
88.201751000000002
  0
ARC
  5
28F
  8
0
 62
     7
 10
53.536081000000003
 20
193.29219000000001
 30
0.0
 40
21.148472000000002
 50
88.131509999999992
 51
90.090504999999993
  0
ARC
  5
290
  8
0
 62
     7
 10
68.640121999999991
 20
214.34895399999999
 30
0.0
 40
0.03364
 50
48.933869000000001
 51
79.253101000000001
  0
ARC
  5
291
  8
0
 62
     7
 10
68.532720999999995
 20
213.97952699999999
 30
0.0
 40
0.4182210000000001
 50
74.228466999999995
 51
83.387145000000004
  0
ARC
  5
292
  8
0
 62
     7
 10
68.235951
 20
211.760907
 30
0.0
 40
2.6565470000000002
 50
82.539507999999998
 51
86.407601999999997
  0
ARC
  5
293
  8
0
 62
     7
 10
67.747788999999997
 20
204.676481
 30
0.0
 40
9.7577359999999995
 50
86.153306999999984
 51
88.202710999999994
  0
ARC
  5
294
  8
0
 62
     7
 10
67.363865000000004
 20
193.26760400000001
 30
0.0
 40
21.173058000000001
 50
88.132582999999997
 51
90.090715000000017
  0
ARC
  5
295
  8
0
 62
     7
 10
68.64828399999999
 20
214.72104400000001
 30
0.0
 40
0.347008
 50
272.30174299999999
 51
357.72791599999999
  0
LINE
  5
296
  8
0
 62
     7
 10
67.330299999999994
 20
214.773
 30
0.0
 11
67.330299999999994
 21
215.47399999999999
 31
0.0
  0
ARC
  5
297
  8
0
 62
     7
 10
68.97109300000001
 20
214.67274499999999
 30
0.0
 40
0.042019
 50
55.290515999999997
 51
80.064590999999993
  0
ARC
  5
298
  8
0
 62
     7
 10
68.848404000000002
 20
214.17382000000001
 30
0.0
 40
0.555719
 50
76.477944000000008
 51
84.673999999999992
  0
ARC
  5
299
  8
0
 62
     7
 10
68.489822000000004
 20
210.929395
 30
0.0
 40
3.8198300000000001
 50
83.835796000000002
 51
86.953622999999993
  0
ARC
  5
29A
  8
0
 62
     7
 10
67.896957999999998
 20
200.601575
 30
0.0
 40
14.164628
 50
86.779027999999997
 51
88.504043999999993
  0
ARC
  5
29B
  8
0
 62
     7
 10
67.37705600000001
 20
182.03538
 30
0.0
 40
32.738087
 50
88.442734999999985
 51
90.081752000000009
  0
LINE
  5
29C
  8
0
 62
     7
 10
68.995000000000005
 20
215.53999999999999
 30
0.0
 11
68.995000000000005
 21
214.70699999999999
 31
0.0
  0
ARC
  5
29D
  8
0
 62
     7
 10
67.340698000000003
 20
249.44398899999999
 30
0.0
 40
33.96982100000001
 50
269.98253599999998
 51
271.894206
  0
ARC
  5
29E
  8
0
 62
     7
 10
68.189228
 20
223.599411
 30
0.0
 40
8.1113199999999992
 50
271.937994
 51
274.54092100000003
  0
ARC
  5
29F
  8
0
 62
     7
 10
68.764859000000001
 20
216.57732799999999
 30
0.0
 40
1.0658549999999991
 50
273.57971900000001
 51
281.193106
  0
ARC
  5
2A0
  8
0
 62
     7
 10
68.966762000000003
 20
215.58116100000001
 30
0.0
 40
0.049666
 50
275.77449899999999
 51
304.67646400000001
  0
LINE
  5
2A1
  8
0
 62
     7
 10
67.330299999999994
 20
214.441
 30
0.0
 11
66.802499999999995
 21
214.441
 31
0.0
  0
LINE
  5
2A2
  8
0
 62
     7
 10
67.330299999999994
 20
214.773
 30
0.0
 11
67.330299999999994
 21
214.441
 31
0.0
  0
LINE
  5
2A3
  8
0
 62
     7
 10
66.802499999999995
 20
214.773
 30
0.0
 11
67.330299999999994
 21
214.773
 31
0.0
  0
ARC
  5
2A4
  8
0
 62
     7
 10
65.48425300000001
 20
214.72000800000001
 30
0.0
 40
0.345932
 50
182.10741400000001
 51
267.86296700000003
  0
ARC
  5
2A5
  8
0
 62
     7
 10
66.794268000000002
 20
192.80911800000001
 30
0.0
 40
21.631518
 50
89.97806300000002
 51
92.348848000000004
  0
ARC
  5
2A6
  8
0
 62
     7
 10
66.134780000000006
 20
208.972453
 30
0.0
 40
5.4547359999999996
 50
92.385630000000006
 51
95.531226000000004
  0
ARC
  5
2A7
  8
0
 62
     7
 10
65.665887999999995
 20
213.66043999999999
 30
0.0
 40
0.74353
 50
94.387507000000014
 51
103.69120700000001
  0
ARC
  5
2A8
  8
0
 62
     7
 10
65.495333000000002
 20
214.34658899999999
 30
0.0
 40
0.036659
 50
98.518372999999997
 51
130.85462100000001
  0
LINE
  5
2A9
  8
0
 62
     7
 10
66.802499999999995
 20
214.773
 30
0.0
 11
66.802499999999995
 21
214.441
 31
0.0
  0
ARC
  5
2AA
  8
0
 62
     7
 10
66.792186999999984
 20
180.92622800000001
 30
0.0
 40
33.847206999999997
 50
89.982453000000007
 51
91.900914
  0
ARC
  5
2AB
  8
0
 62
     7
 10
65.943105000000003
 20
206.66561799999999
 30
0.0
 40
8.0938189999999999
 50
91.937681000000012
 51
94.544791000000004
  0
ARC
  5
2AC
  8
0
 62
     7
 10
65.367188999999996
 20
213.68049400000001
 30
0.0
 40
1.0555229999999991
 50
93.553810999999982
 51
101.228037
  0
ARC
  5
2AD
  8
0
 62
     7
 10
65.166717000000006
 20
214.666539
 30
0.0
 40
0.049533
 50
95.855471999999978
 51
124.64987600000001
  0
LINE
  5
2AE
  8
0
 62
     7
 10
52.974899999999991
 20
214.773
 30
0.0
 11
52.974899999999991
 21
215.47399999999999
 31
0.0
  0
LINE
  5
2AF
  8
0
 62
     7
 10
53.502699999999997
 20
214.773
 30
0.0
 11
52.974899999999991
 21
214.773
 31
0.0
  0
LINE
  5
2B0
  8
0
 62
     7
 10
53.502699999999997
 20
215.47399999999999
 30
0.0
 11
53.502699999999997
 21
214.773
 31
0.0
  0
LINE
  5
2B1
  8
0
 62
     7
 10
52.974899999999991
 20
215.47399999999999
 30
0.0
 11
53.502699999999997
 21
215.47399999999999
 31
0.0
  0
LINE
  5
2B2
  8
0
 62
     7
 10
52.974899999999991
 20
214.773
 30
0.0
 11
52.974899999999991
 21
214.441
 31
0.0
  0
ARC
  5
2B3
  8
0
 62
     7
 10
52.964519000000003
 20
180.90610599999999
 30
0.0
 40
33.867328999999998
 50
89.982464000000007
 51
91.900349000000006
  0
ARC
  5
2B4
  8
0
 62
     7
 10
52.115332000000002
 20
206.65412900000001
 30
0.0
 40
8.1053090000000001
 50
91.936544999999995
 51
94.541668000000016
  0
ARC
  5
2B5
  8
0
 62
     7
 10
51.538972999999999
 20
213.67912999999999
 30
0.0
 40
1.0568859999999991
 50
93.550680000000014
 51
101.22050299999999
  0
ARC
  5
2B6
  8
0
 62
     7
 10
51.338355999999997
 20
214.66654700000001
 30
0.0
 40
0.049523
 50
95.837912999999986
 51
124.650105
  0
ARC
  5
2B7
  8
0
 62
     7
 10
51.657077000000001
 20
214.72118800000001
 30
0.0
 40
0.347157
 50
182.2948979999999
 51
267.67548299999999
  0
ARC
  5
2B8
  8
0
 62
     7
 10
52.966593000000003
 20
192.78035800000001
 30
0.0
 40
21.660278999999999
 50
89.978069999999988
 51
92.347286999999994
  0
ARC
  5
2B9
  8
0
 62
     7
 10
52.306441999999997
 20
208.97160199999999
 30
0.0
 40
5.4555839999999991
 50
92.384485000000026
 51
95.530381000000006
  0
ARC
  5
2BA
  8
0
 62
     7
 10
51.837552000000002
 20
213.660267
 30
0.0
 40
0.7437040000000001
 50
94.386773000000005
 51
103.68953
  0
ARC
  5
2BB
  8
0
 62
     7
 10
51.666977000000003
 20
214.34658899999999
 30
0.0
 40
0.036659
 50
98.518372999999997
 51
130.85462100000001
  0
ARC
  5
2BC
  8
0
 62
     7
 10
60.152532999999998
 20
206.10248999999999
 30
0.0
 40
4.8789379999999989
 50
39.493274999999997
 51
129.48010500000001
  0
ARC
  5
2BD
  8
0
 62
     7
 10
60.152793999999993
 20
206.103094
 30
0.0
 40
4.8786389999999988
 50
129.48697999999999
 51
140.51299
  0
ARC
  5
2BE
  8
0
 62
     7
 10
67.532443999999984
 20
204.65942799999999
 30
0.0
 40
12.437329
 50
168.93037200000001
 51
171.007991
  0
ARC
  5
2BF
  8
0
 62
     7
 10
59.734687999999998
 20
206.10088500000001
 30
0.0
 40
4.508646999999999
 50
158.94621100000001
 51
167.88136800000001
  0
ARC
  5
2C0
  8
0
 62
     7
 10
60.481850000000001
 20
205.85298900000001
 30
0.0
 40
5.2951160000000002
 50
151.25742299999999
 51
159.347284
  0
ARC
  5
2C1
  8
0
 62
     7
 10
60.171618999999993
 20
206.01847000000001
 30
0.0
 40
4.9435349999999989
 50
145.68347399999999
 51
151.21000900000001
  0
ARC
  5
2C2
  8
0
 62
     7
 10
60.036246999999989
 20
206.08711
 30
0.0
 40
4.793069
 50
143.21963
 51
145.448881
  0
ARC
  5
2C3
  8
0
 62
     7
 10
67.081816000000003
 20
200.81761299999999
 30
0.0
 40
13.591231000000001
 50
141.891705
 51
143.21116900000001
  0
ARC
  5
2C4
  8
0
 62
     7
 10
60.224666999999997
 20
206.10345100000001
 30
0.0
 40
4.9482699999999991
 50
174.20192800000001
 51
185.79807199999999
  0
LINE
  5
2C5
  8
0
 62
     7
 10
55.169400000000003
 20
205.572
 30
0.0
 11
55.1295
 21
205.60400000000001
 31
0.0
  0
ARC
  5
2C6
  8
0
 62
     7
 10
66.308082999999996
 20
208.13429099999999
 30
0.0
 40
11.427386
 50
197.40130500000001
 51
199.100168
  0
ARC
  5
2C7
  8
0
 62
     7
 10
61.732694999999993
 20
206.649055
 30
0.0
 40
6.6173999999999991
 50
194.20255
 51
196.97758899999999
  0
ARC
  5
2C8
  8
0
 62
     7
 10
64.947283999999996
 20
207.52940699999999
 30
0.0
 40
9.9499390000000005
 50
193.1337959999999
 51
194.57537099999999
  0
ARC
  5
2C9
  8
0
 62
     7
 10
18.954492999999999
 20
196.517832
 30
0.0
 40
37.342888000000002
 50
13.552345000000001
 51
13.846958000000001
  0
ARC
  5
2CA
  8
0
 62
     7
 10
54.405958999999989
 20
205.246576
 30
0.0
 40
0.8327049999999999
 50
14.500821999999999
 51
22.314059
  0
ARC
  5
2CB
  8
0
 62
     7
 10
55.148871999999997
 20
205.548315
 30
0.0
 40
0.030998
 50
27.732731999999999
 51
48.482413000000001
  0
ARC
  5
2CC
  8
0
 62
     7
 10
64.885130000000004
 20
213.82229000000001
 30
0.0
 40
14.007858000000001
 50
237.525476
 51
238.95408900000001
  0
ARC
  5
2CD
  8
0
 62
     7
 10
59.597030000000011
 20
205.455094
 30
0.0
 40
4.1098480000000004
 50
234.604038
 51
237.08836600000001
  0
ARC
  5
2CE
  8
0
 62
     7
 10
59.631725000000003
 20
205.49902800000001
 30
0.0
 40
4.1657589999999987
 50
226.83145200000001
 51
234.565044
  0
ARC
  5
2CF
  8
0
 62
     7
 10
60.033448999999997
 20
205.97748100000001
 30
0.0
 40
4.789676
 50
219.116974
 51
227.24220800000001
  0
ARC
  5
2D0
  8
0
 62
     7
 10
59.906518000000013
 20
205.884321
 30
0.0
 40
4.6324279999999991
 50
210.63064700000001
 51
219.21347399999999
  0
ARC
  5
2D1
  8
0
 62
     7
 10
59.684977000000003
 20
205.715058
 30
0.0
 40
4.3556809999999988
 50
204.55704600000001
 51
210.199579
  0
ARC
  5
2D2
  8
0
 62
     7
 10
66.703220999999985
 20
208.97834800000001
 30
0.0
 40
12.09544
 50
202.2674649999999
 51
204.80027000000001
  0
ARC
  5
2D3
  8
0
 62
     7
 10
68.556259999999995
 20
223.763271
 30
0.0
 40
24.4984
 50
243.59353100000001
 51
244.57090700000001
  0
ARC
  5
2D4
  8
0
 62
     7
 10
60.395462999999999
 20
206.67856399999999
 30
0.0
 40
5.5648140000000001
 50
244.92187200000001
 51
249.38405
  0
ARC
  5
2D5
  8
0
 62
     7
 10
60.001311999999999
 20
205.70056600000001
 30
0.0
 40
4.5107299999999997
 50
249.69594900000001
 51
260.755697
  0
ARC
  5
2D6
  8
0
 62
     7
 10
60.113063000000011
 20
205.988046
 30
0.0
 40
4.812856
 50
259.99237699999998
 51
265.295795
  0
ARC
  5
2D7
  8
0
 62
     7
 10
60.162123000000001
 20
206.52213800000001
 30
0.0
 40
5.3491739999999988
 50
265.24124799999998
 51
269.89995099999999
  0
ARC
  5
2D8
  8
0
 62
     7
 10
60.142859999999999
 20
206.38478900000001
 30
0.0
 40
5.2118269999999987
 50
270.10907200000003
 51
281.7038720000001
  0
ARC
  5
2D9
  8
0
 62
     7
 10
60.220118000000006
 20
206.047642
 30
0.0
 40
4.8660230000000002
 50
281.61838399999999
 51
290.82113600000002
  0
ARC
  5
2DA
  8
0
 62
     7
 10
60.475054999999998
 20
205.31859
 30
0.0
 40
4.094017
 50
291.113001
 51
293.63611700000001
  0
ARC
  5
2DB
  8
0
 62
     7
 10
59.429644999999987
 20
207.728995
 30
0.0
 40
6.7213520000000004
 50
293.56208500000002
 51
296.00803100000002
  0
ARC
  5
2DC
  8
0
 62
     7
 10
53.325408000000003
 20
220.21155400000001
 30
0.0
 40
20.616529
 50
296.04280399999999
 51
296.87059099999999
  0
ARC
  5
2DD
  8
0
 62
     7
 10
55.817784000000003
 20
213.212951
 30
0.0
 40
13.280374999999999
 50
300.92915499999998
 51
302.38502199999999
  0
ARC
  5
2DE
  8
0
 62
     7
 10
60.654890000000002
 20
205.533354
 30
0.0
 40
4.2045139999999988
 50
302.772809
 51
305.37031999999999
  0
ARC
  5
2DF
  8
0
 62
     7
 10
60.673492000000003
 20
205.49902800000001
 30
0.0
 40
4.1657589999999987
 50
305.43497600000001
 51
313.16856799999999
  0
ARC
  5
2E0
  8
0
 62
     7
 10
60.271768999999992
 20
205.97748100000001
 30
0.0
 40
4.789676
 50
312.757811
 51
320.88304599999998
  0
ARC
  5
2E1
  8
0
 62
     7
 10
60.398699000000001
 20
205.884321
 30
0.0
 40
4.6324279999999991
 50
320.78654499999999
 51
329.369372
  0
ARC
  5
2E2
  8
0
 62
     7
 10
60.505685
 20
205.77198799999999
 30
0.0
 40
4.4833339999999993
 50
329.90804300000002
 51
335.48438700000003
  0
ARC
  5
2E3
  8
0
 62
     7
 10
53.489950999999991
 20
209.03296399999999
 30
0.0
 40
12.219828
 50
335.22239500000001
 51
337.69464299999999
  0
ARC
  5
2E4
  8
0
 62
     7
 10
47.060201999999997
 20
210.42184499999999
 30
0.0
 40
18.731275
 50
341.23108300000001
 51
342.26748399999991
  0
ARC
  5
2E5
  8
0
 62
     7
 10
58.57252299999999
 20
206.649055
 30
0.0
 40
6.6173999999999991
 50
343.02243099999998
 51
345.79746899999998
  0
ARC
  5
2E6
  8
0
 62
     7
 10
55.357934
 20
207.52940699999999
 30
0.0
 40
9.9499390000000005
 50
345.42464899999999
 51
346.86622399999999
  0
ARC
  5
2E7
  8
0
 62
     7
 10
101.350725
 20
196.517832
 30
0.0
 40
37.342888000000002
 50
166.15302199999999
 51
166.44763499999999
  0
ARC
  5
2E8
  8
0
 62
     7
 10
65.899257999999989
 20
205.246576
 30
0.0
 40
0.8327049999999999
 50
157.68592100000001
 51
165.49915899999999
  0
ARC
  5
2E9
  8
0
 62
     7
 10
65.169772999999992
 20
205.54047600000001
 30
0.0
 40
0.046536
 50
138.14779799999999
 51
151.41698400000001
  0
LINE
  5
2EA
  8
0
 62
     7
 10
65.135099999999994
 20
205.572
 30
0.0
 11
65.175799999999995
 21
205.60400000000001
 31
0.0
  0
ARC
  5
2EB
  8
0
 62
     7
 10
60.080534
 20
206.10345100000001
 30
0.0
 40
4.9482869999999997
 50
354.20196800000002
 51
5.7980320000000001
  0
ARC
  5
2EC
  8
0
 62
     7
 10
52.772773000000001
 20
204.65942799999999
 30
0.0
 40
12.437329
 50
8.991989000000002
 51
11.069608000000001
  0
ARC
  5
2ED
  8
0
 62
     7
 10
60.570529000000001
 20
206.10088500000001
 30
0.0
 40
4.508646999999999
 50
12.118612000000001
 51
21.053768999999999
  0
ARC
  5
2EE
  8
0
 62
     7
 10
59.823367000000012
 20
205.85298900000001
 30
0.0
 40
5.2951160000000002
 50
20.652695999999999
 51
28.742557000000001
  0
ARC
  5
2EF
  8
0
 62
     7
 10
60.133598999999997
 20
206.01847000000001
 30
0.0
 40
4.9435349999999989
 50
28.789971000000001
 51
34.316507000000001
  0
ARC
  5
2F0
  8
0
 62
     7
 10
60.268969999999989
 20
206.08711
 30
0.0
 40
4.793069
 50
34.551099999999998
 51
36.780349999999999
  0
ARC
  5
2F1
  8
0
 62
     7
 10
53.223402
 20
200.81761299999999
 30
0.0
 40
13.591231000000001
 50
36.788811000000003
 51
38.108276000000011
  0
ARC
  5
2F2
  8
0
 62
     7
 10
60.152695999999992
 20
206.103364
 30
0.0
 40
4.3335280000000003
 50
89.998861000000019
 51
179.998831
  0
ARC
  5
2F3
  8
0
 62
     7
 10
60.152693999999997
 20
206.10353699999999
 30
0.0
 40
4.3335259999999991
 50
180.001149
 51
270.00115899999997
  0
ARC
  5
2F4
  8
0
 62
     7
 10
60.152693999999997
 20
206.10336599999999
 30
0.0
 40
4.3333550000000001
 50
270.00115899999997
 51
0.001129
  0
ARC
  5
2F5
  8
0
 62
     7
 10
60.152693999999997
 20
206.10353699999999
 30
0.0
 40
4.3333550000000001
 50
359.99887100000012
 51
89.998840999999999
  0
ARC
  5
2F6
  8
0
 62
     7
 10
60.152782000000002
 20
206.10345100000001
 30
0.0
 40
4.6850160000000001
 50
90.0
 51
179.99996999999999
  0
ARC
  5
2F7
  8
0
 62
     7
 10
60.152866000000003
 20
206.103364
 30
0.0
 40
4.6851000000000003
 50
179.99891700000001
 51
269.99896699999999
  0
ARC
  5
2F8
  8
0
 62
     7
 10
60.15252199999999
 20
206.103194
 30
0.0
 40
4.6849299999999996
 50
270.00317999999999
 51
0.00315
  0
ARC
  5
2F9
  8
0
 62
     7
 10
60.152608000000001
 20
206.103623
 30
0.0
 40
4.684844
 50
359.99790300000001
 51
89.997872999999984
  0
ARC
  5
2FA
  8
0
 62
     7
 10
60.152523000000002
 20
206.10319200000001
 30
0.0
 40
3.492747
 50
89.995761000000002
 51
179.995732
  0
ARC
  5
2FB
  8
0
 62
     7
 10
60.15252199999999
 20
206.10370900000001
 30
0.0
 40
3.4927449999999989
 50
180.0042489999999
 51
270.00425799999999
  0
ARC
  5
2FC
  8
0
 62
     7
 10
60.15252199999999
 20
206.103194
 30
0.0
 40
3.4922300000000002
 50
270.0042590000001
 51
0.004229
  0
ARC
  5
2FD
  8
0
 62
     7
 10
60.15252199999999
 20
206.10370900000001
 30
0.0
 40
3.4922300000000002
 50
359.99577099999999
 51
89.995741000000024
  0
ARC
  5
2FE
  8
0
 62
     7
 10
90.430334000000002
 20
207.37132199999999
 30
0.0
 40
14.27774
 50
176.01888500000001
 51
179.98020299999999
  0
ARC
  5
2FF
  8
0
 62
     7
 10
90.483109999999996
 20
207.24903900000001
 30
0.0
 40
13.996642
 50
173.163343
 51
186.836657
  0
LINE
  5
300
  8
0
 62
     7
 10
78.152799999999999
 20
208.93700000000001
 30
0.0
 11
78.152799999999999
 21
203.27000000000001
 31
0.0
  0
LINE
  5
301
  8
0
 62
     7
 10
77.485900000000001
 20
205.583
 30
0.0
 11
77.506500000000003
 21
205.583
 31
0.0
  0
ARC
  5
302
  8
0
 62
     7
 10
77.487174999999993
 20
205.95487800000001
 30
0.0
 40
0.371971
 50
272.98200200000002
 51
291.18409800000001
  0
ARC
  5
303
  8
0
 62
     7
 10
77.462750999999997
 20
206.02763100000001
 30
0.0
 40
0.4486470000000001
 50
290.734962
 51
309.426897
  0
ARC
  5
304
  8
0
 62
     7
 10
77.362245000000001
 20
206.16384199999999
 30
0.0
 40
0.6177560000000001
 50
308.60401899999999
 51
328.12891100000002
  0
ARC
  5
305
  8
0
 62
     7
 10
77.074883
 20
206.36563899999999
 30
0.0
 40
0.9685450000000001
 50
326.966746
 51
338.67126300000001
  0
ARC
  5
306
  8
0
 62
     7
 10
76.597375
 20
206.56161
 30
0.0
 40
1.4846529999999989
 50
338.328957
 51
344.81392599999998
  0
ARC
  5
307
  8
0
 62
     7
 10
76.023481000000004
 20
206.72958800000001
 30
0.0
 40
2.0825429999999989
 50
344.48986600000001
 51
352.59135400000002
  0
ARC
  5
308
  8
0
 62
     7
 10
74.470264
 20
206.95588799999999
 30
0.0
 40
3.652051999999999
 50
352.21277500000002
 51
356.03051199999999
  0
ARC
  5
309
  8
0
 62
     7
 10
71.799281000000008
 20
207.18352899999999
 30
0.0
 40
6.3325259999999997
 50
355.64873399999999
 51
0.591958
  0
ARC
  5
30A
  8
0
 62
     7
 10
70.079218000000012
 20
207.25132600000001
 30
0.0
 40
8.0522530000000003
 50
359.983116
 51
4.3716349999999986
  0
ARC
  5
30B
  8
0
 62
     7
 10
74.785906999999995
 20
207.57248799999999
 30
0.0
 40
3.3349989999999989
 50
5.0338039999999991
 51
11.045833
  0
ARC
  5
30C
  8
0
 62
     7
 10
76.414439000000002
 20
207.867009
 30
0.0
 40
1.6803650000000001
 50
11.828465
 51
21.441616
  0
ARC
  5
30D
  8
0
 62
     7
 10
76.939142000000004
 20
208.059989
 30
0.0
 40
1.121497999999999
 50
22.063998000000002
 51
32.638399
  0
ARC
  5
30E
  8
0
 62
     7
 10
77.274384999999995
 20
208.26326900000001
 30
0.0
 40
0.7296199999999999
 50
33.394525999999999
 51
42.243456000000002
  0
ARC
  5
30F
  8
0
 62
     7
 10
77.394182999999998
 20
208.37511900000001
 30
0.0
 40
0.5657449999999999
 50
42.014211000000003
 51
56.928979000000012
  0
ARC
  5
310
  8
0
 62
     7
 10
77.468211999999994
 20
208.48014900000001
 30
0.0
 40
0.437359
 50
57.547677999999991
 51
77.572017000000002
  0
ARC
  5
311
  8
0
 62
     7
 10
77.476286999999985
 20
208.44976
 30
0.0
 40
0.4655220000000001
 50
79.347832999999994
 51
88.82225600000001
  0
LINE
  5
312
  8
0
 62
     7
 10
75.351299999999995
 20
209.60300000000001
 30
0.0
 11
75.351299999999995
 21
202.60300000000001
 31
0.0
  0
LINE
  5
313
  8
0
 62
     7
 10
76.585999999999984
 20
205.583
 30
0.0
 11
77.485900000000001
 21
205.583
 31
0.0
  0
ARC
  5
314
  8
0
 62
     7
 10
76.637198999999995
 20
206.05778000000001
 30
0.0
 40
0.4776390000000001
 50
255.947441
 51
263.84543300000001
  0
ARC
  5
315
  8
0
 62
     7
 10
76.580945999999997
 20
205.784515
 30
0.0
 40
0.199242
 50
228.215588
 51
252.55696499999999
  0
ARC
  5
316
  8
0
 62
     7
 10
76.690256999999974
 20
205.945525
 30
0.0
 40
0.392983
 50
212.631077
 51
231.9766589999999
  0
ARC
  5
317
  8
0
 62
     7
 10
76.940431000000004
 20
206.13393099999999
 30
0.0
 40
0.705665
 50
194.96620599999989
 51
214.56114700000001
  0
ARC
  5
318
  8
0
 62
     7
 10
77.607972000000004
 20
206.35603800000001
 30
0.0
 40
1.4085510000000001
 50
186.804564
 51
196.682253
  0
ARC
  5
319
  8
0
 62
     7
 10
81.204188000000016
 20
206.84509299999999
 30
0.0
 40
5.0377320000000001
 50
185.182039
 51
187.48153599999989
  0
ARC
  5
31A
  8
0
 62
     7
 10
92.938191999999987
 20
207.11760000000001
 30
0.0
 40
16.797348
 50
175.74943099999999
 51
176.715137
  0
ARC
  5
31B
  8
0
 62
     7
 10
87.303632999999977
 20
207.49219099999999
 30
0.0
 40
11.150698999999999
 50
176.97778400000001
 51
179.54598300000001
  0
ARC
  5
31C
  8
0
 62
     7
 10
89.799580000000006
 20
207.420996
 30
0.0
 40
13.647228999999999
 50
179.33011999999999
 51
181.664142
  0
ARC
  5
31D
  8
0
 62
     7
 10
96.210403999999997
 20
207.62115800000001
 30
0.0
 40
20.061167000000001
 50
181.703855
 51
183.51823999999991
  0
ARC
  5
31E
  8
0
 62
     7
 10
79.845845999999995
 20
207.89157399999999
 30
0.0
 40
3.6889929999999991
 50
170.20245600000001
 51
172.664389
  0
ARC
  5
31F
  8
0
 62
     7
 10
76.947568000000004
 20
208.38185200000001
 30
0.0
 40
0.749625
 50
156.113472
 51
169.43324899999999
  0
ARC
  5
320
  8
0
 62
     7
 10
76.667416000000003
 20
208.50134399999999
 30
0.0
 40
0.4451020000000001
 50
141.30359100000001
 51
155.574926
  0
ARC
  5
321
  8
0
 62
     7
 10
76.639911999999995
 20
208.520194
 30
0.0
 40
0.411858
 50
124.348105
 51
140.95811699999999
  0
ARC
  5
322
  8
0
 62
     7
 10
76.615774000000002
 20
208.53393
 30
0.0
 40
0.38709
 50
111.53585699999999
 51
122.545165
  0
ARC
  5
323
  8
0
 62
     7
 10
76.587682000000001
 20
208.59971100000001
 30
0.0
 40
0.315595
 50
96.198404000000011
 51
111.17569399999999
  0
LINE
  5
324
  8
0
 62
     7
 10
76.553600000000003
 20
208.91300000000001
 30
0.0
 11
76.585999999999984
 21
208.91499999999999
 31
0.0
  0
LINE
  5
325
  8
0
 62
     7
 10
77.485900000000001
 20
208.91499999999999
 30
0.0
 11
76.585999999999984
 21
208.91499999999999
 31
0.0
  0
LINE
  5
326
  8
0
 62
     7
 10
42.1524
 20
203.27000000000001
 30
0.0
 11
42.1524
 21
208.93700000000001
 31
0.0
  0
LINE
  5
327
  8
0
 62
     7
 10
42.17369999999999
 20
209.10300000000001
 30
0.0
 11
42.197200000000002
 21
209.10300000000001
 31
0.0
  0
LINE
  5
328
  8
0
 62
     7
 10
42.197200000000002
 20
209.10300000000001
 30
0.0
 11
42.326700000000002
 21
209.10300000000001
 31
0.0
  0
LINE
  5
329
  8
0
 62
     7
 10
42.326700000000002
 20
209.10300000000001
 30
0.0
 11
42.49069999999999
 21
209.10300000000001
 31
0.0
  0
LINE
  5
32A
  8
0
 62
     7
 10
42.49069999999999
 20
209.10300000000001
 30
0.0
 11
42.602299999999993
 21
209.10300000000001
 31
0.0
  0
LINE
  5
32B
  8
0
 62
     7
 10
42.602299999999993
 20
209.10300000000001
 30
0.0
 11
42.742899999999992
 21
209.10300000000001
 31
0.0
  0
LINE
  5
32C
  8
0
 62
     7
 10
42.742899999999992
 20
209.10300000000001
 30
0.0
 11
42.819400000000002
 21
209.10300000000001
 31
0.0
  0
LINE
  5
32D
  8
0
 62
     7
 10
42.819400000000002
 20
203.10300000000001
 30
0.0
 11
42.79869999999999
 21
203.10300000000001
 31
0.0
  0
LINE
  5
32E
  8
0
 62
     7
 10
42.79869999999999
 20
203.10300000000001
 30
0.0
 11
42.683599999999998
 21
203.10300000000001
 31
0.0
  0
LINE
  5
32F
  8
0
 62
     7
 10
42.683599999999998
 20
203.10300000000001
 30
0.0
 11
42.55749999999999
 21
203.10300000000001
 31
0.0
  0
LINE
  5
330
  8
0
 62
     7
 10
42.55749999999999
 20
203.10300000000001
 30
0.0
 11
42.418399999999991
 21
203.10300000000001
 31
0.0
  0
LINE
  5
331
  8
0
 62
     7
 10
42.418399999999991
 20
203.10300000000001
 30
0.0
 11
42.274999999999999
 21
203.10300000000001
 31
0.0
  0
LINE
  5
332
  8
0
 62
     7
 10
42.274999999999999
 20
203.10300000000001
 30
0.0
 11
42.191699999999997
 21
203.10300000000001
 31
0.0
  0
LINE
  5
333
  8
0
 62
     7
 10
42.191699999999997
 20
203.10300000000001
 30
0.0
 11
42.17369999999999
 21
203.10300000000001
 31
0.0
  0
LINE
  5
334
  8
0
 62
     7
 10
44.953999999999994
 20
202.60300000000001
 30
0.0
 11
44.953999999999994
 21
209.60300000000001
 31
0.0
  0
ARC
  5
335
  8
0
 62
     7
 10
40.184884999999987
 20
210.28725
 30
0.0
 40
4.0241839999999991
 50
347.79903999999999
 51
349.12323300000003
  0
ARC
  5
336
  8
0
 62
     7
 10
52.435122
 20
207.82272599999999
 30
0.0
 40
8.4717280000000006
 50
167.8895
 51
168.388285
  0
ARC
  5
337
  8
0
 62
     7
 10
44.070092000000002
 20
209.61500599999999
 30
0.0
 40
0.083193
 50
345.28315099999998
 51
349.65923600000002
  0
ARC
  5
338
  8
0
 62
     7
 10
43.233961999999998
 20
209.68416400000001
 30
0.0
 40
0.9181649999999999
 50
339.37821600000001
 51
344.36913600000003
  0
ARC
  5
339
  8
0
 62
     7
 10
43.735374999999998
 20
209.508126
 30
0.0
 40
0.387061
 50
322.65025400000002
 51
337.625632
  0
ARC
  5
33A
  8
0
 62
     7
 10
43.716293
 20
209.51437300000001
 30
0.0
 40
0.406074
 50
311.46687800000001
 51
323.58297299999998
  0
ARC
  5
33B
  8
0
 62
     7
 10
43.673380000000002
 20
209.56544199999999
 30
0.0
 40
0.4727610000000001
 50
298.32387999999997
 51
311.26560599999999
  0
ARC
  5
33C
  8
0
 62
     7
 10
43.691685999999997
 20
209.547856
 30
0.0
 40
0.448663
 50
288.16224799999998
 51
297.33153300000009
  0
ARC
  5
33D
  8
0
 62
     7
 10
43.717851000000003
 20
209.46584799999999
 30
0.0
 40
0.362586
 50
275.34251
 51
288.27297099999998
  0
ARC
  5
33E
  8
0
 62
     7
 10
43.695481000000001
 20
210.04270199999999
 30
0.0
 40
0.9395430000000001
 50
271.44828200000001
 51
273.42503399999998
  0
LINE
  5
33F
  8
0
 62
     7
 10
42.819400000000002
 20
209.10300000000001
 30
0.0
 11
43.719200000000001
 21
209.10300000000001
 31
0.0
  0
LINE
  5
340
  8
0
 62
     7
 10
42.819400000000002
 20
203.10300000000001
 30
0.0
 11
42.819400000000002
 21
209.10300000000001
 31
0.0
  0
LINE
  5
341
  8
0
 62
     7
 10
43.719200000000001
 20
203.10300000000001
 30
0.0
 11
42.819400000000002
 21
203.10300000000001
 31
0.0
  0
ARC
  5
342
  8
0
 62
     7
 10
43.702931999999997
 20
202.591914
 30
0.0
 40
0.5117890000000001
 50
80.886392999999998
 51
88.175398000000001
  0
ARC
  5
343
  8
0
 62
     7
 10
43.73259199999999
 20
202.781172
 30
0.0
 40
0.320223
 50
67.13238299999999
 51
80.762753000000004
  0
ARC
  5
344
  8
0
 62
     7
 10
43.692543000000001
 20
202.66708199999999
 30
0.0
 40
0.4409710000000001
 50
54.929919999999989
 51
68.098394999999996
  0
ARC
  5
345
  8
0
 62
     7
 10
43.691656999999992
 20
202.66732500000001
 30
0.0
 40
0.441283
 50
36.472079000000001
 51
54.817632000000003
  0
ARC
  5
346
  8
0
 62
     7
 10
43.697237999999999
 20
202.67687699999999
 30
0.0
 40
0.43114
 50
12.491275
 51
35.892153
  0
ARC
  5
347
  8
0
 62
     7
 10
44.643579999999993
 20
202.73726300000001
 30
0.0
 40
0.5084350000000001
 50
192.089923
 51
194.14298600000001
  0
ARC
  5
348
  8
0
 62
     7
 10
0.6517960000000002
 20
193.886109
 30
0.0
 40
44.364981
 50
11.367853999999999
 51
11.551487
  0
LINE
  5
349
  8
0
 62
     7
 10
51.1524
 20
187.43700000000001
 30
0.0
 11
51.285400000000003
 21
187.43700000000001
 31
0.0
  0
LINE
  5
34A
  8
0
 62
     7
 10
56.5578
 20
187.43700000000001
 30
0.0
 11
57.350900000000003
 21
187.43700000000001
 31
0.0
  0
LINE
  5
34B
  8
0
 62
     7
 10
67.486099999999993
 20
187.43700000000001
 30
0.0
 11
69.152799999999999
 21
187.43700000000001
 31
0.0
  0
LINE
  5
34C
  8
0
 62
     7
 10
67.486099999999993
 20
187.43700000000001
 30
0.0
 11
58.5291
 21
187.43700000000001
 31
0.0
  0
LINE
  5
34D
  8
0
 62
     7
 10
57.350900000000003
 20
187.43700000000001
 30
0.0
 11
58.5291
 21
187.43700000000001
 31
0.0
  0
LINE
  5
34E
  8
0
 62
     7
 10
46.345100000000002
 20
201.10400000000001
 30
0.0
 11
50.1526
 21
201.10400000000001
 31
0.0
  0
LINE
  5
34F
  8
0
 62
     7
 10
70.152600000000007
 20
201.10400000000001
 30
0.0
 11
73.960099999999997
 21
201.10400000000001
 31
0.0
  0
LINE
  5
350
  8
0
 62
     7
 10
73.960099999999997
 20
211.10400000000001
 30
0.0
 11
70.152600000000007
 21
211.10400000000001
 31
0.0
  0
LINE
  5
351
  8
0
 62
     7
 10
50.1526
 20
211.10400000000001
 30
0.0
 11
46.345100000000002
 21
211.10400000000001
 31
0.0
  0
LINE
  5
352
  8
0
 62
     7
 10
50.1526
 20
201.10400000000001
 30
0.0
 11
50.4861
 21
201.43700000000001
 31
0.0
  0
LINE
  5
353
  8
0
 62
     7
 10
69.819100000000006
 20
201.43700000000001
 30
0.0
 11
70.152600000000007
 21
201.10400000000001
 31
0.0
  0
LINE
  5
354
  8
0
 62
     7
 10
46.152199999999993
 20
201.43700000000001
 30
0.0
 11
46.345100000000002
 21
201.10400000000001
 31
0.0
  0
LINE
  5
355
  8
0
 62
     7
 10
73.960099999999997
 20
201.10400000000001
 30
0.0
 11
74.1524
 21
201.43700000000001
 31
0.0
  0
LINE
  5
356
  8
0
 62
     7
 10
70.152600000000007
 20
211.10400000000001
 30
0.0
 11
69.819100000000006
 21
210.77000000000001
 31
0.0
  0
LINE
  5
357
  8
0
 62
     7
 10
74.1524
 20
210.77000000000001
 30
0.0
 11
73.960099999999997
 21
211.10400000000001
 31
0.0
  0
LINE
  5
358
  8
0
 62
     7
 10
46.345100000000002
 20
211.10400000000001
 30
0.0
 11
46.152199999999993
 21
210.77000000000001
 31
0.0
  0
LINE
  5
359
  8
0
 62
     7
 10
50.4861
 20
210.77000000000001
 30
0.0
 11
50.1526
 21
211.10400000000001
 31
0.0
  0
LINE
  5
35A
  8
0
 62
     7
 10
50.746600000000001
 20
210.77000000000001
 30
0.0
 11
50.4861
 21
210.77000000000001
 31
0.0
  0
LINE
  5
35B
  8
0
 62
     7
 10
50.4861
 20
201.43700000000001
 30
0.0
 11
50.4985
 21
201.43700000000001
 31
0.0
  0
LINE
  5
35C
  8
0
 62
     7
 10
69.806700000000006
 20
201.43700000000001
 30
0.0
 11
69.819100000000006
 21
201.43700000000001
 31
0.0
  0
LINE
  5
35D
  8
0
 62
     7
 10
69.819100000000006
 20
210.77000000000001
 30
0.0
 11
69.558599999999998
 21
210.77000000000001
 31
0.0
  0
LINE
  5
35E
  8
0
 62
     7
 10
74.1524
 20
202.61099999999999
 30
0.0
 11
75.351299999999995
 21
202.60300000000001
 31
0.0
  0
LINE
  5
35F
  8
0
 62
     7
 10
75.351299999999995
 20
209.60300000000001
 30
0.0
 11
74.1524
 21
209.596
 31
0.0
  0
LINE
  5
360
  8
0
 62
     7
 10
46.152199999999993
 20
209.596
 30
0.0
 11
44.953999999999994
 21
209.60300000000001
 31
0.0
  0
LINE
  5
361
  8
0
 62
     7
 10
44.953999999999994
 20
202.60300000000001
 30
0.0
 11
46.152199999999993
 21
202.61099999999999
 31
0.0
  0
ARC
  5
362
  8
0
 62
     7
 10
77.459586000000002
 20
203.29663500000001
 30
0.0
 40
0.6937479999999999
 50
272.17006900000001
 51
357.81514200000009
  0
ARC
  5
363
  8
0
 62
     7
 10
77.460690999999997
 20
208.91119499999999
 30
0.0
 40
0.6926090000000001
 50
2.1117059999999999
 51
87.917886999999993
  0
LINE
  5
364
  8
0
 62
     7
 10
75.351299999999995
 20
202.60300000000001
 30
0.0
 11
77.485900000000001
 21
202.60300000000001
 31
0.0
  0
LINE
  5
365
  8
0
 62
     7
 10
77.485900000000001
 20
209.60300000000001
 30
0.0
 11
75.351299999999995
 21
209.60300000000001
 31
0.0
  0
ARC
  5
366
  8
0
 62
     7
 10
42.794538000000003
 20
208.939536
 30
0.0
 40
0.6421560000000001
 50
165.17856800000001
 51
180.2516389999999
  0
ARC
  5
367
  8
0
 62
     7
 10
42.817692999999991
 20
203.27032700000001
 30
0.0
 40
0.6653050000000002
 50
180.01207199999999
 51
194.557762
  0
LINE
  5
368
  8
0
 62
     7
 10
44.953999999999994
 20
209.60300000000001
 30
0.0
 11
44.15059999999999
 21
209.60300000000001
 31
0.0
  0
LINE
  5
369
  8
0
 62
     7
 10
44.15059999999999
 20
202.60300000000001
 30
0.0
 11
44.953999999999994
 21
202.60300000000001
 31
0.0
  0
LINE
  5
36A
  8
0
 62
     7
 10
60.152799999999999
 20
204.76900000000001
 30
0.0
 11
57.561
 21
204.905
 31
0.0
  0
LINE
  5
36B
  8
0
 62
     7
 10
60.152799999999999
 20
204.76900000000001
 30
0.0
 11
62.744199999999999
 21
204.905
 31
0.0
  0
ARC
  5
36C
  8
0
 62
     7
 10
51.160472999999989
 20
200.79593800000001
 30
0.0
 40
0.026329
 50
282.54627599999998
 51
324.47060800000003
  0
ARC
  5
36D
  8
0
 62
     7
 10
51.079115000000002
 20
200.85853599999999
 30
0.0
 40
0.128969
 50
322.84209499999997
 51
340.41430800000001
  0
ARC
  5
36E
  8
0
 62
     7
 10
50.657791000000003
 20
201.02049099999999
 30
0.0
 40
0.580317
 50
339.29365000000013
 51
347.44537700000001
  0
ARC
  5
36F
  8
0
 62
     7
 10
49.266376000000001
 20
201.34292300000001
 30
0.0
 40
2.008586999999999
 50
347.09537
 51
351.57653399999998
  0
ARC
  5
370
  8
0
 62
     7
 10
45.278672999999991
 20
201.94496699999999
 30
0.0
 40
6.0414750000000002
 50
351.46843700000011
 51
354.70328799999999
  0
ARC
  5
371
  8
0
 62
     7
 10
77.163647999999995
 20
202.18761599999999
 30
0.0
 40
8.1923270000000006
 50
185.63195400000001
 51
187.32918000000001
  0
ARC
  5
372
  8
0
 62
     7
 10
72.013152000000005
 20
201.51804899999999
 30
0.0
 40
2.9985040000000001
 50
187.19446199999999
 51
191.31016199999999
  0
ARC
  5
373
  8
0
 62
     7
 10
69.817308999999995
 20
201.07248000000001
 30
0.0
 40
0.757946
 50
190.83635100000001
 51
199.42856599999999
  0
ARC
  5
374
  8
0
 62
     7
 10
69.223438999999999
 20
200.85878600000001
 30
0.0
 40
0.126874
 50
197.628176
 51
219.404821
  0
ARC
  5
375
  8
0
 62
     7
 10
69.143022000000002
 20
200.79261700000001
 30
0.0
 40
0.022734
 50
219.20416800000001
 51
259.87268599999999
  0
LINE
  5
376
  8
0
 62
     7
 10
77.485900000000001
 20
209.60300000000001
 30
0.0
 11
77.485900000000001
 21
208.91499999999999
 31
0.0
  0
LINE
  5
377
  8
0
 62
     7
 10
77.485900000000001
 20
205.583
 30
0.0
 11
77.485900000000001
 21
202.60300000000001
 31
0.0
  0
ARC
  5
378
  8
0
 62
     7
 10
60.152608999999998
 20
206.10327899999999
 30
0.0
 40
2.9388580000000002
 50
89.996642000000008
 51
179.996612
  0
ARC
  5
379
  8
0
 62
     7
 10
60.15252199999999
 20
206.10370900000001
 30
0.0
 40
2.938771
 50
180.0050479999999
 51
270.00505700000002
  0
ARC
  5
37A
  8
0
 62
     7
 10
60.15252199999999
 20
206.103193
 30
0.0
 40
2.938254999999999
 50
270.00505800000008
 51
0.005029
  0
ARC
  5
37B
  8
0
 62
     7
 10
60.152436000000002
 20
206.10379499999999
 30
0.0
 40
2.938340999999999
 50
359.993292
 51
89.993262000000001
  0
ARC
  5
37C
  8
0
 62
     7
 10
60.271675999999999
 20
205.984556
 30
0.0
 40
3.213776999999999
 50
92.120155000000011
 51
177.87981500000001
  0
ARC
  5
37D
  8
0
 62
     7
 10
60.271298999999999
 20
206.221969
 30
0.0
 40
3.213385999999999
 50
182.11371600000001
 51
267.88631299999997
  0
ARC
  5
37E
  8
0
 62
     7
 10
60.152608000000001
 20
206.10328000000001
 30
0.0
 40
3.092509999999999
 50
270.00321099999991
 51
0.003182
  0
ARC
  5
37F
  8
0
 62
     7
 10
60.152608000000001
 20
206.103623
 30
0.0
 40
3.092509999999999
 50
359.99681800000002
 51
89.996789000000007
  0
LINE
  5
380
  8
0
 62
     7
 10
66.150700000000001
 20
211.267
 30
0.0
 11
69.523499999999999
 21
211.267
 31
0.0
  0
LINE
  5
381
  8
0
 62
     7
 10
50.781700000000001
 20
211.267
 30
0.0
 11
54.154499999999992
 21
211.267
 31
0.0
  0
LINE
  5
382
  8
0
 62
     7
 10
54.154499999999992
 20
213.87899999999999
 30
0.0
 11
54.154499999999992
 21
213.21299999999999
 31
0.0
  0
LINE
  5
383
  8
0
 62
     7
 10
54.154499999999992
 20
213.21299999999999
 30
0.0
 11
51.147599999999997
 21
213.21299999999999
 31
0.0
  0
LINE
  5
384
  8
0
 62
     7
 10
66.150700000000001
 20
213.21299999999999
 30
0.0
 11
66.150700000000001
 21
213.87899999999999
 31
0.0
  0
LINE
  5
385
  8
0
 62
     7
 10
69.157600000000002
 20
213.21299999999999
 30
0.0
 11
66.150700000000001
 21
213.21299999999999
 31
0.0
  0
LINE
  5
386
  8
0
 62
     7
 10
66.150700000000001
 20
213.21299999999999
 30
0.0
 11
65.485100000000003
 21
213.21299999999999
 31
0.0
  0
LINE
  5
387
  8
0
 62
     7
 10
66.150700000000001
 20
213.21299999999999
 30
0.0
 11
66.150700000000001
 21
211.267
 31
0.0
  0
LINE
  5
388
  8
0
 62
     7
 10
66.150700000000001
 20
211.267
 30
0.0
 11
65.485100000000003
 21
211.267
 31
0.0
  0
LINE
  5
389
  8
0
 62
     7
 10
66.150700000000001
 20
211.267
 30
0.0
 11
66.150700000000001
 21
210.62200000000001
 31
0.0
  0
LINE
  5
38A
  8
0
 62
     7
 10
54.820099999999989
 20
213.21299999999999
 30
0.0
 11
54.154499999999992
 21
213.21299999999999
 31
0.0
  0
LINE
  5
38B
  8
0
 62
     7
 10
54.154499999999992
 20
211.267
 30
0.0
 11
54.154499999999992
 21
213.21299999999999
 31
0.0
  0
LINE
  5
38C
  8
0
 62
     7
 10
54.820099999999989
 20
211.267
 30
0.0
 11
54.154499999999992
 21
211.267
 31
0.0
  0
LINE
  5
38D
  8
0
 62
     7
 10
54.154499999999992
 20
210.62200000000001
 30
0.0
 11
54.154499999999992
 21
211.267
 31
0.0
  0
ARC
  5
38E
  8
0
 62
     7
 10
51.145069999999997
 20
214.20101199999999
 30
0.0
 40
0.987875
 50
248.41924100000011
 51
270.14608900000002
  0
LINE
  5
38F
  8
0
 62
     7
 10
51.147599999999997
 20
213.87899999999999
 30
0.0
 11
51.147599999999997
 21
213.21299999999999
 31
0.0
  0
LINE
  5
390
  8
0
 62
     7
 10
69.157600000000002
 20
213.21299999999999
 30
0.0
 11
69.157600000000002
 21
213.87899999999999
 31
0.0
  0
ARC
  5
391
  8
0
 62
     7
 10
69.158548999999994
 20
214.20945699999999
 30
0.0
 40
0.9963180000000002
 50
269.94708900000001
 51
291.48762099999999
  0
LINE
  5
392
  8
0
 62
     7
 10
50.1526
 20
201.10400000000001
 30
0.0
 11
50.1526
 21
201.16499999999999
 31
0.0
  0
LINE
  5
393
  8
0
 62
     7
 10
70.152600000000007
 20
201.10400000000001
 30
0.0
 11
70.152600000000007
 21
201.16499999999999
 31
0.0
  0
LINE
  5
394
  8
0
 62
     7
 10
46.152199999999993
 20
201.43700000000001
 30
0.0
 11
46.152199999999993
 21
202.06200000000001
 31
0.0
  0
LINE
  5
395
  8
0
 62
     7
 10
46.345100000000002
 20
201.10400000000001
 30
0.0
 11
46.345100000000002
 21
201.16499999999999
 31
0.0
  0
LINE
  5
396
  8
0
 62
     7
 10
74.1524
 20
201.43700000000001
 30
0.0
 11
74.1524
 21
202.06200000000001
 31
0.0
  0
LINE
  5
397
  8
0
 62
     7
 10
73.960099999999997
 20
201.10400000000001
 30
0.0
 11
73.960099999999997
 21
201.16499999999999
 31
0.0
  0
LINE
  5
398
  8
0
 62
     7
 10
70.152600000000007
 20
211.042
 30
0.0
 11
70.152600000000007
 21
211.10400000000001
 31
0.0
  0
LINE
  5
399
  8
0
 62
     7
 10
74.1524
 20
210.14500000000001
 30
0.0
 11
74.1524
 21
210.77000000000001
 31
0.0
  0
LINE
  5
39A
  8
0
 62
     7
 10
73.960099999999997
 20
211.042
 30
0.0
 11
73.960099999999997
 21
211.10400000000001
 31
0.0
  0
LINE
  5
39B
  8
0
 62
     7
 10
46.152199999999993
 20
210.14500000000001
 30
0.0
 11
46.152199999999993
 21
210.77000000000001
 31
0.0
  0
LINE
  5
39C
  8
0
 62
     7
 10
46.345100000000002
 20
211.042
 30
0.0
 11
46.345100000000002
 21
211.10400000000001
 31
0.0
  0
LINE
  5
39D
  8
0
 62
     7
 10
50.1526
 20
211.042
 30
0.0
 11
50.1526
 21
211.10400000000001
 31
0.0
  0
LINE
  5
39E
  8
0
 62
     7
 10
70.152600000000007
 20
201.16499999999999
 30
0.0
 11
73.960099999999997
 21
201.16499999999999
 31
0.0
  0
ARC
  5
39F
  8
0
 62
     7
 10
64.785888
 20
204.58547100000001
 30
0.0
 40
9.7912920000000003
 50
339.55024200000003
 51
341.01296500000001
  0
ARC
  5
3A0
  8
0
 62
     7
 10
72.069703000000004
 20
202.05739700000001
 30
0.0
 40
2.0813559999999991
 50
341.58300400000007
 51
347.54302000000013
  0
ARC
  5
3A1
  8
0
 62
     7
 10
72.214115000000007
 20
202.013127
 30
0.0
 40
1.930833
 50
347.90139699999997
 51
356.49452500000001
  0
ARC
  5
3A2
  8
0
 62
     7
 10
64.338676000000007
 20
202.62633099999999
 30
0.0
 40
9.8298970000000008
 50
355.73372799999999
 51
356.70876700000002
  0
ARC
  5
3A3
  8
0
 62
     7
 10
77.307106000000005
 20
205.81509600000001
 30
0.0
 40
8.5331720000000004
 50
211.46962099999999
 51
213.02456699999999
  0
ARC
  5
3A4
  8
0
 62
     7
 10
71.461145000000002
 20
202.22173100000001
 30
0.0
 40
1.6711990000000001
 50
201.85365300000001
 51
211.024585
  0
ARC
  5
3A5
  8
0
 62
     7
 10
70.966037
 20
201.99838800000001
 30
0.0
 40
1.1287679999999991
 50
189.72634300000001
 51
200.68631400000001
  0
ARC
  5
3A6
  8
0
 62
     7
 10
72.8309
 20
202.33997199999999
 30
0.0
 40
3.0246110000000002
 50
185.273437
 51
190.135895
  0
LINE
  5
3A7
  8
0
 62
     7
 10
50.1526
 20
201.16499999999999
 30
0.0
 11
46.345100000000002
 21
201.16499999999999
 31
0.0
  0
ARC
  5
3A8
  8
0
 62
     7
 10
42.998111000000002
 20
205.81509600000001
 30
0.0
 40
8.5331720000000004
 50
326.97545300000002
 51
328.53039899999999
  0
ARC
  5
3A9
  8
0
 62
     7
 10
48.844073000000002
 20
202.22173100000001
 30
0.0
 40
1.6711990000000001
 50
328.97543500000012
 51
338.146367
  0
ARC
  5
3AA
  8
0
 62
     7
 10
49.339179999999999
 20
201.99838800000001
 30
0.0
 40
1.1287679999999991
 50
339.31370600000002
 51
350.27367700000002
  0
ARC
  5
3AB
  8
0
 62
     7
 10
47.474316999999992
 20
202.33997199999999
 30
0.0
 40
3.0246110000000002
 50
349.864125
 51
354.72658300000001
  0
ARC
  5
3AC
  8
0
 62
     7
 10
55.519328999999999
 20
204.58547100000001
 30
0.0
 40
9.7912920000000003
 50
198.987055
 51
200.44977800000001
  0
ARC
  5
3AD
  8
0
 62
     7
 10
48.235514000000002
 20
202.05739700000001
 30
0.0
 40
2.0813559999999991
 50
192.45699899999991
 51
198.41701599999999
  0
ARC
  5
3AE
  8
0
 62
     7
 10
48.106369999999991
 20
202.01638600000001
 30
0.0
 40
1.946443999999999
 50
183.57346799999999
 51
192.09824
  0
ARC
  5
3AF
  8
0
 62
     7
 10
58.464805000000013
 20
202.829465
 30
0.0
 40
12.336532999999999
 50
183.566811
 51
184.34389200000001
  0
ARC
  5
3B0
  8
0
 62
     7
 10
65.988129000000001
 20
209.66718299999999
 30
0.0
 40
8.1781959999999998
 50
3.3488839999999991
 51
5.0293919999999988
  0
ARC
  5
3B1
  8
0
 62
     7
 10
72.154499000000001
 20
210.18964399999999
 30
0.0
 40
1.9898669999999989
 50
5.6092000000000004
 51
11.932055
  0
ARC
  5
3B2
  8
0
 62
     7
 10
72.448889000000008
 20
210.24619100000001
 30
0.0
 40
1.690154999999999
 50
12.11985
 51
15.865973
  0
ARC
  5
3B3
  8
0
 62
     7
 10
71.406494999999993
 20
209.94911400000001
 30
0.0
 40
2.7740559999999999
 50
15.882115000000001
 51
19.621245999999999
  0
ARC
  5
3B4
  8
0
 62
     7
 10
64.808233999999999
 20
207.59222600000001
 30
0.0
 40
9.7806219999999993
 50
19.646605999999998
 51
20.655804
  0
LINE
  5
3B5
  8
0
 62
     7
 10
70.152600000000007
 20
211.042
 30
0.0
 11
73.960099999999997
 21
211.042
 31
0.0
  0
LINE
  5
3B6
  8
0
 62
     7
 10
69.819100000000006
 20
210.14500000000001
 30
0.0
 11
69.819100000000006
 21
210.15600000000001
 31
0.0
  0
ARC
  5
3B7
  8
0
 62
     7
 10
71.039406999999997
 20
210.143677
 30
0.0
 40
1.2203759999999999
 50
158.07632699999999
 51
179.43216899999999
  0
ARC
  5
3B8
  8
0
 62
     7
 10
71.383001000000007
 20
210.008287
 30
0.0
 40
1.589674
 50
148.764298
 51
158.173272
  0
ARC
  5
3B9
  8
0
 62
     7
 10
75.459921999999992
 20
207.63840300000001
 30
0.0
 40
6.3051490000000001
 50
147.32511
 51
149.561971
  0
LINE
  5
3BA
  8
0
 62
     7
 10
50.4861
 20
210.14500000000001
 30
0.0
 11
50.4861
 21
210.15600000000001
 31
0.0
  0
ARC
  5
3BB
  8
0
 62
     7
 10
49.265809999999988
 20
210.143677
 30
0.0
 40
1.2203759999999999
 50
0.567811
 51
21.923653000000002
  0
ARC
  5
3BC
  8
0
 62
     7
 10
48.922217000000003
 20
210.008287
 30
0.0
 40
1.589674
 50
21.826708
 51
31.235682000000011
  0
ARC
  5
3BD
  8
0
 62
     7
 10
44.845294999999993
 20
207.63840300000001
 30
0.0
 40
6.3051490000000001
 50
30.438009000000001
 51
32.674869999999999
  0
LINE
  5
3BE
  8
0
 62
     7
 10
50.1526
 20
211.042
 30
0.0
 11
46.345100000000002
 21
211.042
 31
0.0
  0
ARC
  5
3BF
  8
0
 62
     7
 10
55.264600999999999
 20
209.57032000000001
 30
0.0
 40
9.1305300000000003
 50
174.79652100000001
 51
176.391886
  0
ARC
  5
3C0
  8
0
 62
     7
 10
48.179901999999998
 20
210.19043600000001
 30
0.0
 40
2.018942
 50
168.26519500000001
 51
174.08785900000001
  0
ARC
  5
3C1
  8
0
 62
     7
 10
47.917709000000002
 20
210.22481099999999
 30
0.0
 40
1.755347999999999
 50
163.89550399999999
 51
167.623177
  0
ARC
  5
3C2
  8
0
 62
     7
 10
49.759596000000002
 20
209.68173999999999
 30
0.0
 40
3.6756129999999989
 50
158.273381
 51
163.72654900000001
  0
LINE
  5
3C3
  8
0
 62
     7
 10
50.1526
 20
202.959
 30
0.0
 11
46.345100000000002
 21
202.959
 31
0.0
  0
LINE
  5
3C4
  8
0
 62
     7
 10
70.152600000000007
 20
202.959
 30
0.0
 11
73.960099999999997
 21
202.959
 31
0.0
  0
LINE
  5
3C5
  8
0
 62
     7
 10
46.345100000000002
 20
202.959
 30
0.0
 11
46.345100000000002
 21
204.30799999999999
 31
0.0
  0
LINE
  5
3C6
  8
0
 62
     7
 10
46.152199999999993
 20
202.06200000000001
 30
0.0
 11
46.152199999999993
 21
206.10300000000001
 31
0.0
  0
ARC
  5
3C7
  8
0
 62
     7
 10
55.259504000000007
 20
201.487709
 30
0.0
 40
9.1254229999999996
 50
174.79576900000001
 51
176.3918929999999
  0
ARC
  5
3C8
  8
0
 62
     7
 10
48.175556999999991
 20
202.10785000000001
 30
0.0
 40
2.014581999999999
 50
168.254546
 51
174.08558099999999
  0
ARC
  5
3C9
  8
0
 62
     7
 10
47.929146999999993
 20
202.13918200000001
 30
0.0
 40
1.7670609999999991
 50
163.91713300000001
 51
167.62279599999999
  0
ARC
  5
3CA
  8
0
 62
     7
 10
49.752321999999999
 20
201.60157799999999
 30
0.0
 40
3.6678299999999999
 50
158.271547
 51
163.73756900000001
  0
LINE
  5
3CB
  8
0
 62
     7
 10
50.4861
 20
202.06200000000001
 30
0.0
 11
50.4861
 21
201.43700000000001
 31
0.0
  0
LINE
  5
3CC
  8
0
 62
     7
 10
50.4861
 20
210.77000000000001
 30
0.0
 11
50.4861
 21
210.14500000000001
 31
0.0
  0
LINE
  5
3CD
  8
0
 62
     7
 10
54.154499999999992
 20
210.62200000000001
 30
0.0
 11
50.807899999999997
 21
210.62200000000001
 31
0.0
  0
LINE
  5
3CE
  8
0
 62
     7
 10
50.1526
 20
204.30799999999999
 30
0.0
 11
46.345100000000002
 21
204.30799999999999
 31
0.0
  0
ARC
  5
3CF
  8
0
 62
     7
 10
61.795285999999997
 20
207.35379699999999
 30
0.0
 40
15.747475
 50
189.12857199999999
 51
191.15077700000001
  0
ARC
  5
3D0
  8
0
 62
     7
 10
53.108268000000002
 20
205.86506399999999
 30
0.0
 40
6.9348979999999987
 50
183.932061
 51
188.371083
  0
ARC
  5
3D1
  8
0
 62
     7
 10
64.39699499999999
 20
206.704455
 30
0.0
 40
18.254722000000001
 50
181.88672099999999
 51
184.130776
  0
ARC
  5
3D2
  8
0
 62
     7
 10
43.100749999999998
 20
213.831175
 30
0.0
 40
8.4107729999999972
 50
326.975256
 51
328.55332900000002
  0
ARC
  5
3D3
  8
0
 62
     7
 10
48.843693000000002
 20
210.30454399999999
 30
0.0
 40
1.6715070000000001
 50
328.98317600000001
 51
338.15506699999997
  0
ARC
  5
3D4
  8
0
 62
     7
 10
49.339179999999999
 20
210.081322
 30
0.0
 40
1.1287679999999991
 50
339.31370600000002
 51
350.27367700000002
  0
ARC
  5
3D5
  8
0
 62
     7
 10
47.474316999999992
 20
210.42290600000001
 30
0.0
 40
3.0246110000000002
 50
349.864125
 51
354.72658300000001
  0
ARC
  5
3D6
  8
0
 62
     7
 10
29.287782
 20
205.15980999999999
 30
0.0
 40
21.219336999999999
 50
2.5488300000000002
 51
3.5884819999999991
  0
ARC
  5
3D7
  8
0
 62
     7
 10
45.262894000000003
 20
206.12844100000001
 30
0.0
 40
5.2150259999999991
 50
3.952685999999999
 51
7.3440049999999992
  0
ARC
  5
3D8
  8
0
 62
     7
 10
46.124270000000003
 20
206.22059999999999
 30
0.0
 40
4.3489760000000004
 50
7.590414
 51
16.922536999999998
  0
ARC
  5
3D9
  8
0
 62
     7
 10
42.238069999999993
 20
205.13014200000001
 30
0.0
 40
8.3847710000000006
 50
16.321543999999999
 51
19.279008999999999
  0
LINE
  5
3DA
  8
0
 62
     7
 10
50.4861
 20
210.14500000000001
 30
0.0
 11
50.4861
 21
206.10300000000001
 31
0.0
  0
LINE
  5
3DB
  8
0
 62
     7
 10
50.1526
 20
204.30799999999999
 30
0.0
 11
50.181600000000003
 21
204.39099999999999
 31
0.0
  0
ARC
  5
3DC
  8
0
 62
     7
 10
44.456882
 20
206.364799
 30
0.0
 40
6.0555629999999994
 50
340.97236400000003
 51
348.94118800000012
  0
ARC
  5
3DD
  8
0
 62
     7
 10
45.462769000000002
 20
206.12812700000001
 30
0.0
 40
5.0231110000000001
 50
349.38982299999998
 51
359.23909500000002
  0
LINE
  5
3DE
  8
0
 62
     7
 10
50.485399999999998
 20
206.06100000000001
 30
0.0
 11
50.4861
 21
206.10300000000001
 31
0.0
  0
LINE
  5
3DF
  8
0
 62
     7
 10
50.1526
 20
202.959
 30
0.0
 11
50.1526
 21
204.30799999999999
 31
0.0
  0
LINE
  5
3E0
  8
0
 62
     7
 10
50.4861
 20
202.06200000000001
 30
0.0
 11
50.4861
 21
202.07300000000001
 31
0.0
  0
ARC
  5
3E1
  8
0
 62
     7
 10
49.265809999999988
 20
202.060742
 30
0.0
 40
1.2203759999999999
 50
0.567811
 51
21.923653000000002
  0
ARC
  5
3E2
  8
0
 62
     7
 10
48.922217000000003
 20
201.925353
 30
0.0
 40
1.589674
 50
21.826708
 51
31.235682000000011
  0
ARC
  5
3E3
  8
0
 62
     7
 10
44.845294999999993
 20
199.55546899999999
 30
0.0
 40
6.3051490000000001
 50
30.438009000000001
 51
32.674869999999999
  0
LINE
  5
3E4
  8
0
 62
     7
 10
50.4861
 20
206.10300000000001
 30
0.0
 11
50.4861
 21
202.06200000000001
 31
0.0
  0
ARC
  5
3E5
  8
0
 62
     7
 10
55.319642000000002
 20
212.59381500000001
 30
0.0
 40
9.5781880000000008
 50
198.95353600000001
 51
200.450018
  0
ARC
  5
3E6
  8
0
 62
     7
 10
48.242703999999989
 20
210.14245199999999
 30
0.0
 40
2.088833999999999
 50
192.471283
 51
198.40880399999989
  0
ARC
  5
3E7
  8
0
 62
     7
 10
48.106369999999991
 20
210.09932000000001
 30
0.0
 40
1.946443999999999
 50
183.57346799999999
 51
192.09824
  0
ARC
  5
3E8
  8
0
 62
     7
 10
58.464805000000013
 20
210.91239999999999
 30
0.0
 40
12.336532999999999
 50
183.566811
 51
184.34389200000001
  0
LINE
  5
3E9
  8
0
 62
     7
 10
46.152199999999993
 20
206.10300000000001
 30
0.0
 11
46.152199999999993
 21
210.14500000000001
 31
0.0
  0
ARC
  5
3EA
  8
0
 62
     7
 10
90.982760999999996
 20
204.05713
 30
0.0
 40
44.877270999999993
 50
176.673529
 51
177.38649100000001
  0
ARC
  5
3EB
  8
0
 62
     7
 10
55.511334999999988
 20
206.09158300000001
 30
0.0
 40
9.3475999999999981
 50
171.352733
 51
176.50680299999999
  0
ARC
  5
3EC
  8
0
 62
     7
 10
55.368758999999997
 20
206.00291799999999
 30
0.0
 40
9.2206210000000013
 50
168.13629499999999
 51
170.67482000000001
  0
LINE
  5
3ED
  8
0
 62
     7
 10
74.1524
 20
206.10300000000001
 30
0.0
 11
74.1524
 21
210.14500000000001
 31
0.0
  0
ARC
  5
3EE
  8
0
 62
     7
 10
64.985575999999995
 20
212.59381500000001
 30
0.0
 40
9.5781880000000008
 50
339.55000100000001
 51
341.04648399999991
  0
ARC
  5
3EF
  8
0
 62
     7
 10
72.062514000000007
 20
210.14245199999999
 30
0.0
 40
2.088833999999999
 50
341.59121599999997
 51
347.52873699999998
  0
ARC
  5
3F0
  8
0
 62
     7
 10
72.214115000000007
 20
210.09606099999999
 30
0.0
 40
1.930833
 50
347.90139699999997
 51
356.49452500000001
  0
ARC
  5
3F1
  8
0
 62
     7
 10
64.338676000000007
 20
210.70926499999999
 30
0.0
 40
9.8298970000000008
 50
355.73372799999999
 51
356.70876700000002
  0
LINE
  5
3F2
  8
0
 62
     7
 10
69.819100000000006
 20
202.06200000000001
 30
0.0
 11
69.819100000000006
 21
202.07300000000001
 31
0.0
  0
ARC
  5
3F3
  8
0
 62
     7
 10
71.039406999999997
 20
202.060742
 30
0.0
 40
1.2203759999999999
 50
158.07632699999999
 51
179.43216899999999
  0
ARC
  5
3F4
  8
0
 62
     7
 10
71.383001000000007
 20
201.925353
 30
0.0
 40
1.589674
 50
148.764298
 51
158.173272
  0
ARC
  5
3F5
  8
0
 62
     7
 10
75.459921999999992
 20
199.55546899999999
 30
0.0
 40
6.3051490000000001
 50
147.32511
 51
149.561971
  0
LINE
  5
3F6
  8
0
 62
     7
 10
70.152600000000007
 20
202.959
 30
0.0
 11
70.152600000000007
 21
204.30799999999999
 31
0.0
  0
LINE
  5
3F7
  8
0
 62
     7
 10
73.960099999999997
 20
202.959
 30
0.0
 11
73.960099999999997
 21
204.30799999999999
 31
0.0
  0
ARC
  5
3F8
  8
0
 62
     7
 10
65.992574000000005
 20
201.58450999999999
 30
0.0
 40
8.1737429999999982
 50
3.348878
 51
5.030149999999999
  0
ARC
  5
3F9
  8
0
 62
     7
 10
72.158270999999999
 20
202.10698400000001
 30
0.0
 40
1.9860839999999991
 50
5.6113280000000003
 51
11.941934
  0
ARC
  5
3FA
  8
0
 62
     7
 10
72.434888000000001
 20
202.16006300000001
 30
0.0
 40
1.704477999999999
 50
12.120352
 51
15.838497
  0
ARC
  5
3FB
  8
0
 62
     7
 10
71.388396
 20
201.86094700000001
 30
0.0
 40
2.7928779999999991
 50
15.8825
 51
19.672612999999998
  0
ARC
  5
3FC
  8
0
 62
     7
 10
64.658174999999986
 20
199.45304300000001
 30
0.0
 40
9.9408759999999994
 50
19.682186999999999
 51
20.654070000000001
  0
LINE
  5
3FD
  8
0
 62
     7
 10
74.1524
 20
202.06200000000001
 30
0.0
 11
74.1524
 21
206.10300000000001
 31
0.0
  0
LINE
  5
3FE
  8
0
 62
     7
 10
70.152600000000007
 20
204.30799999999999
 30
0.0
 11
73.960099999999997
 21
204.30799999999999
 31
0.0
  0
ARC
  5
3FF
  8
0
 62
     7
 10
58.509931999999992
 20
207.35379699999999
 30
0.0
 40
15.747475
 50
348.849242
 51
350.87144799999999
  0
ARC
  5
400
  8
0
 62
     7
 10
67.214938000000004
 20
205.86242899999999
 30
0.0
 40
6.9167179999999986
 50
351.62883299999999
 51
356.07947999999999
  0
ARC
  5
401
  8
0
 62
     7
 10
56.464663999999999
 20
206.659468
 30
0.0
 40
17.696432000000001
 50
355.88473299999998
 51
358.19948599999998
  0
ARC
  5
402
  8
0
 62
     7
 10
31.999018
 20
204.241895
 30
0.0
 40
42.194425999999993
 50
2.528626
 51
3.2720310000000001
  0
ARC
  5
403
  8
0
 62
     7
 10
64.779402000000005
 20
206.09133600000001
 30
0.0
 40
9.3619529999999997
 50
3.4224019999999991
 51
8.6354229999999994
  0
ARC
  5
404
  8
0
 62
     7
 10
64.936458999999999
 20
206.00291799999999
 30
0.0
 40
9.2206210000000013
 50
9.3251609999999996
 51
11.863685
  0
LINE
  5
405
  8
0
 62
     7
 10
70.152600000000007
 20
204.30799999999999
 30
0.0
 11
70.123599999999996
 21
204.39099999999999
 31
0.0
  0
ARC
  5
406
  8
0
 62
     7
 10
75.848334999999992
 20
206.364799
 30
0.0
 40
6.0555629999999994
 50
191.058832
 51
199.02765600000001
  0
ARC
  5
407
  8
0
 62
     7
 10
74.842448000000005
 20
206.12812700000001
 30
0.0
 40
5.0231110000000001
 50
180.7609239999999
 51
190.610197
  0
ARC
  5
408
  8
0
 62
     7
 10
70.473287999999997
 20
206.093155
 30
0.0
 40
0.6542780000000001
 50
179.098285
 51
182.78009700000001
  0
ARC
  5
409
  8
0
 62
     7
 10
77.204466999999994
 20
213.831175
 30
0.0
 40
8.4107729999999972
 50
211.44669099999999
 51
213.02476300000001
  0
ARC
  5
40A
  8
0
 62
     7
 10
71.461524999999995
 20
210.30454399999999
 30
0.0
 40
1.6715070000000001
 50
201.844953
 51
211.01684399999999
  0
ARC
  5
40B
  8
0
 62
     7
 10
70.966037
 20
210.081322
 30
0.0
 40
1.1287679999999991
 50
189.72634300000001
 51
200.68631400000001
  0
ARC
  5
40C
  8
0
 62
     7
 10
72.8309
 20
210.42290600000001
 30
0.0
 40
3.0246110000000002
 50
185.273437
 51
190.135895
  0
ARC
  5
40D
  8
0
 62
     7
 10
91.017436000000004
 20
205.15980999999999
 30
0.0
 40
21.219336999999999
 50
176.41149799999999
 51
177.45115000000001
  0
ARC
  5
40E
  8
0
 62
     7
 10
75.042322999999996
 20
206.12844100000001
 30
0.0
 40
5.2150259999999991
 50
172.65597600000001
 51
176.04729499999999
  0
ARC
  5
40F
  8
0
 62
     7
 10
74.231222000000002
 20
206.213875
 30
0.0
 40
4.399699
 50
163.18684099999999
 51
172.40923599999999
  0
ARC
  5
410
  8
0
 62
     7
 10
77.620843000000008
 20
205.26072600000001
 30
0.0
 40
7.9204160000000003
 50
160.54667599999999
 51
163.67909900000001
  0
LINE
  5
411
  8
0
 62
     7
 10
69.819100000000006
 20
206.10300000000001
 30
0.0
 11
69.819100000000006
 21
202.06200000000001
 31
0.0
  0
LINE
  5
412
  8
0
 62
     7
 10
69.819100000000006
 20
210.14500000000001
 30
0.0
 11
69.819100000000006
 21
206.10300000000001
 31
0.0
  0
LINE
  5
413
  8
0
 62
     7
 10
69.819100000000006
 20
210.77000000000001
 30
0.0
 11
69.819100000000006
 21
210.14500000000001
 31
0.0
  0
LINE
  5
414
  8
0
 62
     7
 10
69.819100000000006
 20
202.06200000000001
 30
0.0
 11
69.819100000000006
 21
201.43700000000001
 31
0.0
  0
LINE
  5
415
  8
0
 62
     7
 10
69.497299999999996
 20
210.62200000000001
 30
0.0
 11
66.150700000000001
 21
210.62200000000001
 31
0.0
  0
LINE
  5
416
  8
0
 62
     7
 10
50.1526
 20
207.899
 30
0.0
 11
46.345100000000002
 21
207.899
 31
0.0
  0
LINE
  5
417
  8
0
 62
     7
 10
50.1526
 20
207.899
 30
0.0
 11
50.1526
 21
209.24700000000001
 31
0.0
  0
LINE
  5
418
  8
0
 62
     7
 10
50.1526
 20
209.24700000000001
 30
0.0
 11
46.345100000000002
 21
209.24700000000001
 31
0.0
  0
LINE
  5
419
  8
0
 62
     7
 10
46.345100000000002
 20
207.899
 30
0.0
 11
46.345100000000002
 21
209.24700000000001
 31
0.0
  0
LINE
  5
41A
  8
0
 62
     7
 10
70.152600000000007
 20
207.899
 30
0.0
 11
73.960099999999997
 21
207.899
 31
0.0
  0
LINE
  5
41B
  8
0
 62
     7
 10
73.960099999999997
 20
207.899
 30
0.0
 11
73.960099999999997
 21
209.24700000000001
 31
0.0
  0
LINE
  5
41C
  8
0
 62
     7
 10
70.152600000000007
 20
209.24700000000001
 30
0.0
 11
73.960099999999997
 21
209.24700000000001
 31
0.0
  0
LINE
  5
41D
  8
0
 62
     7
 10
70.152600000000007
 20
207.899
 30
0.0
 11
70.152600000000007
 21
209.24700000000001
 31
0.0
  0
ARC
  5
41E
  8
0
 62
     7
 10
71.763759999999991
 20
200.50631200000001
 30
0.0
 40
2.637970999999999
 50
171.31995499999999
 51
174.25801200000001
  0
ARC
  5
41F
  8
0
 62
     7
 10
69.800534999999996
 20
200.793488
 30
0.0
 40
0.6540100000000001
 50
162.46323899999999
 51
170.23395400000001
  0
ARC
  5
420
  8
0
 62
     7
 10
69.730412000000001
 20
200.81231600000001
 30
0.0
 40
0.5814810000000001
 50
139.98062300000001
 51
162.15022500000001
  0
ARC
  5
421
  8
0
 62
     7
 10
69.818595999999985
 20
200.75567100000001
 30
0.0
 40
0.6855700000000001
 50
122.341403
 51
141.09442300000001
  0
ARC
  5
422
  8
0
 62
     7
 10
69.814274999999995
 20
200.748198
 30
0.0
 40
0.6896140000000001
 50
102.992109
 51
121.70589200000001
  0
ARC
  5
423
  8
0
 62
     7
 10
69.804776000000004
 20
200.78920199999999
 30
0.0
 40
0.647525
 50
90.562422999999995
 51
102.988868
  0
LINE
  5
424
  8
0
 62
     7
 10
69.798400000000001
 20
201.43700000000001
 30
0.0
 11
69.806700000000006
 21
201.43700000000001
 31
0.0
  0
ARC
  5
425
  8
0
 62
     7
 10
124.14693200000001
 20
205.696845
 30
0.0
 40
54.616061999999999
 50
181.231369
 51
182.739011
  0
ARC
  5
426
  8
0
 62
     7
 10
91.402026000000006
 20
204.14469500000001
 30
0.0
 40
21.834398
 50
182.7767419999999
 51
185.5633969999999
  0
ARC
  5
427
  8
0
 62
     7
 10
75.511392999999984
 20
202.63383899999999
 30
0.0
 40
5.8722599999999989
 50
185.92251999999999
 51
188.841196
  0
ARC
  5
428
  8
0
 62
     7
 10
71.669578000000001
 20
202.02984000000001
 30
0.0
 40
1.983271
 50
188.65773699999991
 51
193.618999
  0
ARC
  5
429
  8
0
 62
     7
 10
70.230259000000004
 20
201.67441400000001
 30
0.0
 40
0.5007729999999999
 50
192.87244799999999
 51
203.56042600000001
  0
ARC
  5
42A
  8
0
 62
     7
 10
69.857193000000009
 20
201.509344
 30
0.0
 40
0.092851
 50
202.20963
 51
226.2117669999999
  0
ARC
  5
42B
  8
0
 62
     7
 10
69.807426000000007
 20
201.45812599999999
 30
0.0
 40
0.021443
 50
227.50440900000001
 51
268.02901900000001
  0
ARC
  5
42C
  8
0
 62
     7
 10
48.541457999999999
 20
200.50631200000001
 30
0.0
 40
2.637970999999999
 50
5.7419679999999991
 51
8.6800259999999998
  0
ARC
  5
42D
  8
0
 62
     7
 10
50.504683
 20
200.793488
 30
0.0
 40
0.6540100000000001
 50
9.7660260000000001
 51
17.536740999999999
  0
ARC
  5
42E
  8
0
 62
     7
 10
50.574804999999998
 20
200.81231600000001
 30
0.0
 40
0.5814810000000001
 50
17.849754999999998
 51
40.019356999999992
  0
ARC
  5
42F
  8
0
 62
     7
 10
50.486621
 20
200.75567100000001
 30
0.0
 40
0.6855700000000001
 50
38.905557000000002
 51
57.658577999999999
  0
ARC
  5
430
  8
0
 62
     7
 10
50.490943000000001
 20
200.748198
 30
0.0
 40
0.6896140000000001
 50
58.294088000000009
 51
77.007870999999994
  0
ARC
  5
431
  8
0
 62
     7
 10
50.501018000000002
 20
200.794059
 30
0.0
 40
0.642663
 50
76.963917000000009
 51
89.484752999999998
  0
LINE
  5
432
  8
0
 62
     7
 10
50.506799999999991
 20
201.43700000000001
 30
0.0
 11
50.4985
 21
201.43700000000001
 31
0.0
  0
ARC
  5
433
  8
0
 62
     7
 10
50.498396
 20
201.45575099999999
 30
0.0
 40
0.019056
 50
270.40022999999991
 51
305.77907699999997
  0
ARC
  5
434
  8
0
 62
     7
 10
50.474507000000003
 20
201.48738
 30
0.0
 40
0.05869
 50
306.64637700000009
 51
331.08455400000003
  0
ARC
  5
435
  8
0
 62
     7
 10
50.306936
 20
201.58362600000001
 30
0.0
 40
0.251927
 50
330.35138899999998
 51
342.58459900000008
  0
ARC
  5
436
  8
0
 62
     7
 10
49.666491999999991
 20
201.79300799999999
 30
0.0
 40
0.9257159999999998
 50
342.08318700000001
 51
348.43917299999998
  0
ARC
  5
437
  8
0
 62
     7
 10
47.838796000000002
 20
202.17646999999999
 30
0.0
 40
2.7931970000000002
 50
348.24640900000003
 51
352.18058000000002
  0
ARC
  5
438
  8
0
 62
     7
 10
43.535279999999993
 20
202.78638000000001
 30
0.0
 40
7.1397019999999998
 50
352.03019899999998
 51
354.43478399999998
  0
ARC
  5
439
  8
0
 62
     7
 10
35.537291000000003
 20
203.58279899999999
 30
0.0
 40
15.177237999999999
 50
354.37049100000002
 51
356.01073300000002
  0
ARC
  5
43A
  8
0
 62
     7
 10
23.075232
 20
204.46765099999999
 30
0.0
 40
27.670665
 50
355.97816599999999
 51
357.21032700000001
  0
ARC
  5
43B
  8
0
 62
     7
 10
2.396450999999999
 20
205.474751
 30
0.0
 40
48.373956
 50
357.21094900000003
 51
358.87284900000009
  0
LINE
  5
43C
  8
0
 62
     7
 10
67.486099999999993
 20
206.60300000000001
 30
0.0
 11
66.156899999999993
 21
206.60300000000001
 31
0.0
  0
LINE
  5
43D
  8
0
 62
     7
 10
66.156899999999993
 20
205.60400000000001
 30
0.0
 11
67.486099999999993
 21
205.60400000000001
 31
0.0
  0
LINE
  5
43E
  8
0
 62
     7
 10
67.486099999999993
 20
205.10400000000001
 30
0.0
 11
69.485600000000005
 21
206.10300000000001
 31
0.0
  0
LINE
  5
43F
  8
0
 62
     7
 10
69.485600000000005
 20
206.10300000000001
 30
0.0
 11
67.486099999999993
 21
207.10300000000001
 31
0.0
  0
LINE
  5
440
  8
0
 62
     7
 10
67.486099999999993
 20
205.60400000000001
 30
0.0
 11
67.486099999999993
 21
205.10400000000001
 31
0.0
  0
LINE
  5
441
  8
0
 62
     7
 10
67.486099999999993
 20
207.10300000000001
 30
0.0
 11
67.486099999999993
 21
206.60300000000001
 31
0.0
  0
LINE
  5
442
  8
0
 62
     7
 10
54.147599999999997
 20
205.60400000000001
 30
0.0
 11
52.819200000000002
 21
205.60400000000001
 31
0.0
  0
LINE
  5
443
  8
0
 62
     7
 10
52.819200000000002
 20
206.60300000000001
 30
0.0
 11
54.147599999999997
 21
206.60300000000001
 31
0.0
  0
LINE
  5
444
  8
0
 62
     7
 10
52.819200000000002
 20
207.10300000000001
 30
0.0
 11
52.819200000000002
 21
206.60300000000001
 31
0.0
  0
LINE
  5
445
  8
0
 62
     7
 10
50.818899999999999
 20
206.10300000000001
 30
0.0
 11
52.819200000000002
 21
207.10300000000001
 31
0.0
  0
LINE
  5
446
  8
0
 62
     7
 10
52.819200000000002
 20
205.10400000000001
 30
0.0
 11
50.818899999999999
 21
206.10300000000001
 31
0.0
  0
LINE
  5
447
  8
0
 62
     7
 10
52.819200000000002
 20
205.60400000000001
 30
0.0
 11
52.819200000000002
 21
205.10400000000001
 31
0.0
  0
LINE
  5
448
  8
0
 62
     7
 10
54.383899999999997
 20
205.60400000000001
 30
0.0
 11
54.383899999999997
 21
204.94800000000001
 31
0.0
  0
LINE
  5
449
  8
0
 62
     7
 10
65.921300000000002
 20
205.60400000000001
 30
0.0
 11
65.921300000000002
 21
204.94800000000001
 31
0.0
  0
ARC
  5
44A
  8
0
 62
     7
 10
54.131077000000012
 20
211.31213099999999
 30
0.0
 40
0.690461
 50
271.94298500000002
 51
356.28032000000002
  0
ARC
  5
44B
  8
0
 62
     7
 10
-11.31803
 20
206.188031
 30
0.0
 40
65.681915000000004
 50
0.3622839999999999
 51
2.5017819999999991
  0
ARC
  5
44C
  8
0
 62
     7
 10
31.783387000000001
 20
208.011718
 30
0.0
 40
22.542054
 50
2.6528839999999998
 51
5.502273999999999
  0
ARC
  5
44D
  8
0
 62
     7
 10
49.654913999999998
 20
209.72013999999999
 30
0.0
 40
4.5890779999999989
 50
5.6654019999999994
 51
11.334572
  0
ARC
  5
44E
  8
0
 62
     7
 10
67.926477000000006
 20
210.210825
 30
0.0
 40
1.822743999999999
 50
166.960812
 51
170.76519200000001
  0
ARC
  5
44F
  8
0
 62
     7
 10
70.753623000000005
 20
209.73443499999999
 30
0.0
 40
4.6897279999999988
 50
170.563445
 51
173.35966400000001
  0
ARC
  5
450
  8
0
 62
     7
 10
76.652656000000007
 20
209.03717499999999
 30
0.0
 40
10.629822000000001
 50
173.303383
 51
175.26255800000001
  0
ARC
  5
451
  8
0
 62
     7
 10
86.838275999999993
 20
208.18172300000001
 30
0.0
 40
20.851298
 50
175.231493
 51
176.623436
  0
ARC
  5
452
  8
0
 62
     7
 10
106.91305800000001
 20
207.01032599999999
 30
0.0
 40
40.960225999999999
 50
176.641614
 51
178.75940800000001
  0
ARC
  5
453
  8
0
 62
     7
 10
135.673958
 20
206.18387999999999
 30
0.0
 40
69.732574999999997
 50
178.59214700000001
 51
179.65533099999999
  0
ARC
  5
454
  8
0
 62
     7
 10
66.174730000000011
 20
211.31273899999999
 30
0.0
 40
0.6910890000000001
 50
183.76684
 51
268.00989399999997
  0
ARC
  5
455
  8
0
 62
     7
 10
52.403992999999993
 20
203.06320299999999
 30
0.0
 40
2.6507540000000001
 50
104.103691
 51
106.171223
  0
ARC
  5
456
  8
0
 62
     7
 10
52.048338999999999
 20
204.31024199999999
 30
0.0
 40
1.354015999999999
 50
106.413639
 51
124.93368599999999
  0
ARC
  5
457
  8
0
 62
     7
 10
52.028343
 20
204.33724799999999
 30
0.0
 40
1.3204260000000001
 50
124.89340900000001
 51
142.98909399999999
  0
ARC
  5
458
  8
0
 62
     7
 10
51.872084999999998
 20
204.470755
 30
0.0
 40
1.115354
 50
143.63360499999999
 51
163.801301
  0
ARC
  5
459
  8
0
 62
     7
 10
51.613292999999999
 20
204.56232800000001
 30
0.0
 40
0.8414370000000001
 50
164.87333000000001
 51
170.32324199999999
  0
ARC
  5
45A
  8
0
 62
     7
 10
52.919438999999997
 20
204.34263100000001
 30
0.0
 40
2.1659310000000001
 50
170.402019
 51
175.218445
  0
ARC
  5
45B
  8
0
 62
     7
 10
50.88073099999999
 20
203.78007500000001
 30
0.0
 40
0.752678
 50
43.430452999999993
 51
99.149485000000013
  0
LINE
  5
45C
  8
0
 62
     7
 10
52.1081
 20
205.459
 30
0.0
 11
52.1081
 21
204.94800000000001
 31
0.0
  0
ARC
  5
45D
  8
0
 62
     7
 10
67.847696999999997
 20
202.86533600000001
 30
0.0
 40
2.8557030000000001
 50
73.902956000000003
 51
75.822091
  0
ARC
  5
45E
  8
0
 62
     7
 10
68.251906999999989
 20
204.29989900000001
 30
0.0
 40
1.3653439999999999
 50
55.143788000000001
 51
73.508847000000003
  0
ARC
  5
45F
  8
0
 62
     7
 10
68.28321600000001
 20
204.34633299999999
 30
0.0
 40
1.309345999999999
 50
36.878613999999999
 51
55.106757999999999
  0
ARC
  5
460
  8
0
 62
     7
 10
68.447468000000001
 20
204.47609600000001
 30
0.0
 40
1.100098999999999
 50
16.139817000000001
 51
36.606350999999997
  0
ARC
  5
461
  8
0
 62
     7
 10
68.696549000000005
 20
204.56357299999999
 30
0.0
 40
0.836648
 50
9.6462249999999994
 51
15.127041999999999
  0
ARC
  5
462
  8
0
 62
     7
 10
67.546972999999994
 20
204.370349
 30
0.0
 40
2.0023490000000002
 50
4.3772909999999996
 51
9.5850969999999993
  0
LINE
  5
463
  8
0
 62
     7
 10
68.197100000000006
 20
205.459
 30
0.0
 11
68.197100000000006
 21
204.94800000000001
 31
0.0
  0
ARC
  5
464
  8
0
 62
     7
 10
69.423295999999993
 20
203.78322299999999
 30
0.0
 40
0.7496500000000002
 50
80.774375000000006
 51
136.68168600000001
  0
LINE
  5
465
  8
0
 62
     7
 10
54.813899999999997
 20
205.60400000000001
 30
0.0
 11
54.147599999999997
 21
205.60400000000001
 31
0.0
  0
LINE
  5
466
  8
0
 62
     7
 10
54.147599999999997
 20
206.60300000000001
 30
0.0
 11
54.813899999999997
 21
206.60300000000001
 31
0.0
  0
LINE
  5
467
  8
0
 62
     7
 10
66.156899999999993
 20
206.60300000000001
 30
0.0
 11
65.491299999999995
 21
206.60300000000001
 31
0.0
  0
LINE
  5
468
  8
0
 62
     7
 10
65.491299999999995
 20
205.60400000000001
 30
0.0
 11
66.156899999999993
 21
205.60400000000001
 31
0.0
  0
LINE
  5
469
  8
0
 62
     7
 10
60.152799999999999
 20
204.10300000000001
 30
0.0
 11
58.7117
 21
204.179
 31
0.0
  0
LINE
  5
46A
  8
0
 62
     7
 10
60.152799999999999
 20
204.10300000000001
 30
0.0
 11
61.593499999999992
 21
204.179
 31
0.0
  0
LINE
  5
46B
  8
0
 62
     7
 10
51.285400000000003
 20
187.43700000000001
 30
0.0
 11
51.534799999999997
 21
187.43700000000001
 31
0.0
  0
LINE
  5
46C
  8
0
 62
     7
 10
51.166200000000011
 20
187.43700000000001
 30
0.0
 11
51.166200000000011
 21
200.77000000000001
 31
0.0
  0
ARC
  5
46D
  8
0
 62
     7
 10
38.555759000000002
 20
202.65630100000001
 30
0.0
 40
12.801648
 50
354.310858
 51
355.67413599999998
  0
ARC
  5
46E
  8
0
 62
     7
 10
26.876840999999999
 20
203.557996
 30
0.0
 40
24.515315999999999
 50
355.63160299999998
 51
356.894409
  0
ARC
  5
46F
  8
0
 62
     7
 10
8.1278670000000002
 20
204.591824
 30
0.0
 40
43.292766999999998
 50
356.87249200000002
 51
357.88022799999999
  0
ARC
  5
470
  8
0
 62
     7
 10
-18.361564999999999
 20
205.58303699999999
 30
0.0
 40
69.800736000000001
 50
357.871421
 51
358.944727
  0
LINE
  5
471
  8
0
 62
     7
 10
69.138999999999996
 20
187.43700000000001
 30
0.0
 11
69.138999999999996
 21
200.77000000000001
 31
0.0
  0
ARC
  5
472
  8
0
 62
     7
 10
142.429969
 20
205.71289200000001
 30
0.0
 40
73.565701000000004
 50
181.10243299999999
 51
182.38645700000001
  0
ARC
  5
473
  8
0
 62
     7
 10
96.137362999999993
 20
203.793375
 30
0.0
 40
27.233319000000002
 50
182.406935
 51
185.07646399999999
  0
LINE
  5
474
  8
0
 62
     7
 10
68.877899999999997
 20
204.298
 30
0.0
 11
68.770399999999995
 21
204.19
 31
0.0
  0
ARC
  5
475
  8
0
 62
     7
 10
67.473392000000004
 20
204.15921700000001
 30
0.0
 40
1.411287
 50
5.6239109999999988
 51
11.603365999999999
  0
ARC
  5
476
  8
0
 62
     7
 10
68.265403000000006
 20
204.296841
 30
0.0
 40
0.608273
 50
13.910844000000001
 51
34.457528000000011
  0
ARC
  5
477
  8
0
 62
     7
 10
68.175042000000005
 20
204.244821
 30
0.0
 40
0.7122600000000001
 50
33.795219000000003
 51
51.744052000000003
  0
ARC
  5
478
  8
0
 62
     7
 10
68.213133999999997
 20
204.296863
 30
0.0
 40
0.6478130000000001
 50
51.539617999999997
 51
71.471300999999997
  0
ARC
  5
479
  8
0
 62
     7
 10
68.23917800000001
 20
204.337234
 30
0.0
 40
0.6013760000000001
 50
72.601846999999992
 51
78.928953000000007
  0
ARC
  5
47A
  8
0
 62
     7
 10
68.103538
 20
203.604669
 30
0.0
 40
1.3463739999999991
 50
79.250488000000004
 51
86.013922999999977
  0
LINE
  5
47B
  8
0
 62
     7
 10
51.427300000000002
 20
204.298
 30
0.0
 11
51.534799999999997
 21
204.19
 31
0.0
  0
ARC
  5
47C
  8
0
 62
     7
 10
52.970852999999998
 20
204.14536100000001
 30
0.0
 40
1.5510029999999999
 50
168.933347
 51
174.36998199999999
  0
ARC
  5
47D
  8
0
 62
     7
 10
52.061444000000002
 20
204.28499600000001
 30
0.0
 40
0.632815
 50
145.76615799999999
 51
165.53388899999999
  0
ARC
  5
47E
  8
0
 62
     7
 10
52.104883999999998
 20
204.268216
 30
0.0
 40
0.6782510000000001
 50
127.80192099999999
 51
146.6587679999999
  0
ARC
  5
47F
  8
0
 62
     7
 10
52.094279
 20
204.29281900000001
 30
0.0
 40
0.652346
 50
108.59862
 51
128.39042000000001
  0
ARC
  5
480
  8
0
 62
     7
 10
52.064233000000002
 20
204.34606299999999
 30
0.0
 40
0.5924100000000001
 50
100.55436899999999
 51
107.486768
  0
ARC
  5
481
  8
0
 62
     7
 10
52.211040999999987
 20
203.526523
 30
0.0
 40
1.424987999999999
 50
94.143141999999983
 51
100.321574
  0
LINE
  5
482
  8
0
 62
     7
 10
58.7117
 20
203.98400000000001
 30
0.0
 11
60.152799999999999
 21
203.90799999999999
 31
0.0
  0
LINE
  5
483
  8
0
 62
     7
 10
61.593499999999992
 20
203.98400000000001
 30
0.0
 11
60.152799999999999
 21
203.90799999999999
 31
0.0
  0
ARC
  5
484
  8
0
 62
     7
 10
39.781162999999999
 20
-155.47877299999999
 30
0.0
 40
360.15564000000001
 50
86.987016999999994
 51
87.036959999999979
  0
ARC
  5
485
  8
0
 62
     7
 10
55.44656299999999
 20
149.75618600000001
 30
0.0
 40
54.519144999999988
 50
86.896528000000004
 51
87.147411000000005
  0
ARC
  5
486
  8
0
 62
     7
 10
59.845652000000001
 20
235.96495400000001
 30
0.0
 40
31.801895999999999
 50
266.80708299999998
 51
266.96124099999997
  0
ARC
  5
487
  8
0
 62
     7
 10
57.390901999999997
 20
204.081512
 30
0.0
 40
1.324379999999999
 50
355.77824100000009
 51
4.2217589999999987
  0
ARC
  5
488
  8
0
 62
     7
 10
80.524055000000004
 20
-155.47877299999999
 30
0.0
 40
360.15564000000001
 50
92.963021000000012
 51
93.012963000000013
  0
ARC
  5
489
  8
0
 62
     7
 10
64.858654999999999
 20
149.75618600000001
 30
0.0
 40
54.519144999999988
 50
92.852568999999974
 51
93.103452000000004
  0
ARC
  5
48A
  8
0
 62
     7
 10
65.358432999999991
 20
144.76835600000001
 30
0.0
 40
59.526194999999987
 50
92.987837999999996
 51
93.094100999999995
  0
ARC
  5
48B
  8
0
 62
     7
 10
62.914308999999989
 20
204.081512
 30
0.0
 40
1.3243739999999991
 50
175.778201
 51
184.221799
  0
ARC
  5
48C
  8
0
 62
     7
 10
65.948743999999991
 20
205.64132699999999
 30
0.0
 40
0.6940840000000002
 50
183.11879300000001
 51
267.73270300000001
  0
ARC
  5
48D
  8
0
 62
     7
 10
54.356656000000001
 20
205.64041399999999
 30
0.0
 40
0.693164
 50
272.25521099999997
 51
356.95266900000001
  0
ARC
  5
48E
  8
0
 62
     7
 10
62.054425999999999
 20
204.08108100000001
 30
0.0
 40
0.058013
 50
322.825197
 51
344.720755
  0
ARC
  5
48F
  8
0
 62
     7
 10
62.101058999999999
 20
204.065494
 30
0.0
 40
0.009334
 50
1.842708
 51
46.019811999999988
  0
ARC
  5
490
  8
0
 62
     7
 10
62.082375999999996
 20
204.04312999999999
 30
0.0
 40
0.038457
 50
49.128660000000004
 51
93.572247000000004
  0
ARC
  5
491
  8
0
 62
     7
 10
62.057159999999989
 20
203.89737099999999
 30
0.0
 40
0.185549
 50
82.935721000000001
 51
91.038684000000003
  0
ARC
  5
492
  8
0
 62
     7
 10
62.055456
 20
203.61036100000001
 30
0.0
 40
0.472532
 50
90.201137000000017
 51
97.743833999999964
  0
ARC
  5
493
  8
0
 62
     7
 10
62.063107999999993
 20
203.42936
 30
0.0
 40
0.65313
 50
96.269368999999998
 51
100.178772
  0
ARC
  5
494
  8
0
 62
     7
 10
62.210506000000002
 20
202.45810499999999
 30
0.0
 40
1.6353619999999991
 50
99.248113000000004
 51
104.354753
  0
ARC
  5
495
  8
0
 62
     7
 10
62.878234999999997
 20
199.74259499999999
 30
0.0
 40
4.431716999999999
 50
104.013931
 51
106.851299
  0
ARC
  5
496
  8
0
 62
     7
 10
60.181034999999987
 20
205.65089399999999
 30
0.0
 40
2.184861999999999
 50
269.25905499999999
 51
310.27757200000002
  0
ARC
  5
497
  8
0
 62
     7
 10
60.127302
 20
205.659558
 30
0.0
 40
2.193490999999999
 50
229.80658199999999
 51
270.665549
  0
ARC
  5
498
  8
0
 62
     7
 10
58.252490999999999
 20
204.082077
 30
0.0
 40
0.059969
 50
195.92638299999999
 51
216.951627
  0
ARC
  5
499
  8
0
 62
     7
 10
58.20417299999999
 20
204.065485
 30
0.0
 40
0.00935
 50
134.007957
 51
179.16615400000001
  0
ARC
  5
49A
  8
0
 62
     7
 10
58.223941000000003
 20
204.039872
 30
0.0
 40
0.04166
 50
88.216263999999995
 51
129.08278899999999
  0
LINE
  5
49B
  8
0
 62
     7
 10
58.225200000000001
 20
204.08199999999999
 30
0.0
 11
58.250700000000002
 21
204.083
 31
0.0
  0
ARC
  5
49C
  8
0
 62
     7
 10
58.241238000000003
 20
203.486043
 30
0.0
 40
0.5969220000000001
 50
83.053331999999983
 51
89.088690000000014
  0
ARC
  5
49D
  8
0
 62
     7
 10
58.239947000000001
 20
203.41440399999999
 30
0.0
 40
0.668233
 50
79.865403000000001
 51
83.686417000000006
  0
ARC
  5
49E
  8
0
 62
     7
 10
58.08651600000001
 20
202.41888299999999
 30
0.0
 40
1.6753919999999991
 50
75.706272999999996
 51
80.690821000000014
  0
ARC
  5
49F
  8
0
 62
     7
 10
57.470411999999989
 20
199.899913
 30
0.0
 40
4.2685659999999999
 50
73.094445999999991
 51
76.040284999999997
  0
LINE
  5
4A0
  8
0
 62
     7
 10
68.197100000000006
 20
204.94800000000001
 30
0.0
 11
65.921300000000002
 21
204.94800000000001
 31
0.0
  0
LINE
  5
4A1
  8
0
 62
     7
 10
65.921300000000002
 20
204.94800000000001
 30
0.0
 11
65.797300000000007
 21
204.83500000000001
 31
0.0
  0
LINE
  5
4A2
  8
0
 62
     7
 10
68.104799999999997
 20
204.85499999999999
 30
0.0
 11
68.197100000000006
 21
204.94800000000001
 31
0.0
  0
LINE
  5
4A3
  8
0
 62
     7
 10
52.1081
 20
204.94800000000001
 30
0.0
 11
54.383899999999997
 21
204.94800000000001
 31
0.0
  0
LINE
  5
4A4
  8
0
 62
     7
 10
52.200400000000002
 20
204.85499999999999
 30
0.0
 11
52.1081
 21
204.94800000000001
 31
0.0
  0
LINE
  5
4A5
  8
0
 62
     7
 10
54.383899999999997
 20
204.94800000000001
 30
0.0
 11
54.508000000000003
 21
204.83500000000001
 31
0.0
  0
ARC
  5
4A6
  8
0
 62
     7
 10
64.686807999999999
 20
150.04516000000001
 30
0.0
 40
54.801051000000001
 50
88.038968999999994
 51
88.838905999999994
  0
ARC
  5
4A7
  8
0
 62
     7
 10
55.697251999999999
 20
147.15212099999999
 30
0.0
 40
57.695096999999997
 50
91.181138000000004
 51
91.940947999999977
  0
LINE
  5
4A8
  8
0
 62
     7
 10
62.7697
 20
187.43700000000001
 30
0.0
 11
62.7697
 21
201.245
 31
0.0
  0
ARC
  5
4A9
  8
0
 62
     7
 10
64.655612000000005
 20
165.81440900000001
 30
0.0
 40
38.365022000000003
 50
87.693441000000007
 51
88.440935999999994
  0
LINE
  5
4AA
  8
0
 62
     7
 10
54.105600000000003
 20
187.43700000000001
 30
0.0
 11
56.5578
 21
187.43700000000001
 31
0.0
  0
ARC
  5
4AB
  8
0
 62
     7
 10
55.521802999999998
 20
169.60153399999999
 30
0.0
 40
34.575830000000003
 50
91.518084000000016
 51
92.347498999999999
  0
LINE
  5
4AC
  8
0
 62
     7
 10
57.535499999999999
 20
187.43700000000001
 30
0.0
 11
57.535499999999999
 21
201.245
 31
0.0
  0
LINE
  5
4AD
  8
0
 62
     7
 10
66.562100000000001
 20
204.81399999999999
 30
0.0
 11
66.493200000000002
 21
204.79599999999999
 31
0.0
  0
LINE
  5
4AE
  8
0
 62
     7
 10
66.493200000000002
 20
204.79599999999999
 30
0.0
 11
66.426999999999992
 21
204.755
 31
0.0
  0
LINE
  5
4AF
  8
0
 62
     7
 10
66.426999999999992
 20
204.755
 30
0.0
 11
66.365700000000004
 21
204.69200000000001
 31
0.0
  0
LINE
  5
4B0
  8
0
 62
     7
 10
66.365700000000004
 20
204.69200000000001
 30
0.0
 11
66.311300000000003
 21
204.60900000000001
 31
0.0
  0
LINE
  5
4B1
  8
0
 62
     7
 10
66.311300000000003
 20
204.60900000000001
 30
0.0
 11
66.266499999999994
 21
204.50899999999999
 31
0.0
  0
LINE
  5
4B2
  8
0
 62
     7
 10
66.266499999999994
 20
204.50899999999999
 30
0.0
 11
66.231999999999999
 21
204.39699999999999
 31
0.0
  0
LINE
  5
4B3
  8
0
 62
     7
 10
66.231999999999999
 20
204.39699999999999
 30
0.0
 11
66.209299999999999
 21
204.27500000000001
 31
0.0
  0
LINE
  5
4B4
  8
0
 62
     7
 10
66.209299999999999
 20
204.27500000000001
 30
0.0
 11
66.199700000000007
 21
204.148
 31
0.0
  0
ARC
  5
4B5
  8
0
 62
     7
 10
68.076965000000001
 20
204.16185300000001
 30
0.0
 40
0.6939910000000001
 50
2.2987349999999989
 51
87.701255000000003
  0
ARC
  5
4B6
  8
0
 62
     7
 10
67.081916000000007
 20
220.12820300000001
 30
0.0
 40
15.322907000000001
 50
268.05584099999999
 51
273.22878300000002
  0
ARC
  5
4B7
  8
0
 62
     7
 10
67.819000000000003
 20
206.48149000000001
 30
0.0
 40
1.6566650000000001
 50
274.36009799999999
 51
278.43705599999998
  0
ARC
  5
4B8
  8
0
 62
     7
 10
68.056596999999996
 20
204.94053199999999
 30
0.0
 40
0.097931
 50
273.20372800000001
 51
299.48625099999998
  0
LINE
  5
4B9
  8
0
 62
     7
 10
51.534799999999997
 20
187.43700000000001
 30
0.0
 11
51.534799999999997
 21
204.19
 31
0.0
  0
LINE
  5
4BA
  8
0
 62
     7
 10
51.534799999999997
 20
187.43700000000001
 30
0.0
 11
54.105600000000003
 21
187.43700000000001
 31
0.0
  0
LINE
  5
4BB
  8
0
 62
     7
 10
54.105600000000003
 20
187.43700000000001
 30
0.0
 11
54.105600000000003
 21
204.148
 31
0.0
  0
LINE
  5
4BC
  8
0
 62
     7
 10
68.770399999999995
 20
187.43700000000001
 30
0.0
 11
68.770399999999995
 21
204.19
 31
0.0
  0
ARC
  5
4BD
  8
0
 62
     7
 10
67.065904000000003
 20
246.69533799999999
 30
0.0
 40
42.555809000000004
 50
268.83363400000002
 51
271.93716999999998
  0
ARC
  5
4BE
  8
0
 62
     7
 10
68.291923999999995
 20
208.7929
 30
0.0
 40
4.6339249999999987
 50
272.62849899999998
 51
275.04707999999999
  0
ARC
  5
4BF
  8
0
 62
     7
 10
68.693648999999994
 20
204.41297800000001
 30
0.0
 40
0.236111
 50
271.44165600000002
 51
288.96867099999997
  0
LINE
  5
4C0
  8
0
 62
     7
 10
66.199700000000007
 20
187.43700000000001
 30
0.0
 11
66.199700000000007
 21
204.148
 31
0.0
  0
LINE
  5
4C1
  8
0
 62
     7
 10
53.743099999999998
 20
204.81399999999999
 30
0.0
 11
53.811999999999991
 21
204.79599999999999
 31
0.0
  0
LINE
  5
4C2
  8
0
 62
     7
 10
53.811999999999991
 20
204.79599999999999
 30
0.0
 11
53.8782
 21
204.755
 31
0.0
  0
LINE
  5
4C3
  8
0
 62
     7
 10
53.8782
 20
204.755
 30
0.0
 11
53.939500000000002
 21
204.69200000000001
 31
0.0
  0
LINE
  5
4C4
  8
0
 62
     7
 10
53.939500000000002
 20
204.69200000000001
 30
0.0
 11
53.993899999999996
 21
204.60900000000001
 31
0.0
  0
LINE
  5
4C5
  8
0
 62
     7
 10
53.993899999999996
 20
204.60900000000001
 30
0.0
 11
54.038699999999999
 21
204.50899999999999
 31
0.0
  0
LINE
  5
4C6
  8
0
 62
     7
 10
54.038699999999999
 20
204.50899999999999
 30
0.0
 11
54.0732
 21
204.39699999999999
 31
0.0
  0
LINE
  5
4C7
  8
0
 62
     7
 10
54.0732
 20
204.39699999999999
 30
0.0
 11
54.0959
 21
204.27500000000001
 31
0.0
  0
LINE
  5
4C8
  8
0
 62
     7
 10
54.0959
 20
204.27500000000001
 30
0.0
 11
54.105600000000003
 21
204.148
 31
0.0
  0
ARC
  5
4C9
  8
0
 62
     7
 10
52.226311000000003
 20
204.89092500000001
 30
0.0
 40
0.044053
 50
233.99911599999999
 51
261.63604500000002
  0
ARC
  5
4CA
  8
0
 62
     7
 10
52.353102999999997
 20
205.44931399999999
 30
0.0
 40
0.6165340000000001
 50
257.5231490000001
 51
264.99388900000002
  0
ARC
  5
4CB
  8
0
 62
     7
 10
52.679409
 20
208.67302799999999
 30
0.0
 40
3.856673999999999
 50
264.34385900000001
 51
267.51784600000002
  0
ARC
  5
4CC
  8
0
 62
     7
 10
53.149931000000002
 20
218.664343
 30
0.0
 40
13.859043
 50
267.36333999999999
 51
270.42143299999998
  0
ARC
  5
4CD
  8
0
 62
     7
 10
53.146709999999999
 20
225.22751400000001
 30
0.0
 40
20.422108999999999
 50
270.29503599999998
 51
271.67357900000002
  0
ARC
  5
4CE
  8
0
 62
     7
 10
52.228265999999998
 20
204.16184000000001
 30
0.0
 40
0.694004
 50
92.299758000000011
 51
177.70021199999999
  0
ARC
  5
4CF
  8
0
 62
     7
 10
51.574973999999997
 20
204.28347099999999
 30
0.0
 40
0.102017
 50
246.82127299999999
 51
265.68351200000001
  0
ARC
  5
4D0
  8
0
 62
     7
 10
51.785252999999997
 20
205.81771900000001
 30
0.0
 40
1.650431
 50
262.41130299999998
 51
267.02456599999999
  0
ARC
  5
4D1
  8
0
 62
     7
 10
52.331466999999989
 20
214.77302
 30
0.0
 40
10.622318
 50
266.589676
 51
268.50634500000001
  0
ARC
  5
4D2
  8
0
 62
     7
 10
53.112541999999998
 20
242.407295
 30
0.0
 40
38.267609999999998
 50
268.41578600000003
 51
270.26019500000001
  0
ARC
  5
4D3
  8
0
 62
     7
 10
53.289723000000002
 20
244.39378099999999
 30
0.0
 40
40.253701999999997
 50
269.99516299999999
 51
271.16133400000001
  0
ARC
  5
4D4
  8
0
 62
     7
 10
62.419426000000001
 20
207.70116999999999
 30
0.0
 40
5.6064819999999989
 50
214.607338
 51
215.683785
  0
ARC
  5
4D5
  8
0
 62
     7
 10
59.960988
 20
205.94402099999999
 30
0.0
 40
2.584662999999999
 50
215.83433500000001
 51
222.849898
  0
LINE
  5
4D6
  8
0
 62
     7
 10
58.066099999999999
 20
204.18600000000001
 30
0.0
 11
58.068100000000001
 21
204.185
 31
0.0
  0
ARC
  5
4D7
  8
0
 62
     7
 10
59.209256999999987
 20
206.769451
 30
0.0
 40
3.9880459999999989
 50
324.097801
 51
325.6111160000001
  0
ARC
  5
4D8
  8
0
 62
     7
 10
60.349361000000002
 20
205.93981400000001
 30
0.0
 40
2.5780400000000001
 50
317.14109999999999
 51
324.17470800000001
  0
ARC
  5
4D9
  8
0
 62
     7
 10
65.065170999999992
 20
201.406487
 30
0.0
 40
3.964021999999999
 50
135.47289699999999
 51
136.01519099999999
  0
ARC
  5
4DA
  8
0
 62
     7
 10
43.532094999999998
 20
201.09685300000001
 30
0.0
 40
20.213992999999999
 50
15.869109999999999
 51
16.928135999999999
  0
ARC
  5
4DB
  8
0
 62
     7
 10
59.010746999999988
 20
205.78164599999999
 30
0.0
 40
4.0420179999999988
 50
17.284582
 51
23.736730000000001
  0
ARC
  5
4DC
  8
0
 62
     7
 10
60.501435000000001
 20
206.408477
 30
0.0
 40
2.4252549999999991
 50
24.35687699999999
 51
28.167708000000001
  0
ARC
  5
4DD
  8
0
 62
     7
 10
60.443502000000002
 20
206.38238200000001
 30
0.0
 40
2.4886499999999989
 50
28.067727999999999
 51
44.126023999999987
  0
ARC
  5
4DE
  8
0
 62
     7
 10
59.950330999999998
 20
205.95737
 30
0.0
 40
3.1387969999999998
 50
43.427114000000003
 51
48.846622000000011
  0
ARC
  5
4DF
  8
0
 62
     7
 10
60.000826000000004
 20
206.01522499999999
 30
0.0
 40
3.0620050000000001
 50
48.845633999999997
 51
67.612981000000005
  0
ARC
  5
4E0
  8
0
 62
     7
 10
60.035102000000002
 20
205.96408099999999
 30
0.0
 40
3.0966619999999989
 50
68.559815
 51
71.291154000000006
  0
ARC
  5
4E1
  8
0
 62
     7
 10
58.379373999999999
 20
201.03280100000001
 30
0.0
 40
8.2984789999999986
 50
71.384447999999992
 51
72.977485000000001
  0
ARC
  5
4E2
  8
0
 62
     7
 10
75.180616999999998
 20
201.58836099999999
 30
0.0
 40
18.547819
 50
163.140218
 51
164.24615700000001
  0
ARC
  5
4E3
  8
0
 62
     7
 10
61.384374999999999
 20
205.74698799999999
 30
0.0
 40
4.138501999999999
 50
156.53817799999999
 51
162.84328199999999
  0
ARC
  5
4E4
  8
0
 62
     7
 10
59.842913000000003
 20
206.388248
 30
0.0
 40
2.469301999999999
 50
151.84708000000001
 51
155.947191
  0
ARC
  5
4E5
  8
0
 62
     7
 10
59.861715000000011
 20
206.38238200000001
 30
0.0
 40
2.4886499999999989
 50
135.87395599999999
 51
151.93225200000001
  0
ARC
  5
4E6
  8
0
 62
     7
 10
60.354886999999998
 20
205.95737
 30
0.0
 40
3.1387969999999998
 50
131.15335899999999
 51
136.572866
  0
ARC
  5
4E7
  8
0
 62
     7
 10
60.291184999999999
 20
206.03654800000001
 30
0.0
 40
3.0372609999999991
 50
112.309855
 51
131.23149000000001
  0
ARC
  5
4E8
  8
0
 62
     7
 10
60.270116000000002
 20
205.96408099999999
 30
0.0
 40
3.0966619999999989
 50
108.708826
 51
111.44016499999999
  0
ARC
  5
4E9
  8
0
 62
     7
 10
61.925843999999998
 20
201.03280100000001
 30
0.0
 40
8.2984789999999986
 50
107.02249500000001
 51
108.615532
  0
LINE
  5
4EA
  8
0
 62
     7
 10
57.443899999999999
 20
205.14500000000001
 30
0.0
 11
57.329500000000003
 21
205.583
 31
0.0
  0
LINE
  5
4EB
  8
0
 62
     7
 10
62.861299999999993
 20
205.14500000000001
 30
0.0
 11
62.975700000000003
 21
205.583
 31
0.0
  0
ARC
  5
4EC
  8
0
 62
     7
 10
51.876843999999998
 20
207.061621
 30
0.0
 40
11.196963
 50
352.41017299999999
 51
353.83374500000008
  0
ARC
  5
4ED
  8
0
 62
     7
 10
60.369573000000003
 20
206.12093999999999
 30
0.0
 40
2.652426999999999
 50
354.33063399999998
 51
359.44361099999998
  0
ARC
  5
4EE
  8
0
 62
     7
 10
60.566563000000002
 20
206.10358600000001
 30
0.0
 40
2.455325999999999
 50
359.80391200000003
 51
7.347802999999999
  0
ARC
  5
4EF
  8
0
 62
     7
 10
51.604403999999988
 20
205.08717300000001
 30
0.0
 40
11.474710999999999
 50
6.6581049999999991
 51
7.697756
  0
ARC
  5
4F0
  8
0
 62
     7
 10
60.152459
 20
206.103568
 30
0.0
 40
2.8334000000000001
 50
214.05311699999999
 51
304.04970100000003
  0
ARC
  5
4F1
  8
0
 62
     7
 10
60.155974000000001
 20
206.10097500000001
 30
0.0
 40
2.829283999999999
 50
304.02013099999999
 51
325.95394700000003
  0
ARC
  5
4F2
  8
0
 62
     7
 10
65.186674999999994
 20
209.796312
 30
0.0
 40
9.0753240000000002
 50
214.09182200000001
 51
215.571933
  0
ARC
  5
4F3
  8
0
 62
     7
 10
59.498494999999998
 20
205.91286500000001
 30
0.0
 40
2.1881360000000001
 50
210.047809
 51
213.36653200000001
  0
ARC
  5
4F4
  8
0
 62
     7
 10
59.259788
 20
205.77721600000001
 30
0.0
 40
1.913586999999999
 50
206.44626299999999
 51
210.11089899999999
  0
ARC
  5
4F5
  8
0
 62
     7
 10
61.749129000000003
 20
207.019417
 30
0.0
 40
4.6956509999999989
 50
203.529067
 51
206.489701
  0
ARC
  5
4F6
  8
0
 62
     7
 10
69.013913000000002
 20
207.13953599999999
 30
0.0
 40
11.787663999999999
 50
186.197835
 51
187.58932999999999
  0
ARC
  5
4F7
  8
0
 62
     7
 10
59.786897000000003
 20
206.11022299999999
 30
0.0
 40
2.5035989999999999
 50
180.34422499999999
 51
185.57685000000001
  0
ARC
  5
4F8
  8
0
 62
     7
 10
59.738641000000001
 20
206.103587
 30
0.0
 40
2.4553129999999999
 50
172.65215699999999
 51
180.19612799999999
  0
ARC
  5
4F9
  8
0
 62
     7
 10
68.700812999999997
 20
205.08717300000001
 30
0.0
 40
11.474710999999999
 50
172.302224
 51
173.34187499999999
  0
ARC
  5
4FA
  8
0
 62
     7
 10
55.118543000000003
 20
209.796312
 30
0.0
 40
9.0753240000000002
 50
324.428087
 51
325.90819800000003
  0
ARC
  5
4FB
  8
0
 62
     7
 10
60.806722000000001
 20
205.91286500000001
 30
0.0
 40
2.1881360000000001
 50
326.633487
 51
329.95221099999998
  0
ARC
  5
4FC
  8
0
 62
     7
 10
61.045429000000013
 20
205.77721600000001
 30
0.0
 40
1.913586999999999
 50
329.88911999999999
 51
333.55375600000002
  0
ARC
  5
4FD
  8
0
 62
     7
 10
58.556088000000003
 20
207.019417
 30
0.0
 40
4.6956509999999989
 50
333.51031799999998
 51
336.47095299999989
  0
ARC
  5
4FE
  8
0
 62
     7
 10
67.785888999999983
 20
210.800783
 30
0.0
 40
2.347583999999999
 50
168.53679299999999
 51
171.94252499999999
  0
ARC
  5
4FF
  8
0
 62
     7
 10
71.573323000000002
 20
210.243922
 30
0.0
 40
6.1757150000000003
 50
171.75238899999999
 51
174.21012400000001
  0
ARC
  5
500
  8
0
 62
     7
 10
79.401531000000006
 20
209.43911399999999
 30
0.0
 40
14.045182
 50
174.16528700000001
 51
175.885626
  0
ARC
  5
501
  8
0
 62
     7
 10
92.908939999999987
 20
208.45258999999999
 30
0.0
 40
27.588564999999999
 50
175.85476399999999
 51
177.07651200000001
  0
ARC
  5
502
  8
0
 62
     7
 10
119.54921299999999
 20
207.10519199999999
 30
0.0
 40
54.262887999999997
 50
177.090305
 51
178.94625400000001
  0
ARC
  5
503
  8
0
 62
     7
 10
156.897989
 20
206.18392499999999
 30
0.0
 40
91.622589000000005
 50
178.799755
 51
179.73770099999999
  0
LINE
  5
504
  8
0
 62
     7
 10
65.485100000000003
 20
211.267
 30
0.0
 11
65.485100000000003
 21
213.21299999999999
 31
0.0
  0
LINE
  5
505
  8
0
 62
     7
 10
54.820099999999989
 20
213.21299999999999
 30
0.0
 11
54.820099999999989
 21
211.267
 31
0.0
  0
ARC
  5
506
  8
0
 62
     7
 10
-31.394804000000001
 20
206.18527499999999
 30
0.0
 40
86.424673999999996
 50
0.277159
 51
2.1632389999999999
  0
ARC
  5
507
  8
0
 62
     7
 10
24.436197
 20
208.21688900000001
 30
0.0
 40
30.556871000000001
 50
2.308122
 51
4.7012739999999988
  0
ARC
  5
508
  8
0
 62
     7
 10
46.674664
 20
209.99982800000001
 30
0.0
 40
8.2472200000000004
 50
5.0190380000000001
 51
7.4960699999999996
  0
ARC
  5
509
  8
0
 62
     7
 10
51.948582000000002
 20
210.69959600000001
 30
0.0
 40
2.9270890000000001
 50
7.3833000000000002
 51
11.184044999999999
  0
ARC
  5
50A
  8
0
 62
     7
 10
54.126652
 20
213.185304
 30
0.0
 40
0.6939910000000001
 50
2.2987349999999989
 51
87.701255000000003
  0
LINE
  5
50B
  8
0
 62
     7
 10
54.820099999999989
 20
213.21299999999999
 30
0.0
 11
55.207999999999998
 21
213.601
 31
0.0
  0
LINE
  5
50C
  8
0
 62
     7
 10
65.485100000000003
 20
213.21299999999999
 30
0.0
 11
65.097200000000001
 21
213.601
 31
0.0
  0
ARC
  5
50D
  8
0
 62
     7
 10
66.178558999999993
 20
213.18531100000001
 30
0.0
 40
0.6939840000000001
 50
92.298209999999983
 51
177.70176000000001
  0
ARC
  5
50E
  8
0
 62
     7
 10
54.479826000000003
 20
205.52850100000001
 30
0.0
 40
0.694112
 50
272.322676
 51
358.09102000000001
  0
ARC
  5
50F
  8
0
 62
     7
 10
54.167920000000002
 20
205.475729
 30
0.0
 40
1.00607
 50
1.6888000000000001
 51
5.4638669999999987
  0
ARC
  5
510
  8
0
 62
     7
 10
54.533607999999987
 20
204.745598
 30
0.0
 40
0.09297
 50
106.01621400000001
 51
115.09585199999999
  0
ARC
  5
511
  8
0
 62
     7
 10
54.526674999999997
 20
204.768134
 30
0.0
 40
0.069698
 50
117.793058
 51
137.57964699999999
  0
ARC
  5
512
  8
0
 62
     7
 10
54.594568000000002
 20
204.70543499999999
 30
0.0
 40
0.162113
 50
137.40756300000001
 51
157.712107
  0
ARC
  5
513
  8
0
 62
     7
 10
54.714199000000001
 20
204.638563
 30
0.0
 40
0.298625
 50
154.54388299999999
 51
175.959902
  0
ARC
  5
514
  8
0
 62
     7
 10
54.906618999999992
 20
204.61180200000001
 30
0.0
 40
0.4926270000000001
 50
174.431646
 51
185.568354
  0
ARC
  5
515
  8
0
 62
     7
 10
55.123709999999988
 20
204.63311100000001
 30
0.0
 40
0.710762
 50
185.57991699999999
 51
189.0664669999999
  0
ARC
  5
516
  8
0
 62
     7
 10
55.028185999999998
 20
204.63698400000001
 30
0.0
 40
0.6173300000000001
 50
190.818827
 51
200.715574
  0
ARC
  5
517
  8
0
 62
     7
 10
55.011980999999999
 20
204.62640500000001
 30
0.0
 40
0.598445
 50
200.31699399999999
 51
207.911438
  0
ARC
  5
518
  8
0
 62
     7
 10
55.229752000000012
 20
204.72646599999999
 30
0.0
 40
0.8378309999999999
 50
206.98691600000001
 51
218.80665099999999
  0
ARC
  5
519
  8
0
 62
     7
 10
55.806738000000003
 20
205.155643
 30
0.0
 40
1.556656
 50
217.80725100000001
 51
219.512396
  0
ARC
  5
51A
  8
0
 62
     7
 10
65.800320999999997
 20
205.50364999999999
 30
0.0
 40
0.668665
 50
174.17397700000001
 51
264.05934200000002
  0
ARC
  5
51B
  8
0
 62
     7
 10
65.803364999999999
 20
205.55314100000001
 30
0.0
 40
0.718208
 50
264.22644400000001
 51
269.51308699999998
  0
ARC
  5
51C
  8
0
 62
     7
 10
65.772839000000005
 20
204.748876
 30
0.0
 40
0.08948
 50
64.726680000000002
 51
74.161214999999999
  0
ARC
  5
51D
  8
0
 62
     7
 10
65.777028000000001
 20
204.76599100000001
 30
0.0
 40
0.072301
 50
41.479030000000002
 51
61.936663000000003
  0
ARC
  5
51E
  8
0
 62
     7
 10
65.705871000000002
 20
204.70255299999999
 30
0.0
 40
0.16763
 50
22.57991500000001
 51
41.61484699999999
  0
ARC
  5
51F
  8
0
 62
     7
 10
65.591018000000005
 20
204.638563
 30
0.0
 40
0.298625
 50
4.0400780000000003
 51
25.456098000000001
  0
ARC
  5
520
  8
0
 62
     7
 10
65.398596999999995
 20
204.61180200000001
 30
0.0
 40
0.492629
 50
354.43168600000001
 51
5.5683139999999991
  0
ARC
  5
521
  8
0
 62
     7
 10
65.397560999999996
 20
204.61314400000001
 30
0.0
 40
0.493792
 50
349.25818600000002
 51
354.28837099999998
  0
ARC
  5
522
  8
0
 62
     7
 10
65.362696
 20
204.609298
 30
0.0
 40
0.5274290000000002
 50
338.80578700000001
 51
350.37458099999998
  0
ARC
  5
523
  8
0
 62
     7
 10
65.293237000000005
 20
204.62640500000001
 30
0.0
 40
0.598445
 50
332.08858199999997
 51
339.68302599999998
  0
ARC
  5
524
  8
0
 62
     7
 10
65.075466000000006
 20
204.72646599999999
 30
0.0
 40
0.8378309999999999
 50
321.19336900000002
 51
333.013103
  0
ARC
  5
525
  8
0
 62
     7
 10
64.278150999999994
 20
205.331906
 30
0.0
 40
1.838789
 50
320.61844500000001
 51
322.06194699999998
  0
ARC
  5
526
  8
0
 62
     7
 10
55.508541000000001
 20
202.50688
 30
0.0
 40
1.8881380000000001
 50
89.961905000000002
 51
118.56223
  0
ARC
  5
527
  8
0
 62
     7
 10
81.073645999999997
 20
217.59196700000001
 30
0.0
 40
29.678684000000001
 50
206.89800700000001
 51
207.77310299999999
  0
ARC
  5
528
  8
0
 62
     7
 10
60.479252000000002
 20
206.77298500000001
 30
0.0
 40
6.4154770000000001
 50
207.98527300000001
 51
214.08605299999999
  0
ARC
  5
529
  8
0
 62
     7
 10
59.007066999999999
 20
205.85876099999999
 30
0.0
 40
4.6843449999999986
 50
214.91670999999999
 51
225.05473599999999
  0
ARC
  5
52A
  8
0
 62
     7
 10
60.173205000000003
 20
206.92340799999999
 30
0.0
 40
6.2621070000000003
 50
224.3843169999999
 51
232.249393
  0
ARC
  5
52B
  8
0
 62
     7
 10
59.915531000000001
 20
206.575502
 30
0.0
 40
5.8292769999999994
 50
232.15838400000001
 51
239.017022
  0
ARC
  5
52C
  8
0
 62
     7
 10
59.847058999999987
 20
206.48754600000001
 30
0.0
 40
5.7186379999999994
 50
239.15152800000001
 51
241.20168699999999
  0
ARC
  5
52D
  8
0
 62
     7
 10
62.883687000000002
 20
212.06364199999999
 30
0.0
 40
12.067942
 50
241.320863
 51
243.693634
  0
ARC
  5
52E
  8
0
 62
     7
 10
64.794721999999993
 20
202.49919199999999
 30
0.0
 40
1.8958259999999989
 50
61.496966000000008
 51
89.978858999999986
  0
ARC
  5
52F
  8
0
 62
     7
 10
36.958490000000012
 20
218.80406199999999
 30
0.0
 40
32.254247999999997
 50
332.15576900000002
 51
333.00855300000001
  0
ARC
  5
530
  8
0
 62
     7
 10
59.934455
 20
206.70370199999999
 30
0.0
 40
6.2867980000000001
 50
325.88278700000012
 51
331.86429099999998
  0
ARC
  5
531
  8
0
 62
     7
 10
61.298150999999997
 20
205.85876099999999
 30
0.0
 40
4.6843449999999986
 50
314.9452839999999
 51
325.08330999999998
  0
ARC
  5
532
  8
0
 62
     7
 10
60.132013000000001
 20
206.92340799999999
 30
0.0
 40
6.2621070000000003
 50
307.75062700000001
 51
315.615702
  0
ARC
  5
533
  8
0
 62
     7
 10
60.389685999999998
 20
206.575502
 30
0.0
 40
5.8292769999999994
 50
300.98299800000001
 51
307.84163599999999
  0
ARC
  5
534
  8
0
 62
     7
 10
60.381487
 20
206.633128
 30
0.0
 40
5.8829449999999994
 50
298.766053
 51
300.762541
  0
ARC
  5
535
  8
0
 62
     7
 10
57.087732999999993
 20
212.693769
 30
0.0
 40
12.780754999999999
 50
296.39593300000001
 51
298.63466
  0
ARC
  5
536
  8
0
 62
     7
 10
56.972416000000003
 20
201.66960800000001
 30
0.0
 40
0.7049590000000001
 50
323.014049
 51
12.400878000000001
  0
ARC
  5
537
  8
0
 62
     7
 10
48.935468
 20
226.699703
 30
0.0
 40
28.970721000000001
 50
297.7188470000001
 51
298.523844
  0
ARC
  5
538
  8
0
 62
     7
 10
59.853138999999999
 20
206.00254000000001
 30
0.0
 40
5.5707059999999986
 50
293.12976099999997
 51
297.32975800000003
  0
ARC
  5
539
  8
0
 62
     7
 10
60.302104999999997
 20
205.012384
 30
0.0
 40
4.4838449999999987
 50
282.25476099999997
 51
292.82397800000001
  0
ARC
  5
53A
  8
0
 62
     7
 10
60.132134999999991
 20
205.66094000000001
 30
0.0
 40
5.1537790000000001
 50
270.22953100000012
 51
282.57088199999998
  0
ARC
  5
53B
  8
0
 62
     7
 10
60.151035
 20
205.47800100000001
 30
0.0
 40
4.9707989999999986
 50
264.75121899999999
 51
270.02013899999997
  0
ARC
  5
53C
  8
0
 62
     7
 10
60.174807000000001
 20
205.616255
 30
0.0
 40
5.1106590000000001
 50
259.368155
 51
264.62761899999998
  0
ARC
  5
53D
  8
0
 62
     7
 10
60.129641000000007
 20
205.400307
 30
0.0
 40
4.8900870000000003
 50
248.631756
 51
259.42145099999999
  0
ARC
  5
53E
  8
0
 62
     7
 10
60.118313999999998
 20
205.26748699999999
 30
0.0
 40
4.7624209999999989
 50
242.71994000000001
 51
248.17643000000001
  0
ARC
  5
53F
  8
0
 62
     7
 10
64.705123999999998
 20
214.368639
 30
0.0
 40
14.953934
 50
241.35081
 51
243.08307600000001
  0
ARC
  5
540
  8
0
 62
     7
 10
63.337004
 20
201.67135400000001
 30
0.0
 40
0.709367
 50
167.82166100000001
 51
216.89435499999999
  0
LINE
  5
541
  8
0
 62
     7
 10
55.207999999999998
 20
213.601
 30
0.0
 11
55.207999999999998
 21
206.60300000000001
 31
0.0
  0
LINE
  5
542
  8
0
 62
     7
 10
65.097200000000001
 20
213.601
 30
0.0
 11
65.097200000000001
 21
206.60300000000001
 31
0.0
  0
LINE
  5
543
  8
0
 62
     7
 10
55.873600000000003
 20
209.62899999999999
 30
0.0
 11
55.873600000000003
 21
213.667
 31
0.0
  0
LINE
  5
544
  8
0
 62
     7
 10
64.430899999999994
 20
209.62899999999999
 30
0.0
 11
64.430899999999994
 21
213.667
 31
0.0
  0
LINE
  5
545
  8
0
 62
     7
 10
55.873600000000003
 20
215.77000000000001
 30
0.0
 11
64.430899999999994
 21
215.77000000000001
 31
0.0
  0
LINE
  5
546
  8
0
 62
     7
 10
64.430899999999994
 20
215.631
 30
0.0
 11
55.873600000000003
 21
215.631
 31
0.0
  0
LINE
  5
547
  8
0
 62
     7
 10
59.496499999999997
 20
208.96799999999999
 30
0.0
 11
59.638399999999997
 21
208.98699999999999
 31
0.0
  0
LINE
  5
548
  8
0
 62
     7
 10
60.808700000000002
 20
208.96799999999999
 30
0.0
 11
60.6571
 21
208.988
 31
0.0
  0
ARC
  5
549
  8
0
 62
     7
 10
60.152608000000001
 20
206.10327899999999
 30
0.0
 40
2.938626999999999
 50
102.901454
 51
192.90150299999999
  0
ARC
  5
54A
  8
0
 62
     7
 10
60.152411000000001
 20
206.10341
 30
0.0
 40
2.938463
 50
192.90484799999999
 51
282.90617700000001
  0
ARC
  5
54B
  8
0
 62
     7
 10
60.152608000000001
 20
206.103624
 30
0.0
 40
2.9386279999999991
 50
282.90149400000001
 51
12.901464000000001
  0
ARC
  5
54C
  8
0
 62
     7
 10
60.095363999999996
 20
206.04592299999999
 30
0.0
 40
3.0076239999999999
 50
13.729480000000001
 51
76.279449999999997
  0
ARC
  5
54D
  8
0
 62
     7
 10
54.515582000000002
 20
213.57441299999999
 30
0.0
 40
0.6929350000000002
 50
2.2038439999999988
 51
87.781320000000008
  0
ARC
  5
54E
  8
0
 62
     7
 10
55.869489000000002
 20
208.23056399999999
 30
0.0
 40
5.4366440000000003
 50
89.95665799999999
 51
94.735968000000014
  0
ARC
  5
54F
  8
0
 62
     7
 10
55.533582999999993
 20
212.319435
 30
0.0
 40
1.3340019999999999
 50
94.857756999999992
 51
101.24574
  0
ARC
  5
550
  8
0
 62
     7
 10
55.287936000000002
 20
213.49901600000001
 30
0.0
 40
0.129622
 50
96.425580000000011
 51
128.071708
  0
ARC
  5
551
  8
0
 62
     7
 10
65.078068000000002
 20
213.58999499999999
 30
0.0
 40
0.022113
 50
30.024581999999999
 51
67.656441999999998
  0
ARC
  5
552
  8
0
 62
     7
 10
65.009773999999993
 20
213.455806
 30
0.0
 40
0.172618
 50
63.619188999999999
 51
78.289435999999995
  0
ARC
  5
553
  8
0
 62
     7
 10
64.839710999999994
 20
212.73001199999999
 30
0.0
 40
0.918024
 50
77.090377000000004
 51
83.528580000000005
  0
ARC
  5
554
  8
0
 62
     7
 10
64.597144
 20
210.738834
 30
0.0
 40
2.923900999999999
 50
83.203279000000023
 51
86.950296999999992
  0
ARC
  5
555
  8
0
 62
     7
 10
64.440974999999995
 20
208.027535
 30
0.0
 40
5.6396800000000002
 50
86.831420999999992
 51
90.102066000000008
  0
ARC
  5
556
  8
0
 62
     7
 10
65.790650999999997
 20
213.573398
 30
0.0
 40
0.69399
 50
92.299192000000005
 51
177.71560400000001
  0
ARC
  5
557
  8
0
 62
     7
 10
65.483155000000011
 20
213.852644
 30
0.0
 40
0.4825090000000001
 50
106.947523
 51
116.378035
  0
ARC
  5
558
  8
0
 62
     7
 10
65.678481000000005
 20
213.51693700000001
 30
0.0
 40
0.870429
 50
118.078981
 51
124.780123
  0
ARC
  5
559
  8
0
 62
     7
 10
64.389071000000001
 20
215.330263
 30
0.0
 40
1.3546830000000001
 50
304.61118199999999
 51
305.82401599999997
  0
ARC
  5
55A
  8
0
 62
     7
 10
66.655292000000003
 20
212.13314299999999
 30
0.0
 40
2.564324
 50
125.71008399999999
 51
129.579972
  0
ARC
  5
55B
  8
0
 62
     7
 10
39.087488
 20
245.97794400000001
 30
0.0
 40
41.087259000000003
 50
308.629547
 51
309.13809800000001
  0
ARC
  5
55C
  8
0
 62
     7
 10
62.891210000000001
 20
216.29280199999999
 30
0.0
 40
3.0376819999999989
 50
304.08369800000003
 51
307.43131
  0
ARC
  5
55D
  8
0
 62
     7
 10
62.280614999999997
 20
217.06586100000001
 30
0.0
 40
4.0207779999999991
 50
303.77122500000002
 51
305.11661900000013
  0
LINE
  5
55E
  8
0
 62
     7
 10
64.515699999999995
 20
213.72399999999999
 30
0.0
 11
64.433700000000002
 21
213.66900000000001
 31
0.0
  0
LINE
  5
55F
  8
0
 62
     7
 10
64.433700000000002
 20
213.66900000000001
 30
0.0
 11
64.430899999999994
 21
213.667
 31
0.0
  0
ARC
  5
560
  8
0
 62
     7
 10
54.839449999999999
 20
213.89642000000001
 30
0.0
 40
0.4355840000000001
 50
63.112631999999991
 51
73.561770999999993
  0
ARC
  5
561
  8
0
 62
     7
 10
54.629826999999999
 20
213.52199400000001
 30
0.0
 40
0.864512
 50
55.196897999999997
 51
61.943957999999981
  0
ARC
  5
562
  8
0
 62
     7
 10
57.070718000000006
 20
216.96590499999999
 30
0.0
 40
3.3567260000000001
 50
234.53769199999999
 51
235.02715000000001
  0
ARC
  5
563
  8
0
 62
     7
 10
53.728948000000003
 20
212.235589
 30
0.0
 40
2.4350200000000002
 50
50.317216000000002
 51
54.392688
  0
ARC
  5
564
  8
0
 62
     7
 10
81.217730000000003
 20
245.97794400000001
 30
0.0
 40
41.087259000000003
 50
230.86192199999999
 51
231.37047200000001
  0
ARC
  5
565
  8
0
 62
     7
 10
57.399962000000002
 20
216.27329800000001
 30
0.0
 40
3.0136569999999989
 50
232.555362
 51
235.92966899999999
  0
ARC
  5
566
  8
0
 62
     7
 10
58.059304000000012
 20
217.11645799999999
 30
0.0
 40
4.082126999999999
 50
234.89351099999999
 51
236.218684
  0
LINE
  5
567
  8
0
 62
     7
 10
55.78949999999999
 20
213.72399999999999
 30
0.0
 11
55.871499999999997
 21
213.66900000000001
 31
0.0
  0
LINE
  5
568
  8
0
 62
     7
 10
55.871499999999997
 20
213.66900000000001
 30
0.0
 11
55.873600000000003
 21
213.667
 31
0.0
  0
LINE
  5
569
  8
0
 62
     7
 10
64.430899999999994
 20
213.667
 30
0.0
 11
64.430899999999994
 21
215.631
 31
0.0
  0
ARC
  5
56A
  8
0
 62
     7
 10
64.440681000000012
 20
213.66530299999999
 30
0.0
 40
0.009938
 50
147.43904800000001
 51
168.95809800000001
  0
ARC
  5
56B
  8
0
 62
     7
 10
68.973843999999985
 20
212.17647099999999
 30
0.0
 40
4.7810189999999997
 50
160.75977900000001
 51
161.78861000000001
  0
ARC
  5
56C
  8
0
 62
     7
 10
67.397565
 20
212.767764
 30
0.0
 40
3.098177999999999
 50
159.89822799999999
 51
161.47802300000001
  0
ARC
  5
56D
  8
0
 62
     7
 10
68.424488999999994
 20
212.44767200000001
 30
0.0
 40
4.1728860000000001
 50
158.298214
 51
160.61702299999999
  0
ARC
  5
56E
  8
0
 62
     7
 10
66.801657999999989
 20
213.09564499999999
 30
0.0
 40
2.4254759999999989
 50
149.13746399999999
 51
158.34457699999999
  0
ARC
  5
56F
  8
0
 62
     7
 10
65.873629000000008
 20
213.61359100000001
 30
0.0
 40
1.363521999999999
 50
139.45777699999999
 51
147.815575
  0
ARC
  5
570
  8
0
 62
     7
 10
65.419816999999995
 20
213.98490899999999
 30
0.0
 40
0.777403
 50
127.203441
 51
138.51387600000001
  0
ARC
  5
571
  8
0
 62
     7
 10
65.204176000000004
 20
214.25067999999999
 30
0.0
 40
0.4354729999999999
 50
122.893917
 51
125.748161
  0
ARC
  5
572
  8
0
 62
     7
 10
65.108491999999998
 20
214.387868
 30
0.0
 40
0.268377
 50
105.084997
 51
121.6474169999999
  0
LINE
  5
573
  8
0
 62
     7
 10
55.873600000000003
 20
213.667
 30
0.0
 11
55.872900000000001
 21
213.67099999999999
 31
0.0
  0
ARC
  5
574
  8
0
 62
     7
 10
51.33137399999999
 20
212.17647099999999
 30
0.0
 40
4.7810189999999997
 50
18.211371
 51
19.240200999999999
  0
ARC
  5
575
  8
0
 62
     7
 10
52.907651999999999
 20
212.767764
 30
0.0
 40
3.098177999999999
 50
18.521957
 51
20.101752000000001
  0
ARC
  5
576
  8
0
 62
     7
 10
51.880727999999998
 20
212.44767200000001
 30
0.0
 40
4.1728860000000001
 50
19.382957999999999
 51
21.701765999999999
  0
ARC
  5
577
  8
0
 62
     7
 10
53.503559000000003
 20
213.09564499999999
 30
0.0
 40
2.4254759999999989
 50
21.655403
 51
30.862515999999999
  0
ARC
  5
578
  8
0
 62
     7
 10
54.431589000000002
 20
213.61359100000001
 30
0.0
 40
1.363521999999999
 50
32.184404999999998
 51
40.542202999999994
  0
ARC
  5
579
  8
0
 62
     7
 10
54.876278999999997
 20
213.97507899999999
 30
0.0
 40
0.79075
 50
41.581856999999992
 51
52.700786000000001
  0
ARC
  5
57A
  8
0
 62
     7
 10
55.218935999999999
 20
214.416708
 30
0.0
 40
0.231852
 50
53.926799000000003
 51
59.430756999999993
  0
ARC
  5
57B
  8
0
 62
     7
 10
55.202331000000008
 20
214.403873
 30
0.0
 40
0.251468
 50
57.66005899999999
 51
75.199093999999988
  0
LINE
  5
57C
  8
0
 62
     7
 10
55.873600000000003
 20
213.667
 30
0.0
 11
55.873600000000003
 21
215.631
 31
0.0
  0
ARC
  5
57D
  8
0
 62
     7
 10
60.123770999999998
 20
205.80586099999999
 30
0.0
 40
5.7590589999999988
 50
41.591861000000002
 51
127.380769
  0
ARC
  5
57E
  8
0
 62
     7
 10
60.191373999999989
 20
206.06189599999999
 30
0.0
 40
5.6005580000000004
 50
129.52105
 51
140.439627
  0
ARC
  5
57F
  8
0
 62
     7
 10
65.378097999999994
 20
214.651814
 30
0.0
 40
0.339486
 50
180.812927
 51
263.98197900000002
  0
ARC
  5
580
  8
0
 62
     7
 10
65.015585000000002
 20
214.818265
 30
0.0
 40
0.172813
 50
277.6688529999999
 51
298.187003
  0
ARC
  5
581
  8
0
 62
     7
 10
54.926563000000002
 20
214.652323
 30
0.0
 40
0.34005
 50
276.10240800000003
 51
359.10272600000002
  0
ARC
  5
582
  8
0
 62
     7
 10
55.22973799999999
 20
214.686477
 30
0.0
 40
0.029898
 50
223.36993100000001
 51
256.38378599999999
  0
ARC
  5
583
  8
0
 62
     7
 10
55.306913000000002
 20
214.91437999999999
 30
0.0
 40
0.270408
 50
251.85453999999999
 51
261.42005499999999
  0
LINE
  5
584
  8
0
 62
     7
 10
65.003500000000003
 20
206.60300000000001
 30
0.0
 11
65.262600000000006
 21
206.60300000000001
 31
0.0
  0
LINE
  5
585
  8
0
 62
     7
 10
65.262600000000006
 20
205.60400000000001
 30
0.0
 11
65.003500000000003
 21
205.60400000000001
 31
0.0
  0
LINE
  5
586
  8
0
 62
     7
 10
55.0426
 20
205.60400000000001
 30
0.0
 11
54.813899999999997
 21
205.60400000000001
 31
0.0
  0
LINE
  5
587
  8
0
 62
     7
 10
54.813899999999997
 20
206.60300000000001
 30
0.0
 11
55.0426
 21
206.60300000000001
 31
0.0
  0
LINE
  5
588
  8
0
 62
     7
 10
54.813899999999997
 20
206.60300000000001
 30
0.0
 11
54.813899999999997
 21
205.60400000000001
 31
0.0
  0
LINE
  5
589
  8
0
 62
     7
 10
55.0426
 20
206.60300000000001
 30
0.0
 11
55.0426
 21
205.60400000000001
 31
0.0
  0
LINE
  5
58A
  8
0
 62
     7
 10
55.0426
 20
205.60400000000001
 30
0.0
 11
55.301699999999997
 21
205.60400000000001
 31
0.0
  0
LINE
  5
58B
  8
0
 62
     7
 10
55.301699999999997
 20
206.60300000000001
 30
0.0
 11
55.0426
 21
206.60300000000001
 31
0.0
  0
LINE
  5
58C
  8
0
 62
     7
 10
65.491299999999995
 20
206.60300000000001
 30
0.0
 11
65.262600000000006
 21
206.60300000000001
 31
0.0
  0
LINE
  5
58D
  8
0
 62
     7
 10
65.262600000000006
 20
206.60300000000001
 30
0.0
 11
65.262600000000006
 21
205.60400000000001
 31
0.0
  0
LINE
  5
58E
  8
0
 62
     7
 10
65.262600000000006
 20
205.60400000000001
 30
0.0
 11
65.491299999999995
 21
205.60400000000001
 31
0.0
  0
LINE
  5
58F
  8
0
 62
     7
 10
65.491299999999995
 20
206.60300000000001
 30
0.0
 11
65.491299999999995
 21
205.60400000000001
 31
0.0
  0
LINE
  5
590
  8
0
 62
     7
 10
64.430899999999994
 20
215.77000000000001
 30
0.0
 11
64.670000000000002
 21
215.77000000000001
 31
0.0
  0
LINE
  5
591
  8
0
 62
     7
 10
64.670000000000002
 20
215.77000000000001
 30
0.0
 11
64.882199999999997
 21
215.77000000000001
 31
0.0
  0
LINE
  5
592
  8
0
 62
     7
 10
64.882199999999997
 20
215.77000000000001
 30
0.0
 11
65.044799999999995
 21
215.77000000000001
 31
0.0
  0
LINE
  5
593
  8
0
 62
     7
 10
65.044799999999995
 20
215.77000000000001
 30
0.0
 11
65.069699999999983
 21
215.77000000000001
 31
0.0
  0
LINE
  5
594
  8
0
 62
     7
 10
64.430899999999994
 20
215.77000000000001
 30
0.0
 11
64.430899999999994
 21
215.631
 31
0.0
  0
ARC
  5
595
  8
0
 62
     7
 10
65.081319999999991
 20
215.56912800000001
 30
0.0
 40
0.020238
 50
38.252551000000011
 51
75.246606
  0
ARC
  5
596
  8
0
 62
     7
 10
65.003202000000002
 20
215.358622
 30
0.0
 40
0.244683
 50
70.103197999999992
 51
82.495592999999985
  0
ARC
  5
597
  8
0
 62
     7
 10
64.792121999999992
 20
214.03326899999999
 30
0.0
 40
1.586663999999999
 50
81.189072999999993
 51
86.055181999999974
  0
ARC
  5
598
  8
0
 62
     7
 10
64.473934999999997
 20
209.70314200000001
 30
0.0
 40
5.9284540000000003
 50
85.866337999999985
 51
90.415643000000003
  0
LINE
  5
599
  8
0
 62
     7
 10
55.2363
 20
215.77000000000001
 30
0.0
 11
55.35199999999999
 21
215.77000000000001
 31
0.0
  0
LINE
  5
59A
  8
0
 62
     7
 10
55.35199999999999
 20
215.77000000000001
 30
0.0
 11
55.550400000000003
 21
215.77000000000001
 31
0.0
  0
LINE
  5
59B
  8
0
 62
     7
 10
55.550400000000003
 20
215.77000000000001
 30
0.0
 11
55.783999999999999
 21
215.77000000000001
 31
0.0
  0
LINE
  5
59C
  8
0
 62
     7
 10
55.783999999999999
 20
215.77000000000001
 30
0.0
 11
55.873600000000003
 21
215.77000000000001
 31
0.0
  0
ARC
  5
59D
  8
0
 62
     7
 10
55.869484
 20
208.72544099999999
 30
0.0
 40
6.9059999999999997
 50
89.965836999999993
 51
94.130443000000014
  0
ARC
  5
59E
  8
0
 62
     7
 10
55.443814000000003
 20
214.60646499999999
 30
0.0
 40
1.009590999999999
 50
94.075469999999996
 51
101.59932499999999
  0
ARC
  5
59F
  8
0
 62
     7
 10
55.245319999999992
 20
215.53876
 30
0.0
 40
0.056857
 50
94.540520000000001
 51
131.01915299999999
  0
LINE
  5
5A0
  8
0
 62
     7
 10
55.873600000000003
 20
215.77000000000001
 30
0.0
 11
55.873600000000003
 21
215.631
 31
0.0
  0
ARC
  5
5A1
  8
0
 62
     7
 10
27.38012100000001
 20
196.108542
 30
0.0
 40
39.440596999999997
 50
19.287758
 51
20.047650000000001
  0
ARC
  5
5A2
  8
0
 62
     7
 10
55.542966
 20
206.00847300000001
 30
0.0
 40
9.5885069999999981
 50
16.378575999999999
 51
19.038484
  0
ARC
  5
5A3
  8
0
 62
     7
 10
57.125605999999998
 20
206.50079500000001
 30
0.0
 40
7.9313079999999996
 50
7.0704869999999991
 51
16.190269000000001
  0
ARC
  5
5A4
  8
0
 62
     7
 10
54.776265000000002
 20
206.134276
 30
0.0
 40
10.308168
 50
5.794826999999998
 51
7.4848689999999998
  0
ARC
  5
5A5
  8
0
 62
     7
 10
48.991306000000002
 20
205.553335
 30
0.0
 40
16.122221
 50
3.7341850000000001
 51
5.7730959999999989
  0
LINE
  5
5A6
  8
0
 62
     7
 10
64.430899999999994
 20
209.62899999999999
 30
0.0
 11
64.333799999999997
 21
209.54900000000001
 31
0.0
  0
LINE
  5
5A7
  8
0
 62
     7
 10
64.333799999999997
 20
209.54900000000001
 30
0.0
 11
64.240799999999993
 21
209.47200000000001
 31
0.0
  0
LINE
  5
5A8
  8
0
 62
     7
 10
64.240799999999993
 20
209.47200000000001
 30
0.0
 11
64.153899999999993
 21
209.40000000000001
 31
0.0
  0
LINE
  5
5A9
  8
0
 62
     7
 10
64.153899999999993
 20
209.40000000000001
 30
0.0
 11
64.076800000000006
 21
209.33699999999999
 31
0.0
  0
LINE
  5
5AA
  8
0
 62
     7
 10
64.076800000000006
 20
209.33699999999999
 30
0.0
 11
64.012699999999995
 21
209.28399999999999
 31
0.0
  0
LINE
  5
5AB
  8
0
 62
     7
 10
64.012699999999995
 20
209.28399999999999
 30
0.0
 11
63.963799999999999
 21
209.244
 31
0.0
  0
LINE
  5
5AC
  8
0
 62
     7
 10
63.963799999999999
 20
209.244
 30
0.0
 11
63.931399999999989
 21
209.21700000000001
 31
0.0
  0
LINE
  5
5AD
  8
0
 62
     7
 10
63.931399999999989
 20
209.21700000000001
 30
0.0
 11
63.9176
 21
209.20500000000001
 31
0.0
  0
LINE
  5
5AE
  8
0
 62
     7
 10
55.873600000000003
 20
209.62899999999999
 30
0.0
 11
55.970799999999997
 21
209.54900000000001
 31
0.0
  0
LINE
  5
5AF
  8
0
 62
     7
 10
55.970799999999997
 20
209.54900000000001
 30
0.0
 11
56.064500000000002
 21
209.47200000000001
 31
0.0
  0
LINE
  5
5B0
  8
0
 62
     7
 10
56.064500000000002
 20
209.47200000000001
 30
0.0
 11
56.151299999999999
 21
209.40000000000001
 31
0.0
  0
LINE
  5
5B1
  8
0
 62
     7
 10
56.151299999999999
 20
209.40000000000001
 30
0.0
 11
56.228400000000001
 21
209.33699999999999
 31
0.0
  0
LINE
  5
5B2
  8
0
 62
     7
 10
56.228400000000001
 20
209.33699999999999
 30
0.0
 11
56.29249999999999
 21
209.28399999999999
 31
0.0
  0
LINE
  5
5B3
  8
0
 62
     7
 10
56.29249999999999
 20
209.28399999999999
 30
0.0
 11
56.3414
 21
209.244
 31
0.0
  0
LINE
  5
5B4
  8
0
 62
     7
 10
56.3414
 20
209.244
 30
0.0
 11
56.373100000000001
 21
209.21700000000001
 31
0.0
  0
LINE
  5
5B5
  8
0
 62
     7
 10
56.373100000000001
 20
209.21700000000001
 30
0.0
 11
56.387599999999999
 21
209.20500000000001
 31
0.0
  0
ARC
  5
5B6
  8
0
 62
     7
 10
96.631894000000003
 20
194.84839600000001
 30
0.0
 40
43.355505999999998
 50
160.06749099999999
 51
160.78849500000001
  0
ARC
  5
5B7
  8
0
 62
     7
 10
64.682756999999995
 20
206.03408099999999
 30
0.0
 40
9.5050170000000005
 50
161.08810700000001
 51
163.63438099999999
  0
ARC
  5
5B8
  8
0
 62
     7
 10
63.179611000000001
 20
206.50079500000001
 30
0.0
 40
7.9313079999999996
 50
163.80971099999999
 51
172.92949400000001
  0
ARC
  5
5B9
  8
0
 62
     7
 10
65.528952000000004
 20
206.134276
 30
0.0
 40
10.308168
 50
172.51511099999999
 51
174.205153
  0
ARC
  5
5BA
  8
0
 62
     7
 10
71.313912000000002
 20
205.553335
 30
0.0
 40
16.122221
 50
174.22688400000001
 51
176.265795
  0
LINE
  5
5BB
  8
0
 62
     7
 10
50.746600000000001
 20
215.77000000000001
 30
0.0
 11
51.080800000000011
 21
215.77000000000001
 31
0.0
  0
LINE
  5
5BC
  8
0
 62
     7
 10
50.746600000000001
 20
215.77000000000001
 30
0.0
 11
50.746600000000001
 21
210.77000000000001
 31
0.0
  0
ARC
  5
5BD
  8
0
 62
     7
 10
49.784486000000001
 20
210.41325699999999
 30
0.0
 40
1.0444990000000001
 50
11.531936
 51
16.284932999999999
  0
ARC
  5
5BE
  8
0
 62
     7
 10
50.600653999999999
 20
210.65521000000001
 30
0.0
 40
0.193259
 50
15.282641999999999
 51
32.033824000000003
  0
ARC
  5
5BF
  8
0
 62
     7
 10
50.743211999999993
 20
210.746295
 30
0.0
 40
0.024148
 50
28.233792000000001
 51
81.988146999999984
  0
ARC
  5
5C0
  8
0
 62
     7
 10
60.375658999999999
 20
211.26380399999999
 30
0.0
 40
9.5939420000000002
 50
179.97887900000001
 51
183.40490600000001
  0
ARC
  5
5C1
  8
0
 62
     7
 10
51.341496999999997
 20
210.727227
 30
0.0
 40
0.54386
 50
183.502081
 51
191.148842
  0
LINE
  5
5C2
  8
0
 62
     7
 10
50.781700000000001
 20
211.267
 30
0.0
 11
50.781700000000001
 21
213.28200000000001
 31
0.0
  0
ARC
  5
5C3
  8
0
 62
     7
 10
102.306569
 20
212.90085500000001
 30
0.0
 40
51.526263999999998
 50
179.271153
 51
179.57572400000001
  0
ARC
  5
5C4
  8
0
 62
     7
 10
63.410355000000003
 20
213.35793699999999
 30
0.0
 40
12.627439000000001
 50
177.99133699999999
 51
179.10001199999999
  0
ARC
  5
5C5
  8
0
 62
     7
 10
64.934968000000012
 20
213.17798199999999
 30
0.0
 40
14.157987
 50
176.17067800000001
 51
177.47977800000001
  0
ARC
  5
5C6
  8
0
 62
     7
 10
71.830755000000011
 20
212.65630999999999
 30
0.0
 40
21.073304
 50
175.77235999999999
 51
176.00760500000001
  0
LINE
  5
5C7
  8
0
 62
     7
 10
50.814799999999991
 20
214.21000000000001
 30
0.0
 11
50.814799999999991
 21
214.21199999999999
 31
0.0
  0
LINE
  5
5C8
  8
0
 62
     7
 10
69.224500000000006
 20
215.77000000000001
 30
0.0
 11
69.558599999999998
 21
215.77000000000001
 31
0.0
  0
LINE
  5
5C9
  8
0
 62
     7
 10
69.490399999999994
 20
214.21199999999999
 30
0.0
 11
69.490399999999994
 21
214.21000000000001
 31
0.0
  0
ARC
  5
5CA
  8
0
 62
     7
 10
34.604334000000001
 20
211.65965399999999
 30
0.0
 40
34.979177
 50
4.0391360000000001
 51
4.180858999999999
  0
ARC
  5
5CB
  8
0
 62
     7
 10
61.532109999999989
 20
213.536789
 30
0.0
 40
7.9861000000000004
 50
1.8925569999999989
 51
4.2132069999999988
  0
ARC
  5
5CC
  8
0
 62
     7
 10
62.747079000000006
 20
213.487424
 30
0.0
 40
6.7740149999999986
 50
0.5823550000000001
 51
2.6492719999999998
  0
ARC
  5
5CD
  8
0
 62
     7
 10
59.540961000000003
 20
213.31889100000001
 30
0.0
 40
9.9826049999999995
 50
359.790482
 51
1.3626009999999991
  0
LINE
  5
5CE
  8
0
 62
     7
 10
69.523499999999999
 20
213.28200000000001
 30
0.0
 11
69.523499999999999
 21
211.267
 31
0.0
  0
ARC
  5
5CF
  8
0
 62
     7
 10
76.54270799999999
 20
169.71341200000001
 30
0.0
 40
0.277049
 50
272.11172399999998
 51
357.88828599999999
  0
LINE
  5
5D0
  8
0
 62
     7
 10
76.552899999999994
 20
174.43700000000001
 30
0.0
 11
76.819599999999994
 21
174.43700000000001
 31
0.0
  0
LINE
  5
5D1
  8
0
 62
     7
 10
76.819599999999994
 20
174.43700000000001
 30
0.0
 11
76.819599999999994
 21
169.703
 31
0.0
  0
LINE
  5
5D2
  8
0
 62
     7
 10
76.552899999999994
 20
169.43700000000001
 30
0.0
 11
43.752299999999998
 21
169.43700000000001
 31
0.0
  0
LINE
  5
5D3
  8
0
 62
     7
 10
43.752299999999998
 20
174.43700000000001
 30
0.0
 11
76.552899999999994
 21
174.43700000000001
 31
0.0
  0
LINE
  5
5D4
  8
0
 62
     7
 10
43.485599999999991
 20
174.43700000000001
 30
0.0
 11
43.752299999999998
 21
174.43700000000001
 31
0.0
  0
LINE
  5
5D5
  8
0
 62
     7
 10
43.485599999999991
 20
169.703
 30
0.0
 11
43.485599999999991
 21
174.43700000000001
 31
0.0
  0
ARC
  5
5D6
  8
0
 62
     7
 10
43.762498999999998
 20
169.713402
 30
0.0
 40
0.277038
 50
182.10972899999999
 51
267.89030000000002
  0
LINE
  5
5D7
  8
0
 62
     7
 10
67.486099999999993
 20
168.10299999999989
 30
0.0
 11
52.819200000000002
 21
168.10299999999989
 31
0.0
  0
ARC
  5
5D8
  8
0
 62
     7
 10
59.870606999999993
 20
165.07045400000001
 30
0.0
 40
0.5346840000000001
 50
345.571729
 51
354.575782
  0
ARC
  5
5D9
  8
0
 62
     7
 10
60.18974
 20
164.999031
 30
0.0
 40
0.208077
 50
319.42021899999997
 51
342.72152599999998
  0
ARC
  5
5DA
  8
0
 62
     7
 10
60.136706999999987
 20
165.03767400000001
 30
0.0
 40
0.273542
 50
302.84653700000001
 51
320.49866500000002
  0
ARC
  5
5DB
  8
0
 62
     7
 10
60.159245999999989
 20
165.004242
 30
0.0
 40
0.233231
 50
281.86845799999998
 51
302.64934599999998
  0
ARC
  5
5DC
  8
0
 62
     7
 10
60.144458999999998
 20
165.093841
 30
0.0
 40
0.3239800000000001
 50
271.47185999999999
 51
281.16874000000001
  0
ARC
  5
5DD
  8
0
 62
     7
 10
60.205581000000002
 20
165.328104
 30
0.0
 40
0.560628
 50
256.015286
 51
264.59584799999999
  0
ARC
  5
5DE
  8
0
 62
     7
 10
60.136144999999992
 20
164.989869
 30
0.0
 40
0.216116
 50
229.82277500000001
 51
252.20516900000001
  0
ARC
  5
5DF
  8
0
 62
     7
 10
60.152000000000001
 20
165.0195159999999
 30
0.0
 40
0.249095
 50
212.065629
 51
231.43617800000001
  0
ARC
  5
5E0
  8
0
 62
     7
 10
60.152053000000002
 20
165.02088499999999
 30
0.0
 40
0.24987
 50
192.9328459999999
 51
212.32495900000001
  0
ARC
  5
5E1
  8
0
 62
     7
 10
60.268692000000001
 20
165.033432
 30
0.0
 40
0.36662
 50
182.113606
 51
190.76391100000001
  0
LINE
  5
5E2
  8
0
 62
     7
 10
59.902299999999997
 20
165.02000000000001
 30
0.0
 11
59.902299999999997
 21
166.18700000000001
 31
0.0
  0
ARC
  5
5E3
  8
0
 62
     7
 10
60.439243999999988
 20
166.135246
 30
0.0
 40
0.5393740000000001
 50
165.61093299999999
 51
174.53653799999989
  0
ARC
  5
5E4
  8
0
 62
     7
 10
60.116038000000003
 20
166.206853
 30
0.0
 40
0.2088
 50
139.42526100000001
 51
162.60262299999999
  0
ARC
  5
5E5
  8
0
 62
     7
 10
60.163593000000013
 20
166.1741899999999
 30
0.0
 40
0.266236
 50
122.60226900000001
 51
140.74289400000001
  0
ARC
  5
5E6
  8
0
 62
     7
 10
60.148472999999989
 20
166.19779
 30
0.0
 40
0.238207
 50
102.316785
 51
122.59706799999999
  0
ARC
  5
5E7
  8
0
 62
     7
 10
60.168181999999987
 20
166.04073299999999
 30
0.0
 40
0.39611
 50
92.228267999999986
 51
100.25554
  0
ARC
  5
5E8
  8
0
 62
     7
 10
60.124699999999997
 20
166.02310600000001
 30
0.0
 40
0.41439
 50
74.496705000000006
 51
86.114389000000017
  0
ARC
  5
5E9
  8
0
 62
     7
 10
60.167668999999997
 20
166.21468300000001
 30
0.0
 40
0.218518
 50
49.873156999999992
 51
71.925875000000005
  0
ARC
  5
5EA
  8
0
 62
     7
 10
60.147576999999998
 20
166.18196
 30
0.0
 40
0.256551
 50
32.349685999999998
 51
51.152081999999993
  0
ARC
  5
5EB
  8
0
 62
     7
 10
60.157890000000002
 20
166.18759700000001
 30
0.0
 40
0.244824
 50
12.731011000000001
 51
32.526753999999997
  0
ARC
  5
5EC
  8
0
 62
     7
 10
60.030731999999993
 20
166.172425
 30
0.0
 40
0.372435
 50
2.181235
 51
10.696243000000001
  0
LINE
  5
5ED
  8
0
 62
     7
 10
60.402900000000002
 20
166.18700000000001
 30
0.0
 11
60.402900000000002
 21
165.02000000000001
 31
0.0
  0
LINE
  5
5EE
  8
0
 62
     7
 10
67.386099999999999
 20
152.60299999999989
 30
0.0
 11
52.9191
 21
152.60299999999989
 31
0.0
  0
LINE
  5
5EF
  8
0
 62
     7
 10
66.485600000000005
 20
168.10299999999989
 30
0.0
 11
66.485600000000005
 21
168.43700000000001
 31
0.0
  0
LINE
  5
5F0
  8
0
 62
     7
 10
53.818899999999999
 20
168.43700000000001
 30
0.0
 11
53.818899999999999
 21
168.10299999999989
 31
0.0
  0
ARC
  5
5F1
  8
0
 62
     7
 10
52.825313000000001
 20
167.93020899999999
 30
0.0
 40
0.173019
 50
92.038088000000016
 51
177.84338
  0
ARC
  5
5F2
  8
0
 62
     7
 10
67.479832000000002
 20
167.930137
 30
0.0
 40
0.173094
 50
2.1795909999999989
 51
87.938901000000001
  0
LINE
  5
5F3
  8
0
 62
     7
 10
67.652799999999999
 20
152.87
 30
0.0
 11
67.652799999999999
 21
167.93700000000001
 31
0.0
  0
LINE
  5
5F4
  8
0
 62
     7
 10
52.6524
 20
167.93700000000001
 30
0.0
 11
52.6524
 21
152.87
 31
0.0
  0
ARC
  5
5F5
  8
0
 62
     7
 10
52.929267000000003
 20
152.880043
 30
0.0
 40
0.277038
 50
182.10972899999999
 51
267.89030000000002
  0
ARC
  5
5F6
  8
0
 62
     7
 10
67.37594
 20
152.880053
 30
0.0
 40
0.277049
 50
272.11172399999998
 51
357.88828599999999
  0
LINE
  5
5F7
  8
0
 62
     7
 10
60.349800000000002
 20
84.993499999999983
 30
0.0
 11
60.148600000000002
 21
84.993499999999983
 31
0.0
  0
LINE
  5
5F8
  8
0
 62
     7
 10
60.148600000000002
 20
84.993499999999983
 30
0.0
 11
60.148600000000002
 21
85.1661
 31
0.0
  0
LINE
  5
5F9
  8
0
 62
     7
 10
60.148600000000002
 20
85.1661
 30
0.0
 11
60.349800000000002
 21
85.1661
 31
0.0
  0
LINE
  5
5FA
  8
0
 62
     7
 10
60.349800000000002
 20
85.1661
 30
0.0
 11
60.349800000000002
 21
84.993499999999983
 31
0.0
  0
LINE
  5
5FB
  8
0
 62
     7
 10
60.361600000000003
 20
85.240499999999997
 30
0.0
 11
60.07419999999999
 21
85.240499999999997
 31
0.0
  0
LINE
  5
5FC
  8
0
 62
     7
 10
60.07419999999999
 20
85.240499999999997
 30
0.0
 11
60.07419999999999
 21
84.918999999999997
 31
0.0
  0
LINE
  5
5FD
  8
0
 62
     7
 10
60.07419999999999
 20
84.918999999999997
 30
0.0
 11
60.361600000000003
 21
84.918999999999997
 31
0.0
  0
ARC
  5
5FE
  8
0
 62
     7
 10
60.359221999999988
 20
84.984087999999986
 30
0.0
 40
0.065089
 50
272.05379699999997
 51
357.63053500000001
  0
LINE
  5
5FF
  8
0
 62
     7
 10
60.424300000000002
 20
84.981399999999994
 30
0.0
 11
60.424300000000002
 21
85.178100000000001
 31
0.0
  0
ARC
  5
600
  8
0
 62
     7
 10
60.359524
 20
85.175724999999986
 30
0.0
 40
0.064776
 50
2.1122070000000002
 51
88.203461000000004
  0
LINE
  5
601
  8
0
 62
     7
 10
60.078400000000002
 20
86.585400000000007
 30
0.0
 11
59.7652
 21
86.585800000000006
 31
0.0
  0
ARC
  5
602
  8
0
 62
     7
 10
59.780470999999999
 20
86.172279000000003
 30
0.0
 40
0.4137900000000001
 50
92.114272999999983
 51
177.935239
  0
LINE
  5
603
  8
0
 62
     7
 10
59.366900000000001
 20
86.187200000000004
 30
0.0
 11
59.366900000000001
 21
85.466499999999996
 31
0.0
  0
ARC
  5
604
  8
0
 62
     7
 10
59.432706000000003
 20
85.468835999999996
 30
0.0
 40
0.065799
 50
182.06113999999991
 51
267.93889000000001
  0
LINE
  5
605
  8
0
 62
     7
 10
59.430300000000003
 20
85.403099999999995
 30
0.0
 11
60.078400000000002
 21
85.403099999999995
 31
0.0
  0
ARC
  5
606
  8
0
 62
     7
 10
60.076092000000003
 20
85.468743000000003
 30
0.0
 40
0.065704
 50
271.98347799999999
 51
358.01653199999998
  0
LINE
  5
607
  8
0
 62
     7
 10
60.141800000000003
 20
85.466499999999996
 30
0.0
 11
60.141800000000003
 21
85.539900000000003
 31
0.0
  0
ARC
  5
608
  8
0
 62
     7
 10
60.075618999999989
 20
85.537460999999993
 30
0.0
 40
0.066181
 50
2.0687340000000001
 51
87.620711000000014
  0
LINE
  5
609
  8
0
 62
     7
 10
60.078400000000002
 20
85.603600000000014
 30
0.0
 11
59.562600000000003
 21
85.603600000000014
 31
0.0
  0
LINE
  5
60A
  8
0
 62
     7
 10
59.562600000000003
 20
85.603600000000014
 30
0.0
 11
59.562600000000003
 21
85.894400000000005
 31
0.0
  0
LINE
  5
60B
  8
0
 62
     7
 10
59.562600000000003
 20
85.894400000000005
 30
0.0
 11
60.015300000000003
 21
85.894400000000005
 31
0.0
  0
ARC
  5
60C
  8
0
 62
     7
 10
60.012912999999998
 20
85.959793999999988
 30
0.0
 40
0.065486
 50
272.10739699999999
 51
358.20485100000002
  0
LINE
  5
60D
  8
0
 62
     7
 10
60.078400000000002
 20
85.957699999999988
 30
0.0
 11
60.078400000000002
 21
86.031099999999995
 31
0.0
  0
ARC
  5
60E
  8
0
 62
     7
 10
60.01259000000001
 20
86.028751
 30
0.0
 40
0.065819
 50
2.0658279999999989
 51
87.621923999999993
  0
LINE
  5
60F
  8
0
 62
     7
 10
60.015300000000003
 20
86.094499999999996
 30
0.0
 11
59.562600000000003
 21
86.094499999999996
 31
0.0
  0
LINE
  5
610
  8
0
 62
     7
 10
59.562600000000003
 20
86.094499999999996
 30
0.0
 11
59.562600000000003
 21
86.385599999999997
 31
0.0
  0
LINE
  5
611
  8
0
 62
     7
 10
59.562600000000003
 20
86.385599999999997
 30
0.0
 11
60.078400000000002
 21
86.385599999999997
 31
0.0
  0
ARC
  5
612
  8
0
 62
     7
 10
60.076092000000003
 20
86.451290999999998
 30
0.0
 40
0.065704
 50
271.98347799999999
 51
358.01653199999998
  0
LINE
  5
613
  8
0
 62
     7
 10
60.141800000000003
 20
86.448999999999984
 30
0.0
 11
60.141800000000003
 21
86.522099999999995
 31
0.0
  0
ARC
  5
614
  8
0
 62
     7
 10
60.076000000000001
 20
86.519687000000005
 30
0.0
 40
0.065799
 50
2.0611369999999991
 51
87.938853000000009
  0
LINE
  5
615
  8
0
 62
     7
 10
59.178800000000003
 20
86.585400000000007
 30
0.0
 11
58.864699999999999
 21
86.585800000000006
 31
0.0
  0
ARC
  5
616
  8
0
 62
     7
 10
58.879884999999987
 20
86.171597000000006
 30
0.0
 40
0.414471
 50
92.106235999999981
 51
177.844234
  0
LINE
  5
617
  8
0
 62
     7
 10
58.465699999999991
 20
86.187200000000004
 30
0.0
 11
58.465699999999991
 21
85.466499999999996
 31
0.0
  0
ARC
  5
618
  8
0
 62
     7
 10
58.531588999999997
 20
85.468983999999992
 30
0.0
 40
0.06593
 50
182.186498
 51
268.43293999999997
  0
LINE
  5
619
  8
0
 62
     7
 10
58.529800000000002
 20
85.403099999999995
 30
0.0
 11
59.178800000000003
 21
85.403099999999995
 31
0.0
  0
ARC
  5
61A
  8
0
 62
     7
 10
59.176572
 20
85.468743000000003
 30
0.0
 40
0.065704
 50
271.98347799999999
 51
358.01653199999998
  0
LINE
  5
61B
  8
0
 62
     7
 10
59.242199999999997
 20
85.466499999999996
 30
0.0
 11
59.242199999999997
 21
85.539900000000003
 31
0.0
  0
ARC
  5
61C
  8
0
 62
     7
 10
59.176099000000001
 20
85.537460999999993
 30
0.0
 40
0.066181
 50
2.0687340000000001
 51
87.620711000000014
  0
LINE
  5
61D
  8
0
 62
     7
 10
59.178800000000003
 20
85.603600000000014
 30
0.0
 11
58.6614
 21
85.603600000000014
 31
0.0
  0
LINE
  5
61E
  8
0
 62
     7
 10
58.6614
 20
85.603600000000014
 30
0.0
 11
58.6614
 21
86.385599999999997
 31
0.0
  0
LINE
  5
61F
  8
0
 62
     7
 10
58.6614
 20
86.385599999999997
 30
0.0
 11
59.178800000000003
 21
86.385599999999997
 31
0.0
  0
ARC
  5
620
  8
0
 62
     7
 10
59.176572
 20
86.451290999999998
 30
0.0
 40
0.065704
 50
271.98347799999999
 51
358.01653199999998
  0
LINE
  5
621
  8
0
 62
     7
 10
59.242199999999997
 20
86.448999999999984
 30
0.0
 11
59.242199999999997
 21
86.522099999999995
 31
0.0
  0
ARC
  5
622
  8
0
 62
     7
 10
59.176479999999998
 20
86.519687000000005
 30
0.0
 40
0.065799
 50
2.0611369999999991
 51
87.938853000000009
  0
LINE
  5
623
  8
0
 62
     7
 10
59.285600000000002
 20
85.108199999999997
 30
0.0
 11
59.085799999999999
 21
85.108199999999997
 31
0.0
  0
LINE
  5
624
  8
0
 62
     7
 10
59.085799999999999
 20
85.108199999999997
 30
0.0
 11
59.085799999999999
 21
85.1661
 31
0.0
  0
LINE
  5
625
  8
0
 62
     7
 10
59.085799999999999
 20
85.1661
 30
0.0
 11
59.285600000000002
 21
85.1661
 31
0.0
  0
LINE
  5
626
  8
0
 62
     7
 10
59.285600000000002
 20
85.1661
 30
0.0
 11
59.285600000000002
 21
85.108199999999997
 31
0.0
  0
LINE
  5
627
  8
0
 62
     7
 10
59.297400000000003
 20
85.240499999999997
 30
0.0
 11
59.011400000000002
 21
85.240499999999997
 31
0.0
  0
LINE
  5
628
  8
0
 62
     7
 10
59.011400000000002
 20
85.240499999999997
 30
0.0
 11
59.011400000000002
 21
84.918999999999997
 31
0.0
  0
LINE
  5
629
  8
0
 62
     7
 10
59.011400000000002
 20
84.918999999999997
 30
0.0
 11
59.085799999999999
 21
84.918999999999997
 31
0.0
  0
LINE
  5
62A
  8
0
 62
     7
 10
59.085799999999999
 20
84.918999999999997
 30
0.0
 11
59.085799999999999
 21
85.033799999999985
 31
0.0
  0
LINE
  5
62B
  8
0
 62
     7
 10
59.085799999999999
 20
85.033799999999985
 30
0.0
 11
59.285600000000002
 21
85.033799999999985
 31
0.0
  0
LINE
  5
62C
  8
0
 62
     7
 10
59.285600000000002
 20
85.033799999999985
 30
0.0
 11
59.285600000000002
 21
84.918999999999997
 31
0.0
  0
LINE
  5
62D
  8
0
 62
     7
 10
59.285600000000002
 20
84.918999999999997
 30
0.0
 11
59.360100000000003
 21
84.918999999999997
 31
0.0
  0
LINE
  5
62E
  8
0
 62
     7
 10
59.360100000000003
 20
84.918999999999997
 30
0.0
 11
59.360100000000003
 21
85.026899999999983
 31
0.0
  0
ARC
  5
62F
  8
0
 62
     7
 10
59.311422
 20
85.026325999999997
 30
0.0
 40
0.048641
 50
0.643136
 51
68.747163
  0
LINE
  5
630
  8
0
 62
     7
 10
59.32909999999999
 20
85.071700000000007
 30
0.0
 11
59.326999999999998
 21
85.073699999999988
 31
0.0
  0
LINE
  5
631
  8
0
 62
     7
 10
59.326999999999998
 20
85.073699999999988
 30
0.0
 11
59.328400000000002
 21
85.075800000000001
 31
0.0
  0
ARC
  5
632
  8
0
 62
     7
 10
59.311565000000002
 20
85.121654000000007
 30
0.0
 40
0.048842
 50
290.11770000000001
 51
6.8379519999999996
  0
LINE
  5
633
  8
0
 62
     7
 10
59.360100000000003
 20
85.127499999999998
 30
0.0
 11
59.360100000000003
 21
85.178100000000001
 31
0.0
  0
ARC
  5
634
  8
0
 62
     7
 10
59.295327999999998
 20
85.175724999999986
 30
0.0
 40
0.064776
 50
2.1122070000000002
 51
88.203461000000004
  0
LINE
  5
635
  8
0
 62
     7
 10
58.484999999999999
 20
85.1661
 30
0.0
 11
58.6325
 21
85.1661
 31
0.0
  0
LINE
  5
636
  8
0
 62
     7
 10
58.6325
 20
85.1661
 30
0.0
 11
58.6325
 21
84.918999999999997
 31
0.0
  0
LINE
  5
637
  8
0
 62
     7
 10
58.6325
 20
84.918999999999997
 30
0.0
 11
58.70689999999999
 21
84.918999999999997
 31
0.0
  0
LINE
  5
638
  8
0
 62
     7
 10
58.70689999999999
 20
84.918999999999997
 30
0.0
 11
58.70689999999999
 21
85.1661
 31
0.0
  0
LINE
  5
639
  8
0
 62
     7
 10
58.70689999999999
 20
85.1661
 30
0.0
 11
58.854300000000002
 21
85.1661
 31
0.0
  0
LINE
  5
63A
  8
0
 62
     7
 10
58.854300000000002
 20
85.1661
 30
0.0
 11
58.854300000000002
 21
85.240499999999997
 31
0.0
  0
LINE
  5
63B
  8
0
 62
     7
 10
58.854300000000002
 20
85.240499999999997
 30
0.0
 11
58.484999999999999
 21
85.240499999999997
 31
0.0
  0
LINE
  5
63C
  8
0
 62
     7
 10
58.484999999999999
 20
85.240499999999997
 30
0.0
 11
58.484999999999999
 21
85.1661
 31
0.0
  0
LINE
  5
63D
  8
0
 62
     7
 10
59.650100000000002
 20
85.060299999999998
 30
0.0
 11
59.71350000000001
 21
85.179799999999986
 31
0.0
  0
LINE
  5
63E
  8
0
 62
     7
 10
59.71350000000001
 20
85.179799999999986
 30
0.0
 11
59.776899999999991
 21
85.060299999999998
 31
0.0
  0
LINE
  5
63F
  8
0
 62
     7
 10
59.776899999999991
 20
85.060299999999998
 30
0.0
 11
59.650100000000002
 21
85.060299999999998
 31
0.0
  0
LINE
  5
640
  8
0
 62
     7
 10
59.675600000000003
 20
85.240499999999997
 30
0.0
 11
59.489600000000003
 21
84.918999999999997
 31
0.0
  0
LINE
  5
641
  8
0
 62
     7
 10
59.489600000000003
 20
84.918999999999997
 30
0.0
 11
59.575699999999998
 21
84.918999999999997
 31
0.0
  0
LINE
  5
642
  8
0
 62
     7
 10
59.575699999999998
 20
84.918999999999997
 30
0.0
 11
59.611600000000003
 21
84.985900000000001
 31
0.0
  0
LINE
  5
643
  8
0
 62
     7
 10
59.611600000000003
 20
84.985900000000001
 30
0.0
 11
59.816200000000002
 21
84.985900000000001
 31
0.0
  0
LINE
  5
644
  8
0
 62
     7
 10
59.816200000000002
 20
84.985900000000001
 30
0.0
 11
59.851300000000002
 21
84.918999999999997
 31
0.0
  0
LINE
  5
645
  8
0
 62
     7
 10
59.851300000000002
 20
84.918999999999997
 30
0.0
 11
59.938200000000002
 21
84.918999999999997
 31
0.0
  0
LINE
  5
646
  8
0
 62
     7
 10
59.938200000000002
 20
84.918999999999997
 30
0.0
 11
59.75139999999999
 21
85.240499999999997
 31
0.0
  0
LINE
  5
647
  8
0
 62
     7
 10
59.75139999999999
 20
85.240499999999997
 30
0.0
 11
59.675600000000003
 21
85.240499999999997
 31
0.0
  0
LINE
  5
648
  8
0
 62
     7
 10
61.775399999999998
 20
86.585400000000007
 30
0.0
 11
61.394399999999997
 21
86.585800000000006
 31
0.0
  0
ARC
  5
649
  8
0
 62
     7
 10
61.409666999999999
 20
86.172279000000003
 30
0.0
 40
0.4137900000000001
 50
92.114272999999983
 51
177.935239
  0
LINE
  5
64A
  8
0
 62
     7
 10
60.996099999999998
 20
86.187200000000004
 30
0.0
 11
60.996099999999998
 21
85.466499999999996
 31
0.0
  0
ARC
  5
64B
  8
0
 62
     7
 10
61.061902000000003
 20
85.468835999999996
 30
0.0
 40
0.065799
 50
182.06113999999991
 51
267.93889000000001
  0
LINE
  5
64C
  8
0
 62
     7
 10
61.059499999999993
 20
85.403099999999995
 30
0.0
 11
61.128399999999999
 21
85.403099999999995
 31
0.0
  0
ARC
  5
64D
  8
0
 62
     7
 10
61.125869000000002
 20
85.469037999999998
 30
0.0
 40
0.066009
 50
272.230389
 51
357.76962099999997
  0
LINE
  5
64E
  8
0
 62
     7
 10
61.191800000000001
 20
85.466499999999996
 30
0.0
 11
61.191800000000001
 21
85.894400000000005
 31
0.0
  0
LINE
  5
64F
  8
0
 62
     7
 10
61.191800000000001
 20
85.894400000000005
 30
0.0
 11
61.643099999999997
 21
85.894400000000005
 31
0.0
  0
LINE
  5
650
  8
0
 62
     7
 10
61.643099999999997
 20
85.894400000000005
 30
0.0
 11
61.643099999999997
 21
85.466499999999996
 31
0.0
  0
ARC
  5
651
  8
0
 62
     7
 10
61.709020999999993
 20
85.468983999999992
 30
0.0
 40
0.06593
 50
182.186498
 51
268.43293999999997
  0
LINE
  5
652
  8
0
 62
     7
 10
61.7072
 20
85.403099999999995
 30
0.0
 11
61.775399999999998
 21
85.403099999999995
 31
0.0
  0
ARC
  5
653
  8
0
 62
     7
 10
61.773156999999998
 20
85.468743000000003
 30
0.0
 40
0.065704
 50
271.98347799999999
 51
358.01653199999998
  0
LINE
  5
654
  8
0
 62
     7
 10
61.838799999999999
 20
85.466499999999996
 30
0.0
 11
61.838799999999999
 21
86.522099999999995
 31
0.0
  0
ARC
  5
655
  8
0
 62
     7
 10
61.773065000000003
 20
86.519687000000005
 30
0.0
 40
0.065799
 50
2.0611369999999991
 51
87.938853000000009
  0
LINE
  5
656
  8
0
 62
     7
 10
60.869399999999999
 20
86.585400000000007
 30
0.0
 11
60.683300000000003
 21
86.585800000000006
 31
0.0
  0
ARC
  5
657
  8
0
 62
     7
 10
60.69859499999999
 20
86.172279000000003
 30
0.0
 40
0.4137900000000001
 50
92.114272999999983
 51
177.935239
  0
LINE
  5
658
  8
0
 62
     7
 10
60.2851
 20
86.187200000000004
 30
0.0
 11
60.2851
 21
85.466499999999996
 31
0.0
  0
ARC
  5
659
  8
0
 62
     7
 10
60.350830000000002
 20
85.468835999999996
 30
0.0
 40
0.065799
 50
182.06113999999991
 51
267.93889000000001
  0
LINE
  5
65A
  8
0
 62
     7
 10
60.348500000000001
 20
85.403099999999995
 30
0.0
 11
60.417400000000001
 21
85.403099999999995
 31
0.0
  0
ARC
  5
65B
  8
0
 62
     7
 10
60.414797
 20
85.469037999999998
 30
0.0
 40
0.066009
 50
272.230389
 51
357.76962099999997
  0
LINE
  5
65C
  8
0
 62
     7
 10
60.480800000000002
 20
85.466499999999996
 30
0.0
 11
60.480800000000002
 21
86.385599999999997
 31
0.0
  0
LINE
  5
65D
  8
0
 62
     7
 10
60.480800000000002
 20
86.385599999999997
 30
0.0
 11
60.869399999999999
 21
86.385599999999997
 31
0.0
  0
ARC
  5
65E
  8
0
 62
     7
 10
60.867091000000002
 20
86.451290999999998
 30
0.0
 40
0.065704
 50
271.98347799999999
 51
358.01653199999998
  0
LINE
  5
65F
  8
0
 62
     7
 10
60.9328
 20
86.448999999999984
 30
0.0
 11
60.9328
 21
86.522099999999995
 31
0.0
  0
ARC
  5
660
  8
0
 62
     7
 10
60.866999
 20
86.519687000000005
 30
0.0
 40
0.065799
 50
2.0611369999999991
 51
87.938853000000009
  0
LINE
  5
661
  8
0
 62
     7
 10
61.188400000000001
 20
85.003399999999985
 30
0.0
 11
60.954099999999997
 21
85.240499999999997
 31
0.0
  0
LINE
  5
662
  8
0
 62
     7
 10
60.954099999999997
 20
85.240499999999997
 30
0.0
 11
60.880400000000002
 21
85.240499999999997
 31
0.0
  0
LINE
  5
663
  8
0
 62
     7
 10
60.880400000000002
 20
85.240499999999997
 30
0.0
 11
60.880400000000002
 21
84.918999999999997
 31
0.0
  0
LINE
  5
664
  8
0
 62
     7
 10
60.880400000000002
 20
84.918999999999997
 30
0.0
 11
60.954099999999997
 21
84.918999999999997
 31
0.0
  0
LINE
  5
665
  8
0
 62
     7
 10
60.954099999999997
 20
84.918999999999997
 30
0.0
 11
60.954099999999997
 21
85.156400000000005
 31
0.0
  0
LINE
  5
666
  8
0
 62
     7
 10
60.954099999999997
 20
85.156400000000005
 30
0.0
 11
61.188400000000001
 21
84.918999999999997
 31
0.0
  0
LINE
  5
667
  8
0
 62
     7
 10
61.188400000000001
 20
84.918999999999997
 30
0.0
 11
61.262799999999999
 21
84.918999999999997
 31
0.0
  0
LINE
  5
668
  8
0
 62
     7
 10
61.262799999999999
 20
84.918999999999997
 30
0.0
 11
61.262799999999999
 21
85.240499999999997
 31
0.0
  0
LINE
  5
669
  8
0
 62
     7
 10
61.262799999999999
 20
85.240499999999997
 30
0.0
 11
61.188400000000001
 21
85.240499999999997
 31
0.0
  0
LINE
  5
66A
  8
0
 62
     7
 10
61.188400000000001
 20
85.240499999999997
 30
0.0
 11
61.188400000000001
 21
85.003399999999985
 31
0.0
  0
LINE
  5
66B
  8
0
 62
     7
 10
60.612400000000001
 20
84.918999999999997
 30
0.0
 11
60.686799999999998
 21
84.918999999999997
 31
0.0
  0
LINE
  5
66C
  8
0
 62
     7
 10
60.686799999999998
 20
84.918999999999997
 30
0.0
 11
60.686799999999998
 21
85.240499999999997
 31
0.0
  0
LINE
  5
66D
  8
0
 62
     7
 10
60.686799999999998
 20
85.240499999999997
 30
0.0
 11
60.612400000000001
 21
85.240499999999997
 31
0.0
  0
LINE
  5
66E
  8
0
 62
     7
 10
60.612400000000001
 20
85.240499999999997
 30
0.0
 11
60.612400000000001
 21
84.918999999999997
 31
0.0
  0
LINE
  5
66F
  8
0
 62
     7
 10
61.80019999999999
 20
85.1661
 30
0.0
 11
61.80019999999999
 21
85.240499999999997
 31
0.0
  0
LINE
  5
670
  8
0
 62
     7
 10
61.80019999999999
 20
85.240499999999997
 30
0.0
 11
61.5122
 21
85.240499999999997
 31
0.0
  0
ARC
  5
671
  8
0
 62
     7
 10
61.514589999999998
 20
85.176103999999995
 30
0.0
 40
0.064409
 50
92.105016000000006
 51
178.21238199999999
  0
LINE
  5
672
  8
0
 62
     7
 10
61.450200000000002
 20
85.178100000000001
 30
0.0
 11
61.450200000000002
 21
84.981399999999994
 31
0.0
  0
ARC
  5
673
  8
0
 62
     7
 10
61.514920999999987
 20
84.983734999999996
 30
0.0
 40
0.064751
 50
182.06985299999999
 51
267.61274900000001
  0
LINE
  5
674
  8
0
 62
     7
 10
61.5122
 20
84.918999999999997
 30
0.0
 11
61.80019999999999
 21
84.918999999999997
 31
0.0
  0
LINE
  5
675
  8
0
 62
     7
 10
61.80019999999999
 20
84.918999999999997
 30
0.0
 11
61.80019999999999
 21
85.081000000000003
 31
0.0
  0
LINE
  5
676
  8
0
 62
     7
 10
61.80019999999999
 20
85.081000000000003
 30
0.0
 11
61.725799999999992
 21
85.081000000000003
 31
0.0
  0
LINE
  5
677
  8
0
 62
     7
 10
61.725799999999992
 20
85.081000000000003
 30
0.0
 11
61.725799999999992
 21
84.993499999999983
 31
0.0
  0
LINE
  5
678
  8
0
 62
     7
 10
61.725799999999992
 20
84.993499999999983
 30
0.0
 11
61.5246
 21
84.993499999999983
 31
0.0
  0
LINE
  5
679
  8
0
 62
     7
 10
61.5246
 20
84.993499999999983
 30
0.0
 11
61.5246
 21
85.1661
 31
0.0
  0
LINE
  5
67A
  8
0
 62
     7
 10
61.5246
 20
85.1661
 30
0.0
 11
61.80019999999999
 21
85.1661
 31
0.0
  0
LINE
  5
67B
  8
0
 62
     7
 10
61.643099999999997
 20
86.094499999999996
 30
0.0
 11
61.191800000000001
 21
86.094499999999996
 31
0.0
  0
LINE
  5
67C
  8
0
 62
     7
 10
61.191800000000001
 20
86.094499999999996
 30
0.0
 11
61.191800000000001
 21
86.385599999999997
 31
0.0
  0
LINE
  5
67D
  8
0
 62
     7
 10
61.191800000000001
 20
86.385599999999997
 30
0.0
 11
61.643099999999997
 21
86.385599999999997
 31
0.0
  0
LINE
  5
67E
  8
0
 62
     7
 10
61.643099999999997
 20
86.385599999999997
 30
0.0
 11
61.643099999999997
 21
86.094499999999996
 31
0.0
  0
ARC
  5
67F
  8
0
 62
     7
 10
62.507925999999998
 20
85.750554000000008
 30
0.0
 40
0.6448660000000001
 50
0.165214
 51
32.984845999999997
  0
ARC
  5
680
  8
0
 62
     7
 10
62.201230000000002
 20
85.580701000000005
 30
0.0
 40
0.994899
 50
31.574047
 51
45.178187999999992
  0
ARC
  5
681
  8
0
 62
     7
 10
61.851360999999997
 20
85.244907999999995
 30
0.0
 40
1.479746999999999
 50
44.734396999999987
 51
55.033954999999999
  0
ARC
  5
682
  8
0
 62
     7
 10
61.427515
 20
84.661281000000002
 30
0.0
 40
2.200963999999999
 50
54.698993000000009
 51
63.855507999999993
  0
ARC
  5
683
  8
0
 62
     7
 10
60.877457999999997
 20
83.583733999999993
 30
0.0
 40
3.4106909999999999
 50
63.536809999999988
 51
74.837350000000001
  0
ARC
  5
684
  8
0
 62
     7
 10
60.311948999999998
 20
81.719911999999994
 30
0.0
 40
5.3578599999999987
 50
74.213661999999999
 51
86.021191999999999
  0
ARC
  5
685
  8
0
 62
     7
 10
60.156542000000002
 20
80.400141000000005
 30
0.0
 40
6.6855349999999998
 50
85.477345999999997
 51
90.032218
  0
ARC
  5
686
  8
0
 62
     7
 10
60.151968999999987
 20
80.624003000000002
 30
0.0
 40
6.4616720000000001
 50
89.992793000000034
 51
102.19510200000001
  0
ARC
  5
687
  8
0
 62
     7
 10
59.758887999999992
 20
82.634078000000017
 30
0.0
 40
4.4141059999999994
 50
102.719505
 51
112.315383
  0
ARC
  5
688
  8
0
 62
     7
 10
59.106540000000003
 20
84.276693000000009
 30
0.0
 40
2.6468880000000001
 50
112.7530169999999
 51
125.039089
  0
ARC
  5
689
  8
0
 62
     7
 10
58.426391000000002
 20
85.285801000000006
 30
0.0
 40
1.430348999999999
 50
125.93981700000001
 51
141.30006399999999
  0
ARC
  5
68A
  8
0
 62
     7
 10
57.950233999999988
 20
85.687353000000002
 30
0.0
 40
0.807826
 50
142.411598
 51
165.561947
  0
ARC
  5
68B
  8
0
 62
     7
 10
57.764777000000002
 20
85.751900000000006
 30
0.0
 40
0.6123490000000001
 50
167.084261
 51
179.951888
  0
ARC
  5
68C
  8
0
 62
     7
 10
57.797261999999989
 20
85.754272999999984
 30
0.0
 40
0.644837
 50
180.16521599999999
 51
212.98650599999999
  0
ARC
  5
68D
  8
0
 62
     7
 10
58.103319999999989
 20
85.923593999999994
 30
0.0
 40
0.9940469999999999
 50
211.568208
 51
225.184066
  0
ARC
  5
68E
  8
0
 62
     7
 10
58.454315000000001
 20
86.260510999999994
 30
0.0
 40
1.4804850000000001
 50
224.738327
 51
235.03305800000001
  0
ARC
  5
68F
  8
0
 62
     7
 10
58.877324000000002
 20
86.842968999999997
 30
0.0
 40
2.2002649999999999
 50
234.69871900000001
 51
243.85851199999999
  0
ARC
  5
690
  8
0
 62
     7
 10
59.42818299999999
 20
87.922344999999993
 30
0.0
 40
3.411985
 50
243.54030800000001
 51
254.837481
  0
ARC
  5
691
  8
0
 62
     7
 10
59.993425999999999
 20
89.785590999999997
 30
0.0
 40
5.3585269999999987
 50
254.214967
 51
266.02261700000003
  0
ARC
  5
692
  8
0
 62
     7
 10
60.149031999999998
 20
91.107574
 30
0.0
 40
6.6884209999999999
 50
265.478343
 51
270.03212500000001
  0
ARC
  5
693
  8
0
 62
     7
 10
60.153587999999999
 20
90.878804000000017
 30
0.0
 40
6.459651
 50
269.99285400000002
 51
282.19703600000003
  0
ARC
  5
694
  8
0
 62
     7
 10
60.546247999999999
 20
88.870832999999976
 30
0.0
 40
4.4142320000000002
 50
282.72189100000003
 51
292.31655699999999
  0
ARC
  5
695
  8
0
 62
     7
 10
61.198829000000003
 20
87.227768999999995
 30
0.0
 40
2.6465099999999988
 50
292.75404400000002
 51
305.04126000000008
  0
ARC
  5
696
  8
0
 62
     7
 10
61.878577999999997
 20
86.219258999999994
 30
0.0
 40
1.4306929999999991
 50
305.94296200000002
 51
321.29918400000003
  0
ARC
  5
697
  8
0
 62
     7
 10
62.354714000000001
 20
85.817594000000014
 30
0.0
 40
0.808117
 50
322.416785
 51
345.55851000000013
  0
ARC
  5
698
  8
0
 62
     7
 10
62.540441000000001
 20
85.752927999999983
 30
0.0
 40
0.6123490000000001
 50
347.08428100000009
 51
359.951908
  0
ARC
  5
699
  8
0
 62
     7
 10
48.793548000000001
 20
99.381319000000005
 30
0.0
 40
0.692584
 50
2.1077479999999991
 51
87.862623999999997
  0
ARC
  5
69A
  8
0
 62
     7
 10
48.844850999999998
 20
99.380960999999999
 30
0.0
 40
0.692929
 50
92.106716000000006
 51
177.863651
  0
ARC
  5
69B
  8
0
 62
     7
 10
48.844881000000001
 20
99.432293000000001
 30
0.0
 40
0.692946
 50
182.109103
 51
267.89092699999998
  0
ARC
  5
69C
  8
0
 62
     7
 10
48.793847999999997
 20
99.431606999999985
 30
0.0
 40
0.6922610000000001
 50
272.11353000000003
 51
357.94569999999999
  0
ARC
  5
69D
  8
0
 62
     7
 10
60.140372999999997
 20
110.727429
 30
0.0
 40
0.34613
 50
2.1135199999999998
 51
87.945689999999999
  0
ARC
  5
69E
  8
0
 62
     7
 10
60.165891000000002
 20
110.726366
 30
0.0
 40
0.347218
 50
92.163922999999997
 51
177.71766700000001
  0
ARC
  5
69F
  8
0
 62
     7
 10
60.164845999999997
 20
110.752973
 30
0.0
 40
0.346133
 50
182.11589900000001
 51
268.00251100000003
  0
ARC
  5
6A0
  8
0
 62
     7
 10
60.139656000000002
 20
110.753677
 30
0.0
 40
0.3468739999999999
 50
272.16841699999998
 51
357.77237300000002
  0
ARC
  5
6A1
  8
0
 62
     7
 10
60.126961000000001
 20
110.714731
 30
0.0
 40
0.6925740000000001
 50
2.1069539999999991
 51
87.863417999999996
  0
ARC
  5
6A2
  8
0
 62
     7
 10
60.178272999999997
 20
110.714702
 30
0.0
 40
0.692591
 50
92.109302999999997
 51
177.89066700000001
  0
ARC
  5
6A3
  8
0
 62
     7
 10
60.178268000000003
 20
110.76568
 30
0.0
 40
0.692586
 50
182.108936
 51
267.89109400000001
  0
ARC
  5
6A4
  8
0
 62
     7
 10
60.127274999999997
 20
110.765342
 30
0.0
 40
0.692249
 50
272.11155000000002
 51
357.91807800000009
  0
ARC
  5
6A5
  8
0
 62
     7
 10
60.152780000000007
 20
99.406790000000015
 30
0.0
 40
7.5000220000000004
 50
0.00001
 51
89.999980000000008
  0
ARC
  5
6A6
  8
0
 62
     7
 10
60.152609999999989
 20
99.406617999999995
 30
0.0
 40
7.5001939999999996
 50
89.998683999999997
 51
179.99865399999999
  0
ARC
  5
6A7
  8
0
 62
     7
 10
60.152606999999989
 20
99.406963000000005
 30
0.0
 40
7.5001910000000001
 50
180.00132600000001
 51
270.00133599999998
  0
ARC
  5
6A8
  8
0
 62
     7
 10
60.152780000000007
 20
99.406793000000008
 30
0.0
 40
7.5000220000000004
 50
270.00002000000001
 51
359.99999000000003
  0
ARC
  5
6A9
  8
0
 62
     7
 10
43.98587899999999
 20
115.57334899999999
 30
0.0
 40
0.5002310000000002
 50
90.0
 51
179.99996999999999
  0
ARC
  5
6AA
  8
0
 62
     7
 10
44.004860999999998
 20
83.259229000000005
 30
0.0
 40
0.519573
 50
182.1331439999999
 51
267.90635900000001
  0
LINE
  5
6AB
  8
0
 62
     7
 10
43.485599999999991
 20
83.239900000000006
 30
0.0
 11
43.485599999999991
 21
115.57299999999999
 31
0.0
  0
ARC
  5
6AC
  8
0
 62
     7
 10
76.319338000000002
 20
115.57334899999999
 30
0.0
 40
0.5002310000000002
 50
0.00001
 51
89.999980000000008
  0
ARC
  5
6AD
  8
0
 62
     7
 10
76.300037000000003
 20
83.259548999999993
 30
0.0
 40
0.519904
 50
272.12753900000001
 51
357.83299799999998
  0
LINE
  5
6AE
  8
0
 62
     7
 10
76.819599999999994
 20
115.57299999999999
 30
0.0
 11
76.819599999999994
 21
83.239900000000006
 31
0.0
  0
LINE
  5
6AF
  8
0
 62
     7
 10
43.985900000000001
 20
116.074
 30
0.0
 11
76.319299999999998
 21
116.074
 31
0.0
  0
LINE
  5
6B0
  8
0
 62
     7
 10
76.319299999999998
 20
82.739999999999995
 30
0.0
 11
43.985900000000001
 21
82.739999999999995
 31
0.0
  0
LINE
  5
6B1
  8
0
  6
AIGENLINE001
 62
     7
 10
136.03
 20
92.453500000000005
 30
0.0
 11
118.22199999999999
 21
92.453500000000005
 31
0.0
  0
LINE
  5
6B2
  8
0
  6
AIGENLINE001
 62
     7
 10
53.1995
 20
189.12599999999989
 30
0.0
 11
53.1995
 21
172.905
 31
0.0
  0
LINE
  5
6B3
  8
0
  6
AIGENLINE001
 62
     7
 10
67.105699999999999
 20
189.12599999999989
 30
0.0
 11
67.105699999999999
 21
172.905
 31
0.0
  0
LINE
  5
6B4
  8
0
  6
AIGENLINE001
 62
     7
 10
136.03
 20
106.36
 30
0.0
 11
118.22199999999999
 21
106.36
 31
0.0
  0
LINE
  5
6B5
  8
0
  6
AIGENLINE001
 62
     7
 10
152.322
 20
115.224
 30
0.0
 11
152.322
 21
83.589600000000004
 31
0.0
  0
LINE
  5
6B6
  8
0
  6
AIGENLINE001
 62
     7
 10
163.65100000000001
 20
99.406800000000004
 30
0.0
 11
96.902199999999993
 21
99.406800000000004
 31
0.0
  0
LINE
  5
6B7
  8
0
  6
AIGENLINE001
 62
     7
 10
60.152799999999999
 20
217.72900000000001
 30
0.0
 11
60.152799999999999
 21
149.80500000000001
 31
0.0
  0
LINE
  5
6B8
  8
0
  6
AIGENLINE001
 62
     7
 10
41.395800000000001
 20
206.10300000000001
 30
0.0
 11
79.530199999999994
 21
206.10300000000001
 31
0.0
  0
LINE
  5
6B9
  8
0
  6
AIGENLINE001
 62
     7
 10
60.152799999999999
 20
217.72900000000001
 30
0.0
 11
60.152799999999999
 21
149.80500000000001
 31
0.0
  0
LINE
  5
6BA
  8
0
  6
AIGENLINE001
 62
     7
 10
80.1524
 20
99.406800000000004
 30
0.0
 11
40.152799999999992
 21
99.406800000000004
 31
0.0
  0
LINE
  5
6BB
  8
0
  6
AIGENLINE001
 62
     7
 10
60.152799999999999
 20
119.407
 30
0.0
 11
60.152799999999999
 21
79.406499999999994
 31
0.0
  0
LINE
  5
6BC
  8
0
 62
     7
 10
171.953
 20
78.362300000000005
 30
0.0
 11
163.46000000000001
 21
78.362300000000005
 31
0.0
  0
LINE
  5
6BD
  8
0
 62
     7
 10
156.08699999999999
 20
83.512100000000004
 30
0.0
 11
154.77000000000001
 21
85.382800000000003
 31
0.0
  0
LINE
  5
6BE
  8
0
 62
     7
 10
154.77000000000001
 20
85.382800000000003
 30
0.0
 11
156.846
 21
84.421599999999984
 31
0.0
  0
LINE
  5
6BF
  8
0
 62
     7
 10
156.846
 20
84.421599999999984
 30
0.0
 11
156.08699999999999
 21
83.512100000000004
 31
0.0
  0
LINE
  5
6C0
  8
0
 62
     7
 10
154.76599999999999
 20
85.377200000000002
 30
0.0
 11
163.46000000000001
 21
78.362300000000005
 31
0.0
  0
LINE
  5
6C1
  8
0
 62
     7
 10
171.953
 20
120.40300000000001
 30
0.0
 11
163.46000000000001
 21
120.40300000000001
 31
0.0
  0
LINE
  5
6C2
  8
0
 62
     7
 10
156.08699999999999
 20
115.254
 30
0.0
 11
154.77000000000001
 21
113.383
 31
0.0
  0
LINE
  5
6C3
  8
0
 62
     7
 10
154.77000000000001
 20
113.383
 30
0.0
 11
156.846
 21
114.34399999999999
 31
0.0
  0
LINE
  5
6C4
  8
0
 62
     7
 10
156.846
 20
114.34399999999999
 30
0.0
 11
156.08699999999999
 21
115.254
 31
0.0
  0
LINE
  5
6C5
  8
0
 62
     7
 10
154.76599999999999
 20
113.38800000000001
 30
0.0
 11
163.46000000000001
 21
120.40300000000001
 31
0.0
  0
LINE
  5
6C6
  8
0
 62
     7
 10
135.23400000000001
 20
79.294899999999998
 30
0.0
 11
124.532
 21
79.294899999999998
 31
0.0
  0
LINE
  5
6C7
  8
0
 62
     7
 10
140.999
 20
88.543599999999984
 30
0.0
 11
141.554
 21
90.763300000000001
 31
0.0
  0
LINE
  5
6C8
  8
0
 62
     7
 10
141.554
 20
90.763300000000001
 30
0.0
 11
139.96299999999999
 21
89.118600000000001
 31
0.0
  0
LINE
  5
6C9
  8
0
 62
     7
 10
139.96299999999999
 20
89.118600000000001
 30
0.0
 11
140.999
 21
88.543599999999984
 31
0.0
  0
LINE
  5
6CA
  8
0
 62
     7
 10
141.56
 20
90.759500000000003
 30
0.0
 11
135.23400000000001
 21
79.294899999999998
 31
0.0
  0
LINE
  5
6CB
  8
0
 62
     7
 10
109.32899999999999
 20
74.495099999999994
 30
0.0
 11
96.999700000000004
 21
74.495099999999994
 31
0.0
  0
LINE
  5
6CC
  8
0
 62
     7
 10
115.09399999999999
 20
83.743899999999996
 30
0.0
 11
115.65000000000001
 21
85.9636
 31
0.0
  0
LINE
  5
6CD
  8
0
 62
     7
 10
115.65000000000001
 20
85.9636
 30
0.0
 11
114.059
 21
84.318899999999999
 31
0.0
  0
LINE
  5
6CE
  8
0
 62
     7
 10
114.059
 20
84.318899999999999
 30
0.0
 11
115.09399999999999
 21
83.743899999999996
 31
0.0
  0
LINE
  5
6CF
  8
0
 62
     7
 10
115.65600000000001
 20
85.959800000000001
 30
0.0
 11
109.32899999999999
 21
74.495099999999994
 31
0.0
  0
LINE
  5
6D0
  8
0
 62
     7
 10
159.77099999999999
 20
128.79300000000001
 30
0.0
 11
161.983
 21
129.386
 31
0.0
  0
LINE
  5
6D1
  8
0
 62
     7
 10
161.983
 20
129.386
 30
0.0
 11
159.77099999999999
 21
129.97800000000001
 31
0.0
  0
LINE
  5
6D2
  8
0
 62
     7
 10
159.77099999999999
 20
129.97800000000001
 30
0.0
 11
159.77099999999999
 21
128.79300000000001
 31
0.0
  0
LINE
  5
6D3
  8
0
 62
     7
 10
101.027
 20
129.964
 30
0.0
 11
98.816300000000012
 21
129.37100000000001
 31
0.0
  0
LINE
  5
6D4
  8
0
 62
     7
 10
98.816300000000012
 20
129.37100000000001
 30
0.0
 11
101.027
 21
128.77799999999999
 31
0.0
  0
LINE
  5
6D5
  8
0
 62
     7
 10
101.027
 20
128.77799999999999
 30
0.0
 11
101.027
 21
129.964
 31
0.0
  0
LINE
  5
6D6
  8
0
 62
     7
 10
161.983
 20
129.37799999999999
 30
0.0
 11
98.817000000000021
 21
129.37799999999999
 31
0.0
  0
LINE
  5
6D7
  8
0
 62
     7
 10
122.861
 20
123.327
 30
0.0
 11
120.65000000000001
 21
122.73399999999999
 31
0.0
  0
LINE
  5
6D8
  8
0
 62
     7
 10
120.65000000000001
 20
122.73399999999999
 30
0.0
 11
122.861
 21
122.14100000000001
 31
0.0
  0
LINE
  5
6D9
  8
0
 62
     7
 10
122.861
 20
122.14100000000001
 30
0.0
 11
122.861
 21
123.327
 31
0.0
  0
LINE
  5
6DA
  8
0
 62
     7
 10
122.861
 20
128.786
 30
0.0
 11
120.65000000000001
 21
129.37799999999999
 31
0.0
  0
LINE
  5
6DB
  8
0
 62
     7
 10
120.65000000000001
 20
129.37799999999999
 30
0.0
 11
122.861
 21
129.971
 31
0.0
  0
LINE
  5
6DC
  8
0
 62
     7
 10
122.861
 20
129.971
 30
0.0
 11
122.861
 21
128.786
 31
0.0
  0
LINE
  5
6DD
  8
0
 62
     7
 10
118.438
 20
128.786
 30
0.0
 11
120.65000000000001
 21
129.37799999999999
 31
0.0
  0
LINE
  5
6DE
  8
0
 62
     7
 10
120.65000000000001
 20
129.37799999999999
 30
0.0
 11
118.438
 21
129.971
 31
0.0
  0
LINE
  5
6DF
  8
0
 62
     7
 10
118.438
 20
129.971
 30
0.0
 11
118.438
 21
128.786
 31
0.0
  0
LINE
  5
6E0
  8
0
 62
     7
 10
154.52799999999999
 20
122.15600000000001
 30
0.0
 11
152.31700000000001
 21
122.748
 31
0.0
  0
LINE
  5
6E1
  8
0
 62
     7
 10
152.31700000000001
 20
122.748
 30
0.0
 11
154.52799999999999
 21
123.34099999999999
 31
0.0
  0
LINE
  5
6E2
  8
0
 62
     7
 10
154.52799999999999
 20
123.34099999999999
 30
0.0
 11
154.52799999999999
 21
122.15600000000001
 31
0.0
  0
LINE
  5
6E3
  8
0
 62
     7
 10
159.77099999999999
 20
122.15600000000001
 30
0.0
 11
161.983
 21
122.748
 31
0.0
  0
LINE
  5
6E4
  8
0
 62
     7
 10
161.983
 20
122.748
 30
0.0
 11
159.77099999999999
 21
123.34099999999999
 31
0.0
  0
LINE
  5
6E5
  8
0
 62
     7
 10
159.77099999999999
 20
123.34099999999999
 30
0.0
 11
159.77099999999999
 21
122.15600000000001
 31
0.0
  0
LINE
  5
6E6
  8
0
 62
     7
 10
150.10499999999999
 20
122.15600000000001
 30
0.0
 11
152.31700000000001
 21
122.748
 31
0.0
  0
LINE
  5
6E7
  8
0
 62
     7
 10
152.31700000000001
 20
122.748
 30
0.0
 11
150.10499999999999
 21
123.34099999999999
 31
0.0
  0
LINE
  5
6E8
  8
0
 62
     7
 10
150.10499999999999
 20
123.34099999999999
 30
0.0
 11
150.10499999999999
 21
122.15600000000001
 31
0.0
  0
LINE
  5
6E9
  8
0
 62
     7
 10
120.651
 20
122.741
 30
0.0
 11
161.983
 21
122.741
 31
0.0
  0
LINE
  5
6EA
  8
0
 62
     7
 10
98.816300000000012
 20
107.34
 30
0.0
 11
98.816300000000012
 21
130.071
 31
0.0
  0
LINE
  5
6EB
  8
0
 62
     7
 10
161.983
 20
112.41200000000001
 30
0.0
 11
161.983
 21
130.071
 31
0.0
  0
LINE
  5
6EC
  8
0
 62
     7
 10
120.65000000000001
 20
116.774
 30
0.0
 11
120.65000000000001
 21
130.078
 31
0.0
  0
LINE
  5
6ED
  8
0
 62
     7
 10
152.31700000000001
 20
116.036
 30
0.0
 11
152.31700000000001
 21
123.434
 31
0.0
  0
LINE
  5
6EE
  8
0
 62
     7
 10
170.333
 20
111.172
 30
0.0
 11
169.74000000000001
 21
113.383
 31
0.0
  0
LINE
  5
6EF
  8
0
 62
     7
 10
169.74000000000001
 20
113.383
 30
0.0
 11
169.148
 21
111.172
 31
0.0
  0
LINE
  5
6F0
  8
0
 62
     7
 10
169.148
 20
111.172
 30
0.0
 11
170.333
 21
111.172
 31
0.0
  0
LINE
  5
6F1
  8
0
 62
     7
 10
169.16200000000001
 20
87.594200000000001
 30
0.0
 11
169.755
 21
85.383099999999999
 31
0.0
  0
LINE
  5
6F2
  8
0
 62
     7
 10
169.755
 20
85.383099999999999
 30
0.0
 11
170.34700000000001
 21
87.594200000000001
 31
0.0
  0
LINE
  5
6F3
  8
0
 62
     7
 10
170.34700000000001
 20
87.594200000000001
 30
0.0
 11
169.16200000000001
 21
87.594200000000001
 31
0.0
  0
LINE
  5
6F4
  8
0
 62
     7
 10
169.74700000000001
 20
113.383
 30
0.0
 11
169.74700000000001
 21
85.383799999999994
 31
0.0
  0
LINE
  5
6F5
  8
0
 62
     7
 10
170.45500000000001
 20
85.383099999999999
 30
0.0
 11
157.91300000000001
 21
85.383099999999999
 31
0.0
  0
LINE
  5
6F6
  8
0
 62
     7
 10
170.45500000000001
 20
113.383
 30
0.0
 11
157.91300000000001
 21
113.383
 31
0.0
  0
LINE
  5
6F7
  8
0
 62
     7
 10
93.587000000000003
 20
104.696
 30
0.0
 11
92.994699999999995
 21
106.908
 31
0.0
  0
LINE
  5
6F8
  8
0
 62
     7
 10
92.994699999999995
 20
106.908
 30
0.0
 11
92.402199999999979
 21
104.696
 31
0.0
  0
LINE
  5
6F9
  8
0
 62
     7
 10
92.402199999999979
 20
104.696
 30
0.0
 11
93.587000000000003
 21
104.696
 31
0.0
  0
LINE
  5
6FA
  8
0
 62
     7
 10
92.416600000000017
 20
94.117199999999997
 30
0.0
 11
93.009200000000007
 21
91.906099999999995
 31
0.0
  0
LINE
  5
6FB
  8
0
 62
     7
 10
93.009200000000007
 20
91.906099999999995
 30
0.0
 11
93.601399999999984
 21
94.117199999999997
 31
0.0
  0
LINE
  5
6FC
  8
0
 62
     7
 10
93.601399999999984
 20
94.117199999999997
 30
0.0
 11
92.416600000000017
 21
94.117199999999997
 31
0.0
  0
LINE
  5
6FD
  8
0
 62
     7
 10
93.002000000000024
 20
106.907
 30
0.0
 11
93.002000000000024
 21
91.906800000000004
 31
0.0
  0
LINE
  5
6FE
  8
0
 62
     7
 10
98.140000000000001
 20
91.906800000000004
 30
0.0
 11
92.301900000000003
 21
91.906800000000004
 31
0.0
  0
LINE
  5
6FF
  8
0
 62
     7
 10
98.140000000000001
 20
106.907
 30
0.0
 11
92.301900000000003
 21
106.907
 31
0.0
  0
LINE
  5
700
  8
0
 62
     7
 10
75.941800000000001
 20
223.25399999999999
 30
0.0
 11
78.152799999999999
 21
223.846
 31
0.0
  0
LINE
  5
701
  8
0
 62
     7
 10
78.152799999999999
 20
223.846
 30
0.0
 11
75.941800000000001
 21
224.43899999999999
 31
0.0
  0
LINE
  5
702
  8
0
 62
     7
 10
75.941800000000001
 20
224.43899999999999
 30
0.0
 11
75.941800000000001
 21
223.25399999999999
 31
0.0
  0
LINE
  5
703
  8
0
 62
     7
 10
44.363799999999991
 20
224.42400000000001
 30
0.0
 11
42.152700000000003
 21
223.83199999999999
 31
0.0
  0
LINE
  5
704
  8
0
 62
     7
 10
42.152700000000003
 20
223.83199999999999
 30
0.0
 11
44.363799999999991
 21
223.239
 31
0.0
  0
LINE
  5
705
  8
0
 62
     7
 10
44.363799999999991
 20
223.239
 30
0.0
 11
44.363799999999991
 21
224.42400000000001
 31
0.0
  0
LINE
  5
706
  8
0
 62
     7
 10
78.152100000000004
 20
223.839
 30
0.0
 11
42.153399999999998
 21
223.839
 31
0.0
  0
LINE
  5
707
  8
0
 62
     7
 10
42.152700000000003
 20
224.54599999999999
 30
0.0
 11
42.152700000000003
 21
209.98699999999999
 31
0.0
  0
LINE
  5
708
  8
0
 62
     7
 10
78.152799999999999
 20
224.54599999999999
 30
0.0
 11
78.152799999999999
 21
209.98699999999999
 31
0.0
  0
LINE
  5
709
  8
0
 62
     7
 10
74.608500000000006
 20
124.3
 30
0.0
 11
76.819599999999994
 21
124.893
 31
0.0
  0
LINE
  5
70A
  8
0
 62
     7
 10
76.819599999999994
 20
124.893
 30
0.0
 11
74.608500000000006
 21
125.485
 31
0.0
  0
LINE
  5
70B
  8
0
 62
     7
 10
74.608500000000006
 20
125.485
 30
0.0
 11
74.608500000000006
 21
124.3
 31
0.0
  0
LINE
  5
70C
  8
0
 62
     7
 10
45.695700000000002
 20
125.471
 30
0.0
 11
43.4846
 21
124.878
 31
0.0
  0
LINE
  5
70D
  8
0
 62
     7
 10
43.4846
 20
124.878
 30
0.0
 11
45.695700000000002
 21
124.286
 31
0.0
  0
LINE
  5
70E
  8
0
 62
     7
 10
45.695700000000002
 20
124.286
 30
0.0
 11
45.695700000000002
 21
125.471
 31
0.0
  0
LINE
  5
70F
  8
0
 62
     7
 10
76.818899999999999
 20
124.886
 30
0.0
 11
43.485300000000002
 21
124.886
 31
0.0
  0
LINE
  5
710
  8
0
 62
     7
 10
43.486299999999993
 20
125.593
 30
0.0
 11
43.486299999999993
 21
116.66800000000001
 31
0.0
  0
LINE
  5
711
  8
0
 62
     7
 10
76.819599999999994
 20
125.593
 30
0.0
 11
76.819599999999994
 21
116.66800000000001
 31
0.0
  0
LINE
  5
712
  8
0
 62
     7
 10
35.5974
 20
113.863
 30
0.0
 11
35.004800000000003
 21
116.074
 31
0.0
  0
LINE
  5
713
  8
0
 62
     7
 10
35.004800000000003
 20
116.074
 30
0.0
 11
34.412199999999999
 21
113.863
 31
0.0
  0
LINE
  5
714
  8
0
 62
     7
 10
34.412199999999999
 20
113.863
 30
0.0
 11
35.5974
 21
113.863
 31
0.0
  0
LINE
  5
715
  8
0
 62
     7
 10
34.426699999999997
 20
84.949700000000007
 30
0.0
 11
35.019300000000001
 21
82.738600000000005
 31
0.0
  0
LINE
  5
716
  8
0
 62
     7
 10
35.019300000000001
 20
82.738600000000005
 30
0.0
 11
35.611800000000002
 21
84.949700000000007
 31
0.0
  0
LINE
  5
717
  8
0
 62
     7
 10
35.611800000000002
 20
84.949700000000007
 30
0.0
 11
34.426699999999997
 21
84.949700000000007
 31
0.0
  0
LINE
  5
718
  8
0
 62
     7
 10
35.012
 20
116.07299999999999
 30
0.0
 11
35.012
 21
82.7393
 31
0.0
  0
LINE
  5
719
  8
0
 62
     7
 10
42.83039999999999
 20
116.074
 30
0.0
 11
34.3048
 21
116.074
 31
0.0
  0
LINE
  5
71A
  8
0
 62
     7
 10
42.83039999999999
 20
82.740300000000005
 30
0.0
 11
34.3048
 21
82.740300000000005
 31
0.0
  0
LINE
  5
71B
  8
_________2
 62
     7
 10
205.30099999999999
 20
127.411
 30
0.0
 11
183.55000000000001
 21
127.411
 31
0.0
  0
LINE
  5
71C
  8
_________2
 62
     7
 10
100.3
 20
-4.0910799999999998
 30
0.0
 11
100.3
 21
-21.071400000000001
 31
0.0
  0
LINE
  5
71D
  8
_________2
 62
     7
 10
100.3
 20
275.93000000000001
 30
0.0
 11
100.3
 21
258.911
 31
0.0
  0
LINE
  5
71E
  8
_________2
 62
     7
 10
17.049499999999998
 20
127.411
 30
0.0
 11
-4.70052
 21
127.411
 31
0.0
  0
LINE
  5
71F
  8
_________2
 62
     7
 10
76.741
 20
29.8047
 30
0.0
 11
74.554699999999997
 21
29.8047
 31
0.0
  0
LINE
  5
720
  8
_________2
 62
     7
 10
77.233699999999999
 20
29.8047
 30
0.0
 11
76.981499999999997
 21
29.8047
 31
0.0
  0
LINE
  5
721
  8
_________2
 62
     7
 10
77.726299999999995
 20
29.8047
 30
0.0
 11
80.651200000000003
 21
29.8047
 31
0.0
  0
LINE
  5
722
  8
_________2
 62
     7
 10
77.233699999999999
 20
29.8047
 30
0.0
 11
77.485500000000002
 21
29.8047
 31
0.0
  0
LINE
  5
723
  8
_________2
 62
     7
 10
70.837100000000007
 20
29.8047
 30
0.0
 11
68.650499999999994
 21
29.8047
 31
0.0
  0
LINE
  5
724
  8
_________2
 62
     7
 10
71.329400000000007
 20
29.8047
 30
0.0
 11
71.077600000000004
 21
29.8047
 31
0.0
  0
LINE
  5
725
  8
_________2
 62
     7
 10
71.329400000000007
 20
30.2974
 30
0.0
 11
71.329400000000007
 21
32.484400000000001
 31
0.0
  0
LINE
  5
726
  8
_________2
 62
     7
 10
71.329400000000007
 20
29.8047
 30
0.0
 11
71.329400000000007
 21
30.056899999999999
 31
0.0
  0
LINE
  5
727
  8
_________2
 62
     7
 10
71.822100000000006
 20
29.8047
 30
0.0
 11
74.009
 21
29.8047
 31
0.0
  0
LINE
  5
728
  8
_________2
 62
     7
 10
71.329400000000007
 20
29.8047
 30
0.0
 11
71.581599999999995
 21
29.8047
 31
0.0
  0
LINE
  5
729
  8
_________2
 62
     7
 10
71.329400000000007
 20
29.312799999999999
 30
0.0
 11
71.329400000000007
 21
27.125800000000002
 31
0.0
  0
LINE
  5
72A
  8
_________2
 62
     7
 10
71.329400000000007
 20
29.8047
 30
0.0
 11
71.329400000000007
 21
29.5532
 31
0.0
  0
LINE
  5
72B
  8
_________2
 62
     7
 10
75.040499999999994
 20
28.5852
 30
0.0
 11
80.218500000000006
 21
27.720400000000001
 31
0.0
  0
LINE
  5
72C
  8
_________2
 62
     7
 10
75.040499999999994
 20
31.0243
 30
0.0
 11
80.218500000000006
 21
31.889700000000001
 31
0.0
  0
LINE
  5
72D
  8
_________2
 62
     7
 10
80.218500000000006
 20
27.720400000000001
 30
0.0
 11
80.218500000000006
 21
31.889700000000001
 31
0.0
  0
LINE
  5
72E
  8
_________2
 62
     7
 10
75.040499999999994
 20
28.5852
 30
0.0
 11
75.040499999999994
 21
31.0243
 31
0.0
  0
ARC
  5
72F
  8
_________2
 62
     7
 10
71.28285600000001
 20
29.757811
 30
0.0
 40
1.2673589999999999
 50
2.122214
 51
87.893958999999995
  0
ARC
  5
730
  8
_________2
 62
     7
 10
71.375959999999992
 20
29.758213000000001
 30
0.0
 40
1.2669559999999991
 50
92.104701000000006
 51
177.89526900000001
  0
ARC
  5
731
  8
_________2
 62
     7
 10
71.376357999999996
 20
29.851671
 30
0.0
 40
1.2673680000000001
 50
182.12203600000001
 51
267.877993
  0
ARC
  5
732
  8
_________2
 62
     7
 10
71.282531999999989
 20
29.851998999999999
 30
0.0
 40
1.267695999999999
 50
272.12015300000002
 51
357.863674
  0
ARC
  5
733
  8
_________2
 62
     7
 10
71.329430000000002
 20
29.804742999999998
 30
0.0
 40
2.0849849999999992
 50
0.00001
 51
89.999980000000008
  0
ARC
  5
734
  8
_________2
 62
     7
 10
71.329603000000006
 20
29.804915000000001
 30
0.0
 40
2.084813
 50
90.004733999999999
 51
180.00474399999999
  0
ARC
  5
735
  8
_________2
 62
     7
 10
71.409106000000008
 20
29.884775999999999
 30
0.0
 40
2.1657950000000001
 50
182.11776599999999
 51
267.89173399999999
  0
ARC
  5
736
  8
_________2
 62
     7
 10
71.249459000000002
 20
29.885429999999999
 30
0.0
 40
2.1664590000000001
 50
272.11546800000002
 51
357.86560400000002
  0
TEXT
  5
737
  8
_________2
 62
     7
 10
104.605
 20
1.6794899999999999
 30
0.0
 40
3.0923400000000001
  1
図番
 41
0.5
  0
LINE
  5
738
  8
_________2
 62
     7
 10
103.55
 20
5.9087199999999989
 30
0.0
 11
183.55099999999999
 21
5.9087199999999989
 31
0.0
  0
TEXT
  5
739
  8
_________2
 62
     7
 10
104.605
 20
11.6793
 30
0.0
 40
3.0923400000000001
  1
品番
 41
0.5
  0
TEXT
  5
73A
  8
_________2
 62
     7
 10
104.605
 20
31.818100000000001
 30
0.0
 40
3.0923400000000001
  1
名称
 41
0.5
  0
TEXT
  5
73B
  8
_________2
 62
     7
 10
91.845058333333341
 20
26.821999999999999
 30
0.0
 40
3.6545800000000002
  1
mm
 41
0.5
 72
     1
 11
93.367800000000003
 21
26.821999999999999
 31
0.0
  0
TEXT
  5
73C
  8
_________2
 62
     7
 10
85.643199999999993
 20
31.818100000000001
 30
0.0
 40
3.0923400000000001
  1
単位
 41
0.5
  0
TEXT
  5
73D
  8
_________2
 62
     7
 10
85.643199999999993
 20
19.410799999999998
 30
0.0
 40
3.0923400000000001
  1
尺度
 41
0.5
  0
TEXT
  5
73E
  8
_________2
 62
     7
 10
90.548758666666686
 20
13.2179
 30
0.0
 40
3.6545800000000002
  1
1 ： 3
 41
0.5
 72
     1
 11
93.959699999999998
 21
13.2179
 31
0.0
  0
TEXT
  5
73F
  8
_________2
 62
     7
 10
128.10237749999999
 20
9.1078600000000005
 30
0.0
 40
3.9357000000000002
  1
CET3575S＋CET9805
 41
0.5
 72
     1
 11
143.55000000000001
 21
9.1078600000000005
 31
0.0
  0
TEXT
  5
740
  8
_________2
 62
     7
 10
135.02265
 20
-0.8926299999999999
 30
0.0
 40
3.9357000000000002
  1
CET3575SC
 41
0.5
 72
     1
 11
143.55000000000001
 21
-0.8926299999999999
 31
0.0
  0
TEXT
  5
741
  8
_________2
 62
     7
 10
24.5868
 20
0.707283
 30
0.0
 40
3.9357000000000002
  1
（社）日本水道協会認証品
 41
0.5
  0
TEXT
  5
742
  8
_________2
 62
     7
 10
109.179
 20
24.2257
 30
0.0
 40
3.9357000000000002
  1
C1 埋込型止水栓（カバー部＋埋込部）
 41
0.5
  0
TEXT
  5
743
  8
_________2
 62
     7
 10
39.425300333333333
 20
13.603
 30
0.0
 40
3.6545800000000002
  1
井田
 41
0.5
 72
     1
 11
41.313499999999998
 21
13.603
 31
0.0
  0
TEXT
  5
744
  8
_________2
 62
     7
 10
20.790090666666661
 20
13.603
 30
0.0
 40
3.6545800000000002
  1
恋塚
 41
0.5
 72
     1
 11
22.7392
 21
13.603
 31
0.0
  0
TEXT
  5
745
  8
_________2
 62
     7
 10
67.785399999999996
 20
13.2179
 30
0.0
 40
3.6545800000000002
  1
18.11.28
 41
0.5
  0
TEXT
  5
746
  8
_________2
 62
     7
 10
66.593100000000007
 20
19.410799999999998
 30
0.0
 40
3.0923400000000001
  1
日付
 41
0.5
  0
TEXT
  5
747
  8
_________2
 62
     7
 10
29.639399999999998
 20
19.410799999999998
 30
0.0
 40
3.0923400000000001
  1
検図
 41
0.5
  0
TEXT
  5
748
  8
_________2
 62
     7
 10
18.021100000000001
 20
5.21143
 30
0.0
 40
3.0923400000000001
  1
備考
 41
0.5
  0
TEXT
  5
749
  8
_________2
 62
     7
 10
18.021100000000001
 20
19.410799999999998
 30
0.0
 40
3.0923400000000001
  1
製図
 41
0.5
  0
TEXT
  5
74A
  8
_________2
 62
     7
 10
23.788465333333338
 20
27.936800000000002
 30
0.0
 40
4.4979399999999989
  1
セラトレーディング株式会社
 41
0.5
 72
     1
 11
41.180500000000002
 21
27.936800000000002
 31
0.0
  0
LINE
  5
74B
  8
_________2
 62
     7
 10
183.55099999999999
 20
-4.0910799999999998
 30
0.0
 11
17.049499999999998
 21
-4.0910799999999998
 31
0.0
  0
LINE
  5
74C
  8
_________2
 62
     7
 10
17.049499999999998
 20
-4.0910799999999998
 30
0.0
 11
17.049499999999998
 21
258.911
 31
0.0
  0
LINE
  5
74D
  8
_________2
 62
     7
 10
17.049499999999998
 20
258.911
 30
0.0
 11
183.55099999999999
 21
258.911
 31
0.0
  0
LINE
  5
74E
  8
_________2
 62
     7
 10
183.55099999999999
 20
258.911
 30
0.0
 11
183.55099999999999
 21
-4.0910799999999998
 31
0.0
  0
LINE
  5
74F
  8
_________2
 62
     7
 10
65.549599999999998
 20
9.4089600000000004
 30
0.0
 11
65.549599999999998
 21
35.908799999999999
 31
0.0
  0
LINE
  5
750
  8
_________2
 62
     7
 10
84.549700000000016
 20
9.4089600000000004
 30
0.0
 11
84.549700000000016
 21
35.908799999999999
 31
0.0
  0
LINE
  5
751
  8
_________2
 62
     7
 10
103.55
 20
-4.0910799999999998
 30
0.0
 11
103.55
 21
35.908799999999999
 31
0.0
  0
LINE
  5
752
  8
_________2
 62
     7
 10
28.549299999999999
 20
9.4089600000000004
 30
0.0
 11
28.549299999999999
 21
23.409199999999998
 31
0.0
  0
LINE
  5
753
  8
_________2
 62
     7
 10
17.049499999999998
 20
9.4089600000000004
 30
0.0
 11
103.55
 21
9.4089600000000004
 31
0.0
  0
LINE
  5
754
  8
_________2
 62
     7
 10
17.049499999999998
 20
23.409199999999998
 30
0.0
 11
103.55
 21
23.409199999999998
 31
0.0
  0
LINE
  5
755
  8
_________2
 62
     7
 10
103.55
 20
15.9085
 30
0.0
 11
183.55099999999999
 21
15.9085
 31
0.0
  0
LINE
  5
756
  8
_________2
 62
     7
 10
17.049499999999998
 20
35.908799999999999
 30
0.0
 11
183.55099999999999
 21
35.908799999999999
 31
0.0
  0
ENDSEC
  0
EOF
