  0
SECTION
  2
HEADER
  9
$ACADVER
  1
AC1009
  9
$INSBASE
 10
0.0
 20
0.0
 30
0.0
  9
$EXTMIN
 10
-4.70052
 20
-21.071400000000001
 30
0.0
  9
$EXTMAX
 10
205.30099999999999
 20
275.93000000000001
 30
0.0
  9
$LIMMIN
 10
0.0
 20
0.0
  9
$LIMMAX
 10
12.0
 20
9.0
  9
$ORTHOMODE
 70
     0
  9
$REGENMODE
 70
     1
  9
$FILLMODE
 70
     1
  9
$QTEXTMODE
 70
     0
  9
$MIRRTEXT
 70
     1
  9
$DRAGMODE
 70
     2
  9
$LTSCALE
 40
1.0
  9
$OSMODE
 70
    37
  9
$ATTMODE
 70
     1
  9
$TEXTSIZE
 40
0.0
  9
$TRACEWID
 40
0.05
  9
$TEXTSTYLE
  7
STANDARD
  9
$CLAYER
  8
0
  9
$CELTYPE
  6
CONTINUOUS
  9
$CECOLOR
 62
   256
  9
$DIMSCALE
 40
1.0
  9
$DIMASZ
 40
0.18
  9
$DIMEXO
 40
0.0625
  9
$DIMDLI
 40
0.38
  9
$DIMRND
 40
0.0
  9
$DIMDLE
 40
0.0
  9
$DIMEXE
 40
0.18
  9
$DIMTP
 40
0.0
  9
$DIMTM
 40
0.0
  9
$DIMTXT
 40
0.18
  9
$DIMCEN
 40
0.09
  9
$DIMTSZ
 40
0.0
  9
$DIMTOL
 70
     0
  9
$DIMLIM
 70
     0
  9
$DIMTIH
 70
     1
  9
$DIMTOH
 70
     1
  9
$DIMSE1
 70
     0
  9
$DIMSE2
 70
     0
  9
$DIMTAD
 70
     0
  9
$DIMZIN
 70
     0
  9
$DIMBLK
  1

  9
$DIMASO
 70
     1
  9
$DIMSHO
 70
     1
  9
$DIMPOST
  1

  9
$DIMAPOST
  1

  9
$DIMALT
 70
     0
  9
$DIMALTD
 70
     2
  9
$DIMALTF
 40
25.399999999999999
  9
$DIMLFAC
 40
1.0
  9
$DIMTOFL
 70
     0
  9
$DIMTVP
 40
0.0
  9
$DIMTIX
 70
     0
  9
$DIMSOXD
 70
     0
  9
$DIMSAH
 70
     0
  9
$DIMBLK1
  1

  9
$DIMBLK2
  1

  9
$DIMSTYLE
  2
STANDARD
  9
$DIMCLRD
 70
     0
  9
$DIMCLRE
 70
     0
  9
$DIMCLRT
 70
     0
  9
$DIMTFAC
 40
1.0
  9
$DIMGAP
 40
0.09
  9
$LUNITS
 70
     2
  9
$LUPREC
 70
     4
  9
$SKETCHINC
 40
0.1
  9
$FILLETRAD
 40
0.0
  9
$AUNITS
 70
     0
  9
$AUPREC
 70
     0
  9
$MENU
  1
.
  9
$ELEVATION
 40
0.0
  9
$PELEVATION
 40
0.0
  9
$THICKNESS
 40
0.0
  9
$LIMCHECK
 70
     0
  9
$BLIPMODE
 70
     0
  9
$CHAMFERA
 40
0.0
  9
$CHAMFERB
 40
0.0
  9
$SKPOLY
 70
     0
  9
$TDCREATE
 40
2444972.375
  9
$TDUPDATE
 40
2457047.2483797912
  9
$TDINDWG
 40
0.0000122685
  9
$TDUSRTIMER
 40
0.0000122685
  9
$USRTIMER
 70
     1
  9
$ANGBASE
 50
0.0
  9
$ANGDIR
 70
     0
  9
$PDMODE
 70
     0
  9
$PDSIZE
 40
0.0
  9
$PLINEWID
 40
0.0
  9
$COORDS
 70
     1
  9
$SPLFRAME
 70
     0
  9
$SPLINETYPE
 70
     6
  9
$SPLINESEGS
 70
     8
  9
$ATTDIA
 70
     0
  9
$ATTREQ
 70
     1
  9
$HANDLING
 70
     1
  9
$HANDSEED
  5
6A0
  9
$SURFTAB1
 70
     6
  9
$SURFTAB2
 70
     6
  9
$SURFTYPE
 70
     6
  9
$SURFU
 70
     6
  9
$SURFV
 70
     6
  9
$UCSNAME
  2

  9
$UCSORG
 10
0.0
 20
0.0
 30
0.0
  9
$UCSXDIR
 10
1.0
 20
0.0
 30
0.0
  9
$UCSYDIR
 10
0.0
 20
1.0
 30
0.0
  9
$PUCSNAME
  2

  9
$PUCSORG
 10
0.0
 20
0.0
 30
0.0
  9
$PUCSXDIR
 10
1.0
 20
0.0
 30
0.0
  9
$PUCSYDIR
 10
0.0
 20
1.0
 30
0.0
  9
$USERI1
 70
     0
  9
$USERI2
 70
     0
  9
$USERI3
 70
     0
  9
$USERI4
 70
     0
  9
$USERI5
 70
     0
  9
$USERR1
 40
0.0
  9
$USERR2
 40
0.0
  9
$USERR3
 40
0.0
  9
$USERR4
 40
0.0
  9
$USERR5
 40
0.0
  9
$WORLDVIEW
 70
     1
  9
$SHADEDGE
 70
     3
  9
$SHADEDIF
 70
    70
  9
$TILEMODE
 70
     1
  9
$MAXACTVP
 70
    48
  9
$PLIMCHECK
 70
     0
  9
$PEXTMIN
 10
1.0000000000000000E+020
 20
1.0000000000000000E+020
 30
1.0000000000000000E+020
  9
$PEXTMAX
 10
-1.0000000000000000E+020
 20
-1.0000000000000000E+020
 30
-1.0000000000000000E+020
  9
$PLIMMIN
 10
0.0
 20
0.0
  9
$PLIMMAX
 10
12.0
 20
9.0
  9
$UNITMODE
 70
     0
  9
$VISRETAIN
 70
     1
  9
$PLINEGEN
 70
     0
  9
$PSLTSCALE
 70
     1
  0
ENDSEC
  0
SECTION
  2
TABLES
  0
TABLE
  2
VPORT
 70
     2
  0
VPORT
  2
*ACTIVE
 70
     0
 10
0.0
 20
0.0
 11
1.0
 21
1.0
 12
200.34021037553941
 22
127.4293
 13
0.0
 23
0.0
 14
1.0
 24
1.0
 15
0.0
 25
0.0
 16
0.0
 26
0.0
 36
1.0
 17
0.0
 27
0.0
 37
0.0
 40
299.4695556786703
 41
2.2894736842105261
 42
50.0
 43
0.0
 44
0.0
 50
0.0
 51
0.0
 71
     0
 72
   100
 73
     1
 74
     1
 75
     0
 76
     0
 77
     0
 78
     0
  0
ENDTAB
  0
TABLE
  2
LTYPE
 70
     2
  0
LTYPE
  2
CONTINUOUS
 70
     0
  3
Solid line
 72
    65
 73
     0
 40
0.0
  0
LTYPE
  2
AIGENLINE001
 70
     0
  3
generate AI->DXF Converter
 72
    65
 73
     4
 40
5.8561449999999988
 49
3.5278
 49
-0.776115
 49
0.776115
 49
-0.776115
  0
ENDTAB
  0
TABLE
  2
LAYER
 70
     2
  0
LAYER
  2
0
 70
     0
 62
     7
  6
CONTINUOUS
  0
LAYER
  2
_________2
 70
     0
 62
     7
  6
CONTINUOUS
  0
ENDTAB
  0
TABLE
  2
STYLE
 70
     1
  0
STYLE
  2
STANDARD
 70
     0
 40
0.0
 41
0.0
 50
0.0
 71
     0
 42
0.0
  3
TXT
  4
EXTFONT.SHX
  0
ENDTAB
  0
TABLE
  2
VIEW
 70
     0
  0
ENDTAB
  0
TABLE
  2
UCS
 70
     0
  0
ENDTAB
  0
TABLE
  2
APPID
 70
     1
  0
APPID
  2
ACAD
 70
     0
  0
ENDTAB
  0
TABLE
  2
DIMSTYLE
 70
     1
  0
DIMSTYLE
  2
STANDARD
 70
     0
  3

  4

  5

  6

  7

 40
1.0
 41
0.18
 42
0.0625
 43
0.38
 44
0.18
 45
0.0
 46
0.0
 47
0.0
 48
0.0
140
0.18
141
0.09
142
0.0
143
25.399999999999999
144
1.0
145
0.0
146
1.0
147
0.09
 71
     0
 72
     0
 73
     1
 74
     1
 75
     0
 76
     0
 77
     0
 78
     0
170
     0
171
     2
172
     0
173
     0
174
     0
175
     0
176
     0
177
     0
178
     0
  0
ENDTAB
  0
ENDSEC
  0
SECTION
  2
BLOCKS
  0
BLOCK
  8
0
  2
$MODEL_SPACE
 70
     0
 10
0.0
 20
0.0
 30
0.0
  3
$MODEL_SPACE
  1

  0
ENDBLK
  5
1A
  8
0
  0
BLOCK
 67
     1
  8
0
  2
$PAPER_SPACE
 70
     0
 10
0.0
 20
0.0
 30
0.0
  3
$PAPER_SPACE
  1

  0
ENDBLK
  5
17
 67
     1
  8
0
  0
ENDSEC
  0
SECTION
  2
ENTITIES
  0
TEXT
  5
22
  8
0
 62
     7
 10
167.29022800000001
 20
74.460700000000003
 30
0.0
 40
3.0923400000000001
  1
Rc 1/2
 41
0.5
 72
     2
 11
174.91800000000001
 21
74.460700000000003
 31
0.0
  0
TEXT
  5
23
  8
0
 62
     7
 10
167.29022800000001
 20
116.502
 30
0.0
 40
3.0923400000000001
  1
Rc 1/2
 41
0.5
 72
     2
 11
174.91800000000001
 21
116.502
 31
0.0
  0
TEXT
  5
24
  8
0
 62
     7
 10
105.342
 20
70.539100000000005
 30
0.0
 40
3.0923400000000001
  1
CET3575
 41
0.5
  0
TEXT
  5
25
  8
0
 62
     7
 10
131.56
 20
75.392899999999997
 30
0.0
 40
3.0923400000000001
  1
CET9805
 41
0.5
  0
TEXT
  5
26
  8
0
 62
     7
 10
130.66883000000001
 20
127.57599999999999
 30
0.0
 40
3.0923400000000001
  1
191
 41
0.5
 72
     1
 11
132.215
 21
127.57599999999999
 31
0.0
  0
TEXT
  5
27
  8
0
 62
     7
 10
157.84252499999999
 20
121.02200000000001
 30
0.0
 40
3.0923400000000001
  1
29
 41
0.5
 72
     1
 11
159.131
 21
121.02200000000001
 31
0.0
  0
TEXT
  5
28
  8
0
 62
     7
 10
136.75619549999999
 20
121.02200000000001
 30
0.0
 40
3.0923400000000001
  1
85±10
 41
0.5
 72
     1
 11
140.13200000000001
 21
121.02200000000001
 31
0.0
  0
TEXT
  5
29
  8
0
 62
     7
 10
170.81599999999989
 20
93.492925
 30
0.0
 40
3.0923400000000001
  1
84
 50
90.0
 41
0.5
 72
     1
 11
170.81599999999989
 21
94.781400000000005
 31
0.0
  0
TEXT
  5
2A
  8
0
 62
     7
 10
93.729899999999986
 20
92.74324
 30
0.0
 40
3.0923400000000001
  1
%%c45
 50
90.0
 41
0.5
 72
     1
 11
93.729899999999986
 21
94.8048
 31
0.0
  0
TEXT
  5
2B
  8
0
 62
     7
 10
58.814682500000004
 20
225.779
 30
0.0
 40
3.0923400000000001
  1
108
 41
0.5
 72
     1
 11
60.489699999999999
 21
225.779
 31
0.0
  0
TEXT
  5
2C
  8
0
 62
     7
 10
58.943529999999988
 20
120.93899999999989
 30
0.0
 40
3.0923400000000001
  1
100
 41
0.5
 72
     1
 11
60.489699999999999
 21
120.93899999999989
 31
0.0
  0
TEXT
  5
2D
  8
0
 62
     7
 10
34.754300000000001
 20
93.258629999999997
 30
0.0
 40
3.0923400000000001
  1
100
 50
90.0
 41
0.5
 72
     1
 11
34.754300000000001
 21
94.8048
 31
0.0
  0
ARC
  5
2E
  8
0
 62
     7
 10
154.29818899999989
 20
94.804805000000002
 30
0.0
 40
3.4998949999999991
 50
270.00002000000001
 51
359.99998999999991
  0
ARC
  5
2F
  8
0
 62
     7
 10
154.29818899999989
 20
94.804803000000007
 30
0.0
 40
3.4998939999999998
 50
179.99996999999991
 51
270.00002000000001
  0
ARC
  5
30
  8
0
 62
     7
 10
154.29818999999989
 20
94.804803000000007
 30
0.0
 40
3.4998949999999991
 50
90.0
 51
179.99996999999991
  0
ARC
  5
31
  8
0
 62
     7
 10
154.29818899999989
 20
94.804803000000007
 30
0.0
 40
3.4998949999999991
 50
0.00001
 51
89.999980000000008
  0
LINE
  5
32
  8
0
 62
     7
 10
152.245
 20
97.638099999999994
 30
0.0
 11
156.34999999999991
 21
97.638099999999994
 31
0.0
  0
LINE
  5
33
  8
0
 62
     7
 10
156.34999999999991
 20
91.971500000000006
 30
0.0
 11
152.245
 21
91.971500000000006
 31
0.0
  0
LINE
  5
34
  8
0
 62
     7
 10
174.91800000000001
 20
73.760599999999997
 30
0.0
 11
166.42400000000001
 21
73.760599999999997
 31
0.0
  0
LINE
  5
35
  8
0
 62
     7
 10
159.05099999999999
 20
78.910399999999996
 30
0.0
 11
157.73400000000001
 21
80.781099999999995
 31
0.0
  0
LINE
  5
36
  8
0
 62
     7
 10
157.73400000000001
 20
80.781099999999995
 30
0.0
 11
159.81
 21
79.819900000000004
 31
0.0
  0
LINE
  5
37
  8
0
 62
     7
 10
159.81
 20
79.819900000000004
 30
0.0
 11
159.05099999999999
 21
78.910399999999996
 31
0.0
  0
LINE
  5
38
  8
0
 62
     7
 10
157.7299999999999
 20
80.775599999999997
 30
0.0
 11
166.42400000000001
 21
73.760599999999997
 31
0.0
  0
LINE
  5
39
  8
0
 62
     7
 10
174.91800000000001
 20
115.80200000000001
 30
0.0
 11
166.42400000000001
 21
115.80200000000001
 31
0.0
  0
LINE
  5
3A
  8
0
 62
     7
 10
159.05099999999999
 20
110.6519999999999
 30
0.0
 11
157.73400000000001
 21
108.78100000000001
 31
0.0
  0
LINE
  5
3B
  8
0
 62
     7
 10
157.73400000000001
 20
108.78100000000001
 30
0.0
 11
159.81
 21
109.742
 31
0.0
  0
LINE
  5
3C
  8
0
 62
     7
 10
159.81
 20
109.742
 30
0.0
 11
159.05099999999999
 21
110.6519999999999
 31
0.0
  0
LINE
  5
3D
  8
0
 62
     7
 10
157.7299999999999
 20
108.78700000000001
 30
0.0
 11
166.42400000000001
 21
115.80200000000001
 31
0.0
  0
LINE
  5
3E
  8
0
 62
     7
 10
114.64399999999991
 20
69.839100000000002
 30
0.0
 11
105.342
 21
69.839100000000002
 31
0.0
  0
LINE
  5
3F
  8
0
 62
     7
 10
120.40899999999991
 20
79.087800000000001
 30
0.0
 11
120.965
 21
81.307500000000005
 31
0.0
  0
LINE
  5
40
  8
0
 62
     7
 10
120.965
 20
81.307500000000005
 30
0.0
 11
119.374
 21
79.662800000000004
 31
0.0
  0
LINE
  5
41
  8
0
 62
     7
 10
119.374
 20
79.662800000000004
 30
0.0
 11
120.40899999999991
 21
79.087800000000001
 31
0.0
  0
LINE
  5
42
  8
0
 62
     7
 10
120.9699999999999
 20
81.303700000000006
 30
0.0
 11
114.64399999999991
 21
69.839100000000002
 31
0.0
  0
LINE
  5
43
  8
0
 62
     7
 10
140.8609999999999
 20
74.692899999999995
 30
0.0
 11
131.56
 21
74.692899999999995
 31
0.0
  0
LINE
  5
44
  8
0
 62
     7
 10
146.62700000000001
 20
83.941699999999997
 30
0.0
 11
147.18199999999999
 21
86.161299999999997
 31
0.0
  0
LINE
  5
45
  8
0
 62
     7
 10
147.18199999999999
 20
86.161299999999997
 30
0.0
 11
145.59100000000001
 21
84.5167
 31
0.0
  0
LINE
  5
46
  8
0
 62
     7
 10
145.59100000000001
 20
84.5167
 30
0.0
 11
146.62700000000001
 21
83.941699999999997
 31
0.0
  0
LINE
  5
47
  8
0
 62
     7
 10
147.1879999999999
 20
86.157599999999988
 30
0.0
 11
140.8609999999999
 21
74.692899999999995
 31
0.0
  0
LINE
  5
48
  8
0
 62
     7
 10
161.7529999999999
 20
126.2909999999999
 30
0.0
 11
163.965
 21
126.8839999999999
 31
0.0
  0
LINE
  5
49
  8
0
 62
     7
 10
163.965
 20
126.8839999999999
 30
0.0
 11
161.7529999999999
 21
127.476
 31
0.0
  0
LINE
  5
4A
  8
0
 62
     7
 10
161.7529999999999
 20
127.476
 30
0.0
 11
161.7529999999999
 21
126.2909999999999
 31
0.0
  0
LINE
  5
4B
  8
0
 62
     7
 10
102.676
 20
127.462
 30
0.0
 11
100.465
 21
126.869
 31
0.0
  0
LINE
  5
4C
  8
0
 62
     7
 10
100.465
 20
126.869
 30
0.0
 11
102.676
 21
126.2769999999999
 31
0.0
  0
LINE
  5
4D
  8
0
 62
     7
 10
102.676
 20
126.2769999999999
 30
0.0
 11
102.676
 21
127.462
 31
0.0
  0
LINE
  5
4E
  8
0
 62
     7
 10
163.964
 20
126.876
 30
0.0
 11
100.465
 21
126.876
 31
0.0
  0
LINE
  5
4F
  8
0
 62
     7
 10
128.17699999999999
 20
120.825
 30
0.0
 11
125.965
 21
120.232
 31
0.0
  0
LINE
  5
50
  8
0
 62
     7
 10
125.965
 20
120.232
 30
0.0
 11
128.17699999999999
 21
119.64
 31
0.0
  0
LINE
  5
51
  8
0
 62
     7
 10
128.17699999999999
 20
119.64
 30
0.0
 11
128.17699999999999
 21
120.825
 31
0.0
  0
LINE
  5
52
  8
0
 62
     7
 10
156.50999999999991
 20
119.6539999999999
 30
0.0
 11
154.298
 21
120.247
 31
0.0
  0
LINE
  5
53
  8
0
 62
     7
 10
154.298
 20
120.247
 30
0.0
 11
156.50999999999991
 21
120.839
 31
0.0
  0
LINE
  5
54
  8
0
 62
     7
 10
156.50999999999991
 20
120.839
 30
0.0
 11
156.50999999999991
 21
119.6539999999999
 31
0.0
  0
LINE
  5
55
  8
0
 62
     7
 10
161.7529999999999
 20
119.6539999999999
 30
0.0
 11
163.965
 21
120.247
 31
0.0
  0
LINE
  5
56
  8
0
 62
     7
 10
163.965
 20
120.247
 30
0.0
 11
161.7529999999999
 21
120.839
 31
0.0
  0
LINE
  5
57
  8
0
 62
     7
 10
161.7529999999999
 20
120.839
 30
0.0
 11
161.7529999999999
 21
119.6539999999999
 31
0.0
  0
LINE
  5
58
  8
0
 62
     7
 10
152.08600000000001
 20
119.6539999999999
 30
0.0
 11
154.298
 21
120.247
 31
0.0
  0
LINE
  5
59
  8
0
 62
     7
 10
154.298
 20
120.247
 30
0.0
 11
152.08600000000001
 21
120.839
 31
0.0
  0
LINE
  5
5A
  8
0
 62
     7
 10
152.08600000000001
 20
120.839
 30
0.0
 11
152.08600000000001
 21
119.6539999999999
 31
0.0
  0
LINE
  5
5B
  8
0
 62
     7
 10
125.96599999999999
 20
120.2389999999999
 30
0.0
 11
163.965
 21
120.2389999999999
 31
0.0
  0
LINE
  5
5C
  8
0
 62
     7
 10
100.465
 20
103.08799999999999
 30
0.0
 11
100.465
 21
127.5689999999999
 31
0.0
  0
LINE
  5
5D
  8
0
 62
     7
 10
163.965
 20
107.9839999999999
 30
0.0
 11
163.965
 21
127.5689999999999
 31
0.0
  0
LINE
  5
5E
  8
0
 62
     7
 10
125.965
 20
112.172
 30
0.0
 11
125.965
 21
120.9319999999999
 31
0.0
  0
LINE
  5
5F
  8
0
 62
     7
 10
154.298
 20
111.98099999999999
 30
0.0
 11
154.298
 21
120.9319999999999
 31
0.0
  0
LINE
  5
60
  8
0
 62
     7
 10
172.10099999999991
 20
106.56999999999989
 30
0.0
 11
171.50899999999999
 21
108.78100000000001
 31
0.0
  0
LINE
  5
61
  8
0
 62
     7
 10
171.50899999999999
 20
108.78100000000001
 30
0.0
 11
170.91599999999991
 21
106.56999999999989
 31
0.0
  0
LINE
  5
62
  8
0
 62
     7
 10
170.91599999999991
 20
106.56999999999989
 30
0.0
 11
172.10099999999991
 21
106.56999999999989
 31
0.0
  0
LINE
  5
63
  8
0
 62
     7
 10
170.9309999999999
 20
82.992199999999997
 30
0.0
 11
171.523
 21
80.781099999999995
 31
0.0
  0
LINE
  5
64
  8
0
 62
     7
 10
171.523
 20
80.781099999999995
 30
0.0
 11
172.1159999999999
 21
82.992199999999997
 31
0.0
  0
LINE
  5
65
  8
0
 62
     7
 10
172.1159999999999
 20
82.992199999999997
 30
0.0
 11
170.9309999999999
 21
82.992199999999997
 31
0.0
  0
LINE
  5
66
  8
0
 62
     7
 10
171.51599999999999
 20
108.78100000000001
 30
0.0
 11
171.51599999999999
 21
80.781800000000004
 31
0.0
  0
LINE
  5
67
  8
0
 62
     7
 10
172.2229999999999
 20
80.781099999999995
 30
0.0
 11
159.68199999999999
 21
80.781099999999995
 31
0.0
  0
LINE
  5
68
  8
0
 62
     7
 10
172.2229999999999
 20
108.78100000000001
 30
0.0
 11
159.68199999999999
 21
108.78100000000001
 31
0.0
  0
LINE
  5
69
  8
0
 62
     7
 10
95.128299999999996
 20
100.09399999999989
 30
0.0
 11
94.536100000000005
 21
102.306
 31
0.0
  0
LINE
  5
6A
  8
0
 62
     7
 10
94.536100000000005
 20
102.306
 30
0.0
 11
93.943500000000014
 21
100.09399999999989
 31
0.0
  0
LINE
  5
6B
  8
0
 62
     7
 10
93.943500000000014
 20
100.09399999999989
 30
0.0
 11
95.128299999999996
 21
100.09399999999989
 31
0.0
  0
LINE
  5
6C
  8
0
 62
     7
 10
93.957999999999984
 20
89.515199999999993
 30
0.0
 11
94.550600000000017
 21
87.304100000000005
 31
0.0
  0
LINE
  5
6D
  8
0
 62
     7
 10
94.550600000000017
 20
87.304100000000005
 30
0.0
 11
95.142799999999994
 21
89.515199999999993
 31
0.0
  0
LINE
  5
6E
  8
0
 62
     7
 10
95.142799999999994
 20
89.515199999999993
 30
0.0
 11
93.957999999999984
 21
89.515199999999993
 31
0.0
  0
LINE
  5
6F
  8
0
 62
     7
 10
94.543300000000002
 20
102.30500000000001
 30
0.0
 11
94.543300000000002
 21
87.3048
 31
0.0
  0
LINE
  5
70
  8
0
 62
     7
 10
99.681399999999996
 20
87.3048
 30
0.0
 11
93.843299999999999
 21
87.3048
 31
0.0
  0
LINE
  5
71
  8
0
 62
     7
 10
99.681399999999996
 20
102.30500000000001
 30
0.0
 11
93.843299999999999
 21
102.30500000000001
 31
0.0
  0
LINE
  5
72
  8
0
 62
     7
 10
76.278700000000001
 20
224.49299999999999
 30
0.0
 11
78.489800000000002
 21
225.0859999999999
 31
0.0
  0
LINE
  5
73
  8
0
 62
     7
 10
78.489800000000002
 20
225.0859999999999
 30
0.0
 11
76.278700000000001
 21
225.678
 31
0.0
  0
LINE
  5
74
  8
0
 62
     7
 10
76.278700000000001
 20
225.678
 30
0.0
 11
76.278700000000001
 21
224.49299999999999
 31
0.0
  0
LINE
  5
75
  8
0
 62
     7
 10
44.700699999999991
 20
225.66399999999999
 30
0.0
 11
42.489699999999992
 21
225.071
 31
0.0
  0
LINE
  5
76
  8
0
 62
     7
 10
42.489699999999992
 20
225.071
 30
0.0
 11
44.700699999999991
 21
224.47900000000001
 31
0.0
  0
LINE
  5
77
  8
0
 62
     7
 10
44.700699999999991
 20
224.47900000000001
 30
0.0
 11
44.700699999999991
 21
225.66399999999999
 31
0.0
  0
LINE
  5
78
  8
0
 62
     7
 10
78.489099999999993
 20
225.078
 30
0.0
 11
42.490399999999987
 21
225.078
 31
0.0
  0
LINE
  5
79
  8
0
 62
     7
 10
74.945300000000003
 20
119.6539999999999
 30
0.0
 11
77.156300000000002
 21
120.246
 31
0.0
  0
LINE
  5
7A
  8
0
 62
     7
 10
77.156300000000002
 20
120.246
 30
0.0
 11
74.945300000000003
 21
120.839
 31
0.0
  0
LINE
  5
7B
  8
0
 62
     7
 10
74.945300000000003
 20
120.839
 30
0.0
 11
74.945300000000003
 21
119.6539999999999
 31
0.0
  0
LINE
  5
7C
  8
0
 62
     7
 10
46.032499999999999
 20
120.8239999999999
 30
0.0
 11
43.82139999999999
 21
120.232
 31
0.0
  0
LINE
  5
7D
  8
0
 62
     7
 10
43.82139999999999
 20
120.232
 30
0.0
 11
46.032499999999999
 21
119.639
 31
0.0
  0
LINE
  5
7E
  8
0
 62
     7
 10
46.032499999999999
 20
119.639
 30
0.0
 11
46.032499999999999
 21
120.8239999999999
 31
0.0
  0
LINE
  5
7F
  8
0
 62
     7
 10
77.155600000000007
 20
120.2389999999999
 30
0.0
 11
43.822099999999992
 21
120.2389999999999
 31
0.0
  0
LINE
  5
80
  8
0
 62
     7
 10
36.039700000000003
 20
109.261
 30
0.0
 11
35.447200000000002
 21
111.47199999999999
 31
0.0
  0
LINE
  5
81
  8
0
 62
     7
 10
35.447200000000002
 20
111.47199999999999
 30
0.0
 11
34.854599999999991
 21
109.261
 31
0.0
  0
LINE
  5
82
  8
0
 62
     7
 10
34.854599999999991
 20
109.261
 30
0.0
 11
36.039700000000003
 21
109.261
 31
0.0
  0
LINE
  5
83
  8
0
 62
     7
 10
34.869100000000003
 20
80.347699999999989
 30
0.0
 11
35.46159999999999
 21
78.136600000000001
 31
0.0
  0
LINE
  5
84
  8
0
 62
     7
 10
35.46159999999999
 20
78.136600000000001
 30
0.0
 11
36.054200000000002
 21
80.347699999999989
 31
0.0
  0
LINE
  5
85
  8
0
 62
     7
 10
36.054200000000002
 20
80.347699999999989
 30
0.0
 11
34.869100000000003
 21
80.347699999999989
 31
0.0
  0
LINE
  5
86
  8
0
 62
     7
 10
35.4544
 20
111.471
 30
0.0
 11
35.4544
 21
78.137299999999996
 31
0.0
  0
LINE
  5
87
  8
0
 62
     7
 10
60.722900000000003
 20
105.90000000000001
 30
0.0
 11
60.256300000000003
 21
105.90000000000001
 31
0.0
  0
LINE
  5
88
  8
0
 62
     7
 10
60.256300000000003
 20
105.90000000000001
 30
0.0
 11
60.256300000000003
 21
106.376
 31
0.0
  0
LINE
  5
89
  8
0
 62
     7
 10
60.256300000000003
 20
106.376
 30
0.0
 11
60.722900000000003
 21
106.376
 31
0.0
  0
LINE
  5
8A
  8
0
 62
     7
 10
60.722900000000003
 20
106.376
 30
0.0
 11
60.722900000000003
 21
105.90000000000001
 31
0.0
  0
LINE
  5
8B
  8
0
 62
     7
 10
60.489699999999999
 20
105.47199999999999
 30
0.0
 11
60.0182
 21
105.6669999999999
 31
0.0
  0
LINE
  5
8C
  8
0
 62
     7
 10
60.0182
 20
105.6669999999999
 30
0.0
 11
59.823099999999997
 21
106.13799999999991
 31
0.0
  0
LINE
  5
8D
  8
0
 62
     7
 10
59.823099999999997
 20
106.13799999999991
 30
0.0
 11
60.0182
 21
106.6089999999999
 31
0.0
  0
LINE
  5
8E
  8
0
 62
     7
 10
60.0182
 20
106.6089999999999
 30
0.0
 11
60.489699999999999
 21
106.80500000000001
 31
0.0
  0
LINE
  5
8F
  8
0
 62
     7
 10
60.489699999999999
 20
106.80500000000001
 30
0.0
 11
60.960999999999999
 21
106.6089999999999
 31
0.0
  0
LINE
  5
90
  8
0
 62
     7
 10
60.960999999999999
 20
106.6089999999999
 30
0.0
 11
61.156300000000002
 21
106.13799999999991
 31
0.0
  0
LINE
  5
91
  8
0
 62
     7
 10
61.156300000000002
 20
106.13799999999991
 30
0.0
 11
60.960999999999999
 21
105.6669999999999
 31
0.0
  0
LINE
  5
92
  8
0
 62
     7
 10
60.960999999999999
 20
105.6669999999999
 30
0.0
 11
60.489699999999999
 21
105.47199999999999
 31
0.0
  0
LINE
  5
93
  8
0
 62
     7
 10
43.82309999999999
 20
120.9459999999999
 30
0.0
 11
43.82309999999999
 21
112.0209999999999
 31
0.0
  0
LINE
  5
94
  8
0
 62
     7
 10
77.156300000000002
 20
120.9459999999999
 30
0.0
 11
77.156300000000002
 21
112.0209999999999
 31
0.0
  0
LINE
  5
95
  8
0
 62
     7
 10
43.2729
 20
111.47199999999999
 30
0.0
 11
34.747100000000003
 21
111.47199999999999
 31
0.0
  0
LINE
  5
96
  8
0
 62
     7
 10
43.2729
 20
78.138400000000004
 30
0.0
 11
34.747100000000003
 21
78.138400000000004
 31
0.0
  0
LINE
  5
97
  8
0
 62
     7
 10
49.823099999999997
 20
94.8048
 30
0.0
 11
49.486899999999999
 21
95.382199999999997
 31
0.0
  0
LINE
  5
98
  8
0
 62
     7
 10
49.486899999999999
 20
95.382199999999997
 30
0.0
 11
48.819899999999997
 21
95.382199999999997
 31
0.0
  0
LINE
  5
99
  8
0
 62
     7
 10
48.819899999999997
 20
95.382199999999997
 30
0.0
 11
48.489699999999999
 21
94.8048
 31
0.0
  0
LINE
  5
9A
  8
0
 62
     7
 10
48.489699999999999
 20
94.8048
 30
0.0
 11
48.825800000000001
 21
94.227400000000003
 31
0.0
  0
LINE
  5
9B
  8
0
 62
     7
 10
48.825800000000001
 20
94.227400000000003
 30
0.0
 11
49.492899999999999
 21
94.227400000000003
 31
0.0
  0
LINE
  5
9C
  8
0
 62
     7
 10
49.492899999999999
 20
94.227400000000003
 30
0.0
 11
49.823099999999997
 21
94.8048
 31
0.0
  0
LINE
  5
9D
  8
0
 62
     7
 10
42.489699999999992
 20
94.8048
 30
0.0
 11
42.489699999999992
 21
97.638099999999994
 31
0.0
  0
ARC
  5
9E
  8
0
 62
     7
 10
43.181671999999999
 20
97.612690999999984
 30
0.0
 40
0.692472
 50
92.100183999999999
 51
177.89978600000001
  0
LINE
  5
9F
  8
0
 62
     7
 10
43.82309999999999
 20
98.304699999999997
 30
0.0
 11
43.156300000000002
 21
98.304699999999997
 31
0.0
  0
LINE
  5
A0
  8
0
 62
     7
 10
43.156300000000002
 20
94.8048
 30
0.0
 11
43.156300000000002
 21
98.304699999999997
 31
0.0
  0
LINE
  5
A1
  8
0
 62
     7
 10
42.489699999999992
 20
94.8048
 30
0.0
 11
42.489699999999992
 21
91.971500000000006
 31
0.0
  0
ARC
  5
A2
  8
0
 62
     7
 10
43.181671999999999
 20
91.996916999999996
 30
0.0
 40
0.692472
 50
182.10021399999999
 51
267.89981599999987
  0
LINE
  5
A3
  8
0
 62
     7
 10
43.82309999999999
 20
91.304899999999989
 30
0.0
 11
43.156300000000002
 21
91.304899999999989
 31
0.0
  0
LINE
  5
A4
  8
0
 62
     7
 10
43.156300000000002
 20
94.8048
 30
0.0
 11
43.156300000000002
 21
91.304899999999989
 31
0.0
  0
LINE
  5
A5
  8
0
 62
     7
 10
78.489800000000002
 20
94.8048
 30
0.0
 11
78.489800000000002
 21
97.638099999999994
 31
0.0
  0
ARC
  5
A6
  8
0
 62
     7
 10
77.798259000000002
 20
97.613196000000002
 30
0.0
 40
0.69195
 50
2.059987
 51
87.940003000000004
  0
LINE
  5
A7
  8
0
 62
     7
 10
77.156300000000002
 20
98.304699999999997
 30
0.0
 11
77.823099999999997
 21
98.304699999999997
 31
0.0
  0
LINE
  5
A8
  8
0
 62
     7
 10
77.823099999999997
 20
94.8048
 30
0.0
 11
77.823099999999997
 21
98.304699999999997
 31
0.0
  0
LINE
  5
A9
  8
0
 62
     7
 10
78.489800000000002
 20
94.8048
 30
0.0
 11
78.489800000000002
 21
91.971500000000006
 31
0.0
  0
ARC
  5
AA
  8
0
 62
     7
 10
77.798259000000002
 20
91.996412000000007
 30
0.0
 40
0.69195
 50
272.05999700000001
 51
357.94001299999991
  0
LINE
  5
AB
  8
0
 62
     7
 10
77.156300000000002
 20
91.304899999999989
 30
0.0
 11
77.823099999999997
 21
91.304899999999989
 31
0.0
  0
LINE
  5
AC
  8
0
 62
     7
 10
77.823099999999997
 20
94.8048
 30
0.0
 11
77.823099999999997
 21
91.304899999999989
 31
0.0
  0
LINE
  5
AD
  8
0
  6
AIGENLINE001
 62
     7
 10
41.732799999999997
 20
206.99299999999991
 30
0.0
 11
79.867099999999994
 21
206.99299999999991
 31
0.0
  0
LINE
  5
AE
  8
0
 62
     7
 10
42.489699999999992
 20
225.78599999999989
 30
0.0
 11
42.489699999999992
 21
211.226
 31
0.0
  0
ARC
  5
AF
  8
0
 62
     7
 10
30.245449000000001
 20
208.26716099999999
 30
0.0
 40
14.244107
 50
359.99513400000001
 51
3.9657619999999998
  0
ARC
  5
B0
  8
0
 62
     7
 10
30.184183000000001
 20
208.13848200000001
 30
0.0
 40
13.972009999999999
 50
353.15160800000001
 51
6.8483919999999987
  0
LINE
  5
B1
  8
0
 62
     7
 10
42.489699999999992
 20
209.82599999999991
 30
0.0
 11
42.489699999999992
 21
204.15999999999991
 31
0.0
  0
LINE
  5
B2
  8
0
 62
     7
 10
43.156300000000002
 20
206.47200000000001
 30
0.0
 11
43.13559999999999
 21
206.4729999999999
 31
0.0
  0
ARC
  5
B3
  8
0
 62
     7
 10
43.155993999999993
 20
206.846553
 30
0.0
 40
0.37434
 50
248.7891939999999
 51
266.88076899999987
  0
ARC
  5
B4
  8
0
 62
     7
 10
43.185234999999999
 20
206.92723599999999
 30
0.0
 40
0.460141
 50
230.808583
 51
249.029597
  0
ARC
  5
B5
  8
0
 62
     7
 10
43.28904099999999
 20
207.06068499999989
 30
0.0
 40
0.6291770000000002
 50
212.02733099999989
 51
231.16139799999999
  0
ARC
  5
B6
  8
0
 62
     7
 10
43.660713999999999
 20
207.31330099999991
 30
0.0
 40
1.0783830000000001
 50
193.46342300000001
 51
212.93379300000001
  0
ARC
  5
B7
  8
0
 62
     7
 10
44.889302000000001
 20
207.6919189999999
 30
0.0
 40
2.3627889999999989
 50
182.40488199999999
 51
195.45633599999999
  0
ARC
  5
B8
  8
0
 62
     7
 10
49.234907
 20
208.0860799999999
 30
0.0
 40
6.724431
 50
179.55347800000001
 51
184.2070149999999
  0
ARC
  5
B9
  8
0
 62
     7
 10
50.479636999999997
 20
208.1397509999999
 30
0.0
 40
7.9689569999999996
 50
175.57335900000001
 51
180.00914499999999
  0
ARC
  5
BA
  8
0
 62
     7
 10
45.126913000000002
 20
208.53125600000001
 30
0.0
 40
2.6020829999999999
 50
161.17713599999999
 51
175.07135199999991
  0
ARC
  5
BB
  8
0
 62
     7
 10
43.594371000000002
 20
208.997489
 30
0.0
 40
1.002483999999999
 50
139.89275199999989
 51
158.13710299999991
  0
ARC
  5
BC
  8
0
 62
     7
 10
43.247700999999999
 20
209.26384599999989
 30
0.0
 40
0.5660850000000001
 50
122.974947
 51
137.907445
  0
ARC
  5
BD
  8
0
 62
     7
 10
43.167639999999999
 20
209.3874999999999
 30
0.0
 40
0.4187750000000001
 50
102.10602799999999
 51
122.9936629999999
  0
LINE
  5
BE
  8
0
 62
     7
 10
43.079799999999992
 20
209.797
 30
0.0
 11
43.156300000000002
 21
209.80500000000001
 31
0.0
  0
LINE
  5
BF
  8
0
 62
     7
 10
45.290900000000001
 20
210.49299999999991
 30
0.0
 11
45.290900000000001
 21
203.49299999999999
 31
0.0
  0
LINE
  5
C0
  8
0
 62
     7
 10
44.0565
 20
206.47200000000001
 30
0.0
 11
43.156300000000002
 21
206.47200000000001
 31
0.0
  0
LINE
  5
C1
  8
0
 62
     7
 10
44.0565
 20
206.47200000000001
 30
0.0
 11
44.121299999999998
 21
206.48400000000001
 31
0.0
  0
ARC
  5
C2
  8
0
 62
     7
 10
44.046154999999999
 20
206.70203000000001
 30
0.0
 40
0.230478
 50
289.02128299999993
 51
310.0017279999999
  0
ARC
  5
C3
  8
0
 62
     7
 10
43.927266999999993
 20
206.85611399999991
 30
0.0
 40
0.425007
 50
308.92647799999992
 51
326.787778
  0
ARC
  5
C4
  8
0
 62
     7
 10
43.696671000000002
 20
207.025961
 30
0.0
 40
0.7111420000000001
 50
325.5150779999999
 51
344.95760799999988
  0
ARC
  5
C5
  8
0
 62
     7
 10
42.740451
 20
207.336423
 30
0.0
 40
1.7159500000000001
 50
343.2326799999999
 51
358.09131200000002
  0
ARC
  5
C6
  8
0
 62
     7
 10
14.986268000000001
 20
207.16977299999991
 30
0.0
 40
29.542671999999989
 50
3.4931580000000002
 51
4.0422339999999988
  0
ARC
  5
C7
  8
0
 62
     7
 10
33.530777999999998
 20
208.39527399999989
 30
0.0
 40
10.958345
 50
0.3920020000000001
 51
3.005234999999999
  0
ARC
  5
C8
  8
0
 62
     7
 10
31.116171000000001
 20
208.31648300000001
 30
0.0
 40
13.373578999999999
 50
358.27627799999988
 51
0.6587760000000001
  0
ARC
  5
C9
  8
0
 62
     7
 10
24.780991
 20
208.472735
 30
0.0
 40
19.710622999999998
 50
356.5286549999999
 51
358.37622099999987
  0
ARC
  5
CA
  8
0
 62
     7
 10
42.852538000000003
 20
209.04949999999991
 30
0.0
 40
1.615688
 50
7.2103410000000014
 51
18.984234000000001
  0
ARC
  5
CB
  8
0
 62
     7
 10
43.953654999999991
 20
209.37600199999989
 30
0.0
 40
0.4708540000000001
 50
25.013843999999999
 51
38.505108999999997
  0
ARC
  5
CC
  8
0
 62
     7
 10
44.013829000000001
 20
209.42230499999999
 30
0.0
 40
0.394938
 50
38.683377
 51
56.010360999999989
  0
ARC
  5
CD
  8
0
 62
     7
 10
44.036316999999997
 20
209.44428600000001
 30
0.0
 40
0.364196
 50
57.010528000000008
 51
68.665736999999993
  0
ARC
  5
CE
  8
0
 62
     7
 10
44.055875
 20
209.49025499999999
 30
0.0
 40
0.314266
 50
68.938091999999983
 51
84.033225999999999
  0
ARC
  5
CF
  8
0
 62
     7
 10
44.055083000000003
 20
209.47928400000001
 30
0.0
 40
0.32526
 50
84.095368000000036
 51
89.749701999999985
  0
LINE
  5
D0
  8
0
 62
     7
 10
43.156300000000002
 20
209.80500000000001
 30
0.0
 11
44.0565
 21
209.80500000000001
 31
0.0
  0
LINE
  5
D1
  8
0
 62
     7
 10
46.489800000000002
 20
203.50099999999989
 30
0.0
 11
45.290900000000001
 21
203.49299999999999
 31
0.0
  0
LINE
  5
D2
  8
0
 62
     7
 10
45.290900000000001
 20
210.49299999999991
 30
0.0
 11
46.489800000000002
 21
210.4859999999999
 31
0.0
  0
ARC
  5
D3
  8
0
 62
     7
 10
43.181671999999999
 20
204.18509299999991
 30
0.0
 40
0.692472
 50
182.10021399999999
 51
267.89981599999987
  0
ARC
  5
D4
  8
0
 62
     7
 10
43.182226
 20
209.80067199999999
 30
0.0
 40
0.693033
 50
92.144273000000027
 51
177.88529999999989
  0
LINE
  5
D5
  8
0
 62
     7
 10
45.290900000000001
 20
203.49299999999999
 30
0.0
 11
43.156300000000002
 21
203.49299999999999
 31
0.0
  0
LINE
  5
D6
  8
0
 62
     7
 10
43.156300000000002
 20
210.49299999999991
 30
0.0
 11
45.290900000000001
 21
210.49299999999991
 31
0.0
  0
LINE
  5
D7
  8
0
 62
     7
 10
43.156300000000002
 20
210.49299999999991
 30
0.0
 11
43.156300000000002
 21
209.80500000000001
 31
0.0
  0
LINE
  5
D8
  8
0
 62
     7
 10
43.156300000000002
 20
206.47200000000001
 30
0.0
 11
43.156300000000002
 21
203.49299999999999
 31
0.0
  0
LINE
  5
D9
  8
0
 62
     7
 10
78.489800000000002
 20
225.78599999999989
 30
0.0
 11
78.489800000000002
 21
211.226
 31
0.0
  0
LINE
  5
DA
  8
0
  6
AIGENLINE001
 62
     7
 10
60.489699999999999
 20
218.619
 30
0.0
 11
60.489699999999999
 21
150.69499999999991
 31
0.0
  0
LINE
  5
DB
  8
0
  6
AIGENLINE001
 62
     7
 10
154.298
 20
111.28100000000001
 30
0.0
 11
154.298
 21
76.660700000000006
 31
0.0
  0
LINE
  5
DC
  8
0
  6
AIGENLINE001
 62
     7
 10
165.63200000000001
 20
94.8048
 30
0.0
 11
98.883799999999994
 21
94.8048
 31
0.0
  0
LINE
  5
DD
  8
0
  6
AIGENLINE001
 62
     7
 10
80.489800000000002
 20
94.8048
 30
0.0
 11
40.489800000000002
 21
94.8048
 31
0.0
  0
LINE
  5
DE
  8
0
  6
AIGENLINE001
 62
     7
 10
60.489699999999999
 20
114.80500000000001
 30
0.0
 11
60.489699999999999
 21
74.804900000000004
 31
0.0
  0
LINE
  5
DF
  8
0
 62
     7
 10
67.989699999999999
 20
169.32599999999991
 30
0.0
 11
67.989699999999999
 21
173.65899999999999
 31
0.0
  0
LINE
  5
E0
  8
0
 62
     7
 10
52.989699999999999
 20
169.32599999999991
 30
0.0
 11
52.989699999999999
 21
173.65899999999999
 31
0.0
  0
LINE
  5
E1
  8
0
 62
     7
 10
67.989699999999999
 20
169.32599999999991
 30
0.0
 11
52.989699999999999
 21
169.32599999999991
 31
0.0
  0
ARC
  5
E2
  8
0
 62
     7
 10
68.754481999999996
 20
211.7073759999999
 30
0.0
 40
1.097372999999999
 50
349.722983
 51
0.5255810000000001
  0
ARC
  5
E3
  8
0
 62
     7
 10
59.083571999999997
 20
212.148562
 30
0.0
 40
10.776863999999989
 50
357.70731599999988
 51
0.044153
  0
ARC
  5
E4
  8
0
 62
     7
 10
69.913042000000004
 20
211.613417
 30
0.0
 40
0.049504
 50
110.66444799999999
 51
170.810069
  0
ARC
  5
E5
  8
0
 62
     7
 10
70.583426000000003
 20
211.366229
 30
0.0
 40
0.76315
 50
160.472148
 51
169.01900499999991
  0
LINE
  5
E6
  8
0
 62
     7
 10
69.895600000000002
 20
216.65999999999991
 30
0.0
 11
69.895600000000002
 21
211.66
 31
0.0
  0
LINE
  5
E7
  8
0
 62
     7
 10
65.434100000000001
 20
216.47099999999989
 30
0.0
 11
65.434100000000001
 21
215.55500000000001
 31
0.0
  0
LINE
  5
E8
  8
0
 62
     7
 10
55.54529999999999
 20
216.47099999999989
 30
0.0
 11
55.54529999999999
 21
215.55500000000001
 31
0.0
  0
LINE
  5
E9
  8
0
 62
     7
 10
51.417700000000011
 20
216.65999999999991
 30
0.0
 11
51.740099999999991
 21
216.65999999999991
 31
0.0
  0
LINE
  5
EA
  8
0
 62
     7
 10
51.417700000000011
 20
216.65999999999991
 30
0.0
 11
51.647500000000001
 21
216.43000000000001
 31
0.0
  0
LINE
  5
EB
  8
0
 62
     7
 10
69.2393
 20
216.65999999999991
 30
0.0
 11
69.561700000000002
 21
216.65999999999991
 31
0.0
  0
LINE
  5
EC
  8
0
 62
     7
 10
69.561700000000002
 20
216.65999999999991
 30
0.0
 11
69.331999999999994
 21
216.43000000000001
 31
0.0
  0
LINE
  5
ED
  8
0
 62
     7
 10
55.503900000000002
 20
216.43000000000001
 30
0.0
 11
55.54529999999999
 21
216.47099999999989
 31
0.0
  0
ARC
  5
EE
  8
0
 62
     7
 10
55.206910999999998
 20
216.46884
 30
0.0
 40
0.338379
 50
0.397444
 51
34.32253
  0
ARC
  5
EF
  8
0
 62
     7
 10
65.767139
 20
216.47052099999999
 30
0.0
 40
0.332994
 50
145.39465499999989
 51
179.88533200000001
  0
LINE
  5
F0
  8
0
 62
     7
 10
65.475499999999997
 20
216.43000000000001
 30
0.0
 11
65.434100000000001
 21
216.47099999999989
 31
0.0
  0
LINE
  5
F1
  8
0
 62
     7
 10
51.647500000000001
 20
215.59699999999989
 30
0.0
 11
51.151699999999991
 21
215.10099999999991
 31
0.0
  0
ARC
  5
F2
  8
0
 62
     7
 10
51.495674999999991
 20
215.11221800000001
 30
0.0
 40
0.344122
 50
181.80006999999989
 51
268.19995999999998
  0
ARC
  5
F3
  8
0
 62
     7
 10
69.484374000000003
 20
215.11124100000001
 30
0.0
 40
0.343126
 50
271.70130699999987
 51
358.35798499999999
  0
LINE
  5
F4
  8
0
 62
     7
 10
69.331999999999994
 20
215.59699999999989
 30
0.0
 11
69.827399999999983
 21
215.10099999999991
 31
0.0
  0
ARC
  5
F5
  8
0
 62
     7
 10
55.19832199999999
 20
215.56927699999989
 30
0.0
 40
0.347234
 50
272.33728600000001
 51
357.72200499999991
  0
LINE
  5
F6
  8
0
 62
     7
 10
55.54529999999999
 20
215.55500000000001
 30
0.0
 11
55.503900000000002
 21
215.59699999999989
 31
0.0
  0
ARC
  5
F7
  8
0
 62
     7
 10
65.780512999999999
 20
215.5686859999999
 30
0.0
 40
0.346619
 50
182.18427199999999
 51
267.75647599999991
  0
LINE
  5
F8
  8
0
 62
     7
 10
65.434100000000001
 20
215.55500000000001
 30
0.0
 11
65.475499999999997
 21
215.59699999999989
 31
0.0
  0
ARC
  5
F9
  8
0
 62
     7
 10
66.832806000000005
 20
215.81483999999989
 30
0.0
 40
0.5829530000000001
 50
252.39333699999989
 51
270.740588
  0
ARC
  5
FA
  8
0
 62
     7
 10
67.452501999999996
 20
226.783312
 30
0.0
 40
11.567586
 50
266.966477
 51
270.18498799999992
  0
ARC
  5
FB
  8
0
 62
     7
 10
67.495132999999996
 20
223.1291609999999
 30
0.0
 40
7.9133769999999997
 50
269.96173599999992
 51
276.00416000000001
  0
ARC
  5
FC
  8
0
 62
     7
 10
68.263024999999999
 20
215.16828699999999
 30
0.0
 40
0.108841
 50
56.640075000000003
 51
95.082837999999995
  0
ARC
  5
FD
  8
0
 62
     7
 10
67.627466999999996
 20
208.1876199999999
 30
0.0
 40
7.1166589999999994
 50
84.954269999999994
 51
91.108029999999999
  0
ARC
  5
FE
  8
0
 62
     7
 10
67.484556999999995
 20
207.44509500000001
 30
0.0
 40
7.8578539999999988
 50
89.961416999999997
 51
96.049218999999994
  0
LINE
  5
FF
  8
0
 62
     7
 10
66.099699999999999
 20
215.15599999999989
 30
0.0
 11
66.487700000000004
 21
214.768
 31
0.0
  0
LINE
  5
100
  8
0
 62
     7
 10
66.487700000000004
 20
214.768
 30
0.0
 11
69.494600000000005
 21
214.768
 31
0.0
  0
LINE
  5
101
  8
0
 62
     7
 10
69.494600000000005
 20
214.768
 30
0.0
 11
68.999200000000002
 21
215.26400000000001
 31
0.0
  0
LINE
  5
102
  8
0
 62
     7
 10
65.808300000000003
 20
215.26400000000001
 30
0.0
 11
65.766900000000007
 21
215.22200000000001
 31
0.0
  0
ARC
  5
103
  8
0
 62
     7
 10
65.703827000000004
 20
215.3022859999999
 30
0.0
 40
0.101864
 50
256.14751099999989
 51
308.28838699999989
  0
ARC
  5
104
  8
0
 62
     7
 10
66.019603000000004
 20
215.01354599999991
 30
0.0
 40
0.163611
 50
60.671517000000001
 51
90.896479000000014
  0
ARC
  5
105
  8
0
 62
     7
 10
65.49997900000001
 20
210.71077999999989
 30
0.0
 40
4.496186999999999
 50
83.396325000000004
 51
87.712497999999997
  0
LINE
  5
106
  8
0
 62
     7
 10
51.484900000000003
 20
214.768
 30
0.0
 11
51.9803
 21
215.26400000000001
 31
0.0
  0
LINE
  5
107
  8
0
 62
     7
 10
51.484900000000003
 20
214.768
 30
0.0
 11
54.491399999999992
 21
214.768
 31
0.0
  0
LINE
  5
108
  8
0
 62
     7
 10
54.8797
 20
215.15599999999989
 30
0.0
 11
54.491399999999992
 21
214.768
 31
0.0
  0
ARC
  5
109
  8
0
 62
     7
 10
55.449893999999993
 20
211.97343100000001
 30
0.0
 40
3.2334299999999989
 50
92.657242000000025
 51
100.1571209999999
  0
ARC
  5
10A
  8
0
 62
     7
 10
55.349544999999992
 20
215.64377899999999
 30
0.0
 40
0.443174
 50
251.984487
 51
263.579655
  0
LINE
  5
10B
  8
0
 62
     7
 10
55.171100000000003
 20
215.26400000000001
 30
0.0
 11
55.212499999999999
 21
215.22200000000001
 31
0.0
  0
ARC
  5
10C
  8
0
 62
     7
 10
52.832667999999998
 20
215.81568799999991
 30
0.0
 40
0.5838010000000001
 50
252.40633800000001
 51
270.73731499999991
  0
ARC
  5
10D
  8
0
 62
     7
 10
53.452359999999992
 20
226.78430399999991
 30
0.0
 40
11.568576999999999
 50
266.96664599999991
 51
270.184347
  0
ARC
  5
10E
  8
0
 62
     7
 10
53.494868999999987
 20
223.13567999999989
 30
0.0
 40
7.9198949999999986
 50
269.961748
 51
276.00168599999989
  0
ARC
  5
10F
  8
0
 62
     7
 10
54.263100999999999
 20
215.16828399999989
 30
0.0
 40
0.108844
 50
56.640222999999999
 51
95.084793000000019
  0
ARC
  5
110
  8
0
 62
     7
 10
53.627341000000001
 20
208.18365199999991
 30
0.0
 40
7.1206289999999992
 50
84.955494999999999
 51
91.108552000000003
  0
ARC
  5
111
  8
0
 62
     7
 10
53.484292000000003
 20
207.445044
 30
0.0
 40
7.8579059999999989
 50
89.961437000000004
 51
96.049198999999973
  0
LINE
  5
112
  8
0
 62
     7
 10
65.568200000000004
 20
216.65999999999991
 30
0.0
 11
65.706000000000003
 21
216.65999999999991
 31
0.0
  0
LINE
  5
113
  8
0
 62
     7
 10
65.706000000000003
 20
216.65999999999991
 30
0.0
 11
66.000900000000001
 21
216.65999999999991
 31
0.0
  0
LINE
  5
114
  8
0
 62
     7
 10
66.000900000000001
 20
216.65999999999991
 30
0.0
 11
66.4191
 21
216.65999999999991
 31
0.0
  0
LINE
  5
115
  8
0
 62
     7
 10
66.4191
 20
216.65999999999991
 30
0.0
 11
66.920000000000002
 21
216.65999999999991
 31
0.0
  0
LINE
  5
116
  8
0
 62
     7
 10
66.920000000000002
 20
216.65999999999991
 30
0.0
 11
67.139799999999994
 21
216.65999999999991
 31
0.0
  0
ARC
  5
117
  8
0
 62
     7
 10
65.813855000000004
 20
216.426965
 30
0.0
 40
0.33838
 50
136.5595219999999
 51
179.5121649999999
  0
LINE
  5
118
  8
0
 62
     7
 10
67.139799999999994
 20
216.65999999999991
 30
0.0
 11
67.667599999999993
 21
216.65999999999991
 31
0.0
  0
LINE
  5
119
  8
0
 62
     7
 10
67.139799999999994
 20
216.65999999999991
 30
0.0
 11
67.139799999999994
 21
216.364
 31
0.0
  0
LINE
  5
11A
  8
0
 62
     7
 10
53.311799999999991
 20
216.65999999999991
 30
0.0
 11
53.839599999999997
 21
216.65999999999991
 31
0.0
  0
LINE
  5
11B
  8
0
 62
     7
 10
51.740099999999991
 20
216.65999999999991
 30
0.0
 11
51.878
 21
216.65999999999991
 31
0.0
  0
LINE
  5
11C
  8
0
 62
     7
 10
51.878
 20
216.65999999999991
 30
0.0
 11
52.172899999999998
 21
216.65999999999991
 31
0.0
  0
LINE
  5
11D
  8
0
 62
     7
 10
52.172899999999998
 20
216.65999999999991
 30
0.0
 11
52.59109999999999
 21
216.65999999999991
 31
0.0
  0
LINE
  5
11E
  8
0
 62
     7
 10
52.59109999999999
 20
216.65999999999991
 30
0.0
 11
53.092399999999991
 21
216.65999999999991
 31
0.0
  0
LINE
  5
11F
  8
0
 62
     7
 10
53.092399999999991
 20
216.65999999999991
 30
0.0
 11
53.311799999999991
 21
216.65999999999991
 31
0.0
  0
ARC
  5
120
  8
0
 62
     7
 10
51.985843000000003
 20
216.426965
 30
0.0
 40
0.33838
 50
136.5595219999999
 51
179.5121649999999
  0
LINE
  5
121
  8
0
 62
     7
 10
53.311799999999991
 20
216.65999999999991
 30
0.0
 11
53.311799999999991
 21
216.364
 31
0.0
  0
ARC
  5
122
  8
0
 62
     7
 10
51.867396999999997
 20
217.2119009999999
 30
0.0
 40
0.8123889999999999
 50
254.29352299999999
 51
269.18949300000003
  0
ARC
  5
123
  8
0
 62
     7
 10
53.094881000000008
 20
237.1094699999999
 30
0.0
 40
20.746904000000001
 50
266.57635099999999
 51
270.59910899999988
  0
LINE
  5
124
  8
0
 62
     7
 10
51.647500000000001
 20
216.43000000000001
 30
0.0
 11
51.647500000000001
 21
215.59699999999989
 31
0.0
  0
LINE
  5
125
  8
0
 62
     7
 10
53.311799999999991
 20
215.33000000000001
 30
0.0
 11
53.839599999999997
 21
215.33000000000001
 31
0.0
  0
LINE
  5
126
  8
0
 62
     7
 10
67.667599999999993
 20
216.65999999999991
 30
0.0
 11
68.207800000000006
 21
216.65999999999991
 31
0.0
  0
LINE
  5
127
  8
0
 62
     7
 10
68.207800000000006
 20
216.65999999999991
 30
0.0
 11
68.685599999999994
 21
216.65999999999991
 31
0.0
  0
LINE
  5
128
  8
0
 62
     7
 10
68.685599999999994
 20
216.65999999999991
 30
0.0
 11
69.031199999999998
 21
216.65999999999991
 31
0.0
  0
LINE
  5
129
  8
0
 62
     7
 10
69.031199999999998
 20
216.65999999999991
 30
0.0
 11
69.217200000000005
 21
216.65999999999991
 31
0.0
  0
LINE
  5
12A
  8
0
 62
     7
 10
69.217200000000005
 20
216.65999999999991
 30
0.0
 11
69.2393
 21
216.65999999999991
 31
0.0
  0
LINE
  5
12B
  8
0
 62
     7
 10
67.667599999999993
 20
216.65999999999991
 30
0.0
 11
67.667599999999993
 21
216.364
 31
0.0
  0
ARC
  5
12C
  8
0
 62
     7
 10
68.993759999999995
 20
216.4270359999999
 30
0.0
 40
0.338203
 50
0.4760390000000001
 51
43.452234999999988
  0
ARC
  5
12D
  8
0
 62
     7
 10
65.695408999999984
 20
217.2119009999999
 30
0.0
 40
0.8123889999999999
 50
254.29352299999999
 51
269.18949300000003
  0
ARC
  5
12E
  8
0
 62
     7
 10
66.922892000000004
 20
237.1094699999999
 30
0.0
 40
20.746904000000001
 50
266.57635099999999
 51
270.59910899999988
  0
LINE
  5
12F
  8
0
 62
     7
 10
65.475499999999997
 20
215.59699999999989
 30
0.0
 11
65.475499999999997
 21
216.43000000000001
 31
0.0
  0
LINE
  5
130
  8
0
 62
     7
 10
55.503900000000002
 20
215.59699999999989
 30
0.0
 11
55.503900000000002
 21
216.43000000000001
 31
0.0
  0
LINE
  5
131
  8
0
 62
     7
 10
53.839599999999997
 20
216.65999999999991
 30
0.0
 11
54.379800000000003
 21
216.65999999999991
 31
0.0
  0
LINE
  5
132
  8
0
 62
     7
 10
54.379800000000003
 20
216.65999999999991
 30
0.0
 11
54.857599999999991
 21
216.65999999999991
 31
0.0
  0
LINE
  5
133
  8
0
 62
     7
 10
54.857599999999991
 20
216.65999999999991
 30
0.0
 11
55.203200000000002
 21
216.65999999999991
 31
0.0
  0
LINE
  5
134
  8
0
 62
     7
 10
55.203200000000002
 20
216.65999999999991
 30
0.0
 11
55.389200000000002
 21
216.65999999999991
 31
0.0
  0
LINE
  5
135
  8
0
 62
     7
 10
55.389200000000002
 20
216.65999999999991
 30
0.0
 11
55.41129999999999
 21
216.65999999999991
 31
0.0
  0
LINE
  5
136
  8
0
 62
     7
 10
53.839599999999997
 20
216.65999999999991
 30
0.0
 11
53.839599999999997
 21
216.364
 31
0.0
  0
ARC
  5
137
  8
0
 62
     7
 10
53.849957999999987
 20
250.21170799999999
 30
0.0
 40
33.848009999999988
 50
269.98248199999989
 51
271.87658199999993
  0
ARC
  5
138
  8
0
 62
     7
 10
55.031900999999998
 20
218.6708129999999
 30
0.0
 40
2.290143
 50
268.15988099999998
 51
281.894946
  0
ARC
  5
139
  8
0
 62
     7
 10
55.165748000000001
 20
216.4270359999999
 30
0.0
 40
0.338203
 50
0.4760390000000001
 51
43.452234999999988
  0
LINE
  5
13A
  8
0
 62
     7
 10
67.667599999999993
 20
216.364
 30
0.0
 11
67.139799999999994
 21
216.364
 31
0.0
  0
LINE
  5
13B
  8
0
 62
     7
 10
67.139799999999994
 20
216.364
 30
0.0
 11
67.139799999999994
 21
215.6629999999999
 31
0.0
  0
ARC
  5
13C
  8
0
 62
     7
 10
55.157426000000001
 20
215.610173
 30
0.0
 40
0.346771
 50
272.26673799999992
 51
357.792553
  0
ARC
  5
13D
  8
0
 62
     7
 10
55.420630000000003
 20
215.42575600000001
 30
0.0
 40
0.190269
 50
64.03299100000001
 51
91.513412000000002
  0
ARC
  5
13E
  8
0
 62
     7
 10
54.672077999999999
 20
207.8873219999999
 30
0.0
 40
7.7643190000000004
 50
84.504812999999984
 51
89.234302999999997
  0
ARC
  5
13F
  8
0
 62
     7
 10
53.852846
 20
180.21182999999999
 30
0.0
 40
35.451135000000001
 50
88.508094000000014
 51
90.021392000000006
  0
LINE
  5
140
  8
0
 62
     7
 10
53.839599999999997
 20
215.6629999999999
 30
0.0
 11
53.839599999999997
 21
215.33000000000001
 31
0.0
  0
ARC
  5
141
  8
0
 62
     7
 10
55.087476000000002
 20
215.1119689999999
 30
0.0
 40
0.173246
 50
61.123314000000001
 51
91.079834999999989
  0
ARC
  5
142
  8
0
 62
     7
 10
54.430124999999997
 20
209.32394400000001
 30
0.0
 40
5.9970169999999987
 50
83.738359000000017
 51
89.110391000000007
  0
ARC
  5
143
  8
0
 62
     7
 10
53.843414000000003
 20
192.04649800000001
 30
0.0
 40
23.283667000000001
 50
88.326871999999995
 51
90.009366000000014
  0
ARC
  5
144
  8
0
 62
     7
 10
68.915487999999996
 20
215.1119689999999
 30
0.0
 40
0.173246
 50
61.123314000000001
 51
91.079834999999989
  0
ARC
  5
145
  8
0
 62
     7
 10
68.258135999999993
 20
209.32394400000001
 30
0.0
 40
5.9970169999999987
 50
83.738359000000017
 51
89.110391000000007
  0
ARC
  5
146
  8
0
 62
     7
 10
67.671424999999999
 20
192.04649800000001
 30
0.0
 40
23.283667000000001
 50
88.326871999999995
 51
90.009366000000014
  0
ARC
  5
147
  8
0
 62
     7
 10
68.985438000000002
 20
215.610173
 30
0.0
 40
0.346771
 50
272.26673799999992
 51
357.792553
  0
LINE
  5
148
  8
0
 62
     7
 10
67.667599999999993
 20
215.6629999999999
 30
0.0
 11
67.667599999999993
 21
216.364
 31
0.0
  0
ARC
  5
149
  8
0
 62
     7
 10
69.248642000000004
 20
215.42575600000001
 30
0.0
 40
0.190269
 50
64.03299100000001
 51
91.513412000000002
  0
ARC
  5
14A
  8
0
 62
     7
 10
68.50009
 20
207.8873219999999
 30
0.0
 40
7.7643190000000004
 50
84.504812999999984
 51
89.234302999999997
  0
ARC
  5
14B
  8
0
 62
     7
 10
67.680856999999989
 20
180.21182999999999
 30
0.0
 40
35.451135000000001
 50
88.508094000000014
 51
90.021392000000006
  0
LINE
  5
14C
  8
0
 62
     7
 10
69.331999999999994
 20
216.43000000000001
 30
0.0
 11
69.331999999999994
 21
215.59699999999989
 31
0.0
  0
ARC
  5
14D
  8
0
 62
     7
 10
67.677970000000002
 20
250.21170799999999
 30
0.0
 40
33.848009999999988
 50
269.98248199999989
 51
271.87658199999993
  0
ARC
  5
14E
  8
0
 62
     7
 10
68.859911999999994
 20
218.6708129999999
 30
0.0
 40
2.290143
 50
268.15988099999998
 51
281.894946
  0
LINE
  5
14F
  8
0
 62
     7
 10
67.667599999999993
 20
215.33000000000001
 30
0.0
 11
67.139799999999994
 21
215.33000000000001
 31
0.0
  0
LINE
  5
150
  8
0
 62
     7
 10
67.667599999999993
 20
215.6629999999999
 30
0.0
 11
67.667599999999993
 21
215.33000000000001
 31
0.0
  0
LINE
  5
151
  8
0
 62
     7
 10
67.139799999999994
 20
215.6629999999999
 30
0.0
 11
67.667599999999993
 21
215.6629999999999
 31
0.0
  0
ARC
  5
152
  8
0
 62
     7
 10
65.821854999999999
 20
215.610027
 30
0.0
 40
0.346619
 50
182.18427199999999
 51
267.75647599999991
  0
ARC
  5
153
  8
0
 62
     7
 10
67.13154200000001
 20
193.70992799999991
 30
0.0
 40
21.620238000000001
 50
89.978043999999997
 51
92.350852000000003
  0
ARC
  5
154
  8
0
 62
     7
 10
66.186638000000002
 20
213.840721
 30
0.0
 40
1.4723939999999991
 50
87.73978000000001
 51
104.890007
  0
LINE
  5
155
  8
0
 62
     7
 10
67.139799999999994
 20
215.6629999999999
 30
0.0
 11
67.139799999999994
 21
215.33000000000001
 31
0.0
  0
ARC
  5
156
  8
0
 62
     7
 10
67.129463000000001
 20
181.556895
 30
0.0
 40
34.106068999999991
 50
89.982585999999984
 51
91.862783000000007
  0
ARC
  5
157
  8
0
 62
     7
 10
65.945968999999991
 20
213.379245
 30
0.0
 40
2.266931
 50
88.108168000000006
 51
101.978297
  0
LINE
  5
158
  8
0
 62
     7
 10
53.311799999999991
 20
215.6629999999999
 30
0.0
 11
53.311799999999991
 21
216.364
 31
0.0
  0
LINE
  5
159
  8
0
 62
     7
 10
53.839599999999997
 20
215.6629999999999
 30
0.0
 11
53.311799999999991
 21
215.6629999999999
 31
0.0
  0
LINE
  5
15A
  8
0
 62
     7
 10
53.839599999999997
 20
216.364
 30
0.0
 11
53.839599999999997
 21
215.6629999999999
 31
0.0
  0
LINE
  5
15B
  8
0
 62
     7
 10
53.311799999999991
 20
216.364
 30
0.0
 11
53.839599999999997
 21
216.364
 31
0.0
  0
LINE
  5
15C
  8
0
 62
     7
 10
53.311799999999991
 20
215.6629999999999
 30
0.0
 11
53.311799999999991
 21
215.33000000000001
 31
0.0
  0
ARC
  5
15D
  8
0
 62
     7
 10
53.301451
 20
181.556895
 30
0.0
 40
34.106068999999991
 50
89.982585999999984
 51
91.862783000000007
  0
ARC
  5
15E
  8
0
 62
     7
 10
52.117956999999997
 20
213.379245
 30
0.0
 40
2.266931
 50
88.108168000000006
 51
101.978297
  0
ARC
  5
15F
  8
0
 62
     7
 10
51.993842999999998
 20
215.610027
 30
0.0
 40
0.346619
 50
182.18427199999999
 51
267.75647599999991
  0
ARC
  5
160
  8
0
 62
     7
 10
53.303530000000002
 20
193.70992799999991
 30
0.0
 40
21.620238000000001
 50
89.978043999999997
 51
92.350852000000003
  0
ARC
  5
161
  8
0
 62
     7
 10
52.358626999999998
 20
213.840721
 30
0.0
 40
1.4723939999999991
 50
87.73978000000001
 51
104.890007
  0
ARC
  5
162
  8
0
 62
     7
 10
60.489713000000002
 20
206.99297899999991
 30
0.0
 40
4.8781359999999996
 50
39.486429999999999
 51
129.4864
  0
ARC
  5
163
  8
0
 62
     7
 10
60.471279000000003
 20
207.011415
 30
0.0
 40
4.8521859999999988
 50
129.45683199999999
 51
140.54313899999991
  0
ARC
  5
164
  8
0
 62
     7
 10
66.670653999999999
 20
205.76825099999991
 30
0.0
 40
11.218814
 50
168.85405700000001
 51
171.15532400000001
  0
ARC
  5
165
  8
0
 62
     7
 10
60.069403000000001
 20
206.99322699999991
 30
0.0
 40
4.5058879999999988
 50
158.971034
 51
167.91041899999991
  0
ARC
  5
166
  8
0
 62
     7
 10
60.843743999999987
 20
206.72744199999991
 30
0.0
 40
5.324114999999999
 50
151.23930699999991
 51
159.291515
  0
ARC
  5
167
  8
0
 62
     7
 10
60.495463999999998
 20
206.917688
 30
0.0
 40
4.9272629999999991
 50
145.690732
 51
151.23001599999989
  0
ARC
  5
168
  8
0
 62
     7
 10
61.8279
 20
205.96336700000001
 30
0.0
 40
6.5658830000000004
 50
141.00499799999989
 51
145.36580000000001
  0
ARC
  5
169
  8
0
 62
     7
 10
60.524642000000007
 20
206.99315300000001
 30
0.0
 40
4.9111779999999987
 50
174.15596599999989
 51
185.84403399999999
  0
LINE
  5
16A
  8
0
 62
     7
 10
55.506700000000002
 20
206.46100000000001
 30
0.0
 11
55.466700000000003
 21
206.49299999999991
 31
0.0
  0
ARC
  5
16B
  8
0
 62
     7
 10
69.763330000000011
 20
210.05212999999989
 30
0.0
 40
14.710596000000001
 50
197.5908969999999
 51
198.91057599999999
  0
ARC
  5
16C
  8
0
 62
     7
 10
62.022734
 20
207.52549999999991
 30
0.0
 40
6.5687289999999994
 50
194.1922679999999
 51
196.98787200000001
  0
ARC
  5
16D
  8
0
 62
     7
 10
65.093617000000009
 20
208.37036000000001
 30
0.0
 40
9.7532490000000003
 50
193.10933399999999
 51
194.58096399999999
  0
ARC
  5
16E
  8
0
 62
     7
 10
-26.760066999999999
 20
186.16305
 30
0.0
 40
84.747208999999984
 50
13.646983000000001
 51
13.776688
  0
ARC
  5
16F
  8
0
 62
     7
 10
54.786441000000003
 20
206.15244499999989
 30
0.0
 40
0.7864670000000001
 50
14.142756
 51
22.396267999999989
  0
LINE
  5
170
  8
0
 62
     7
 10
55.51359999999999
 20
206.45199999999991
 30
0.0
 11
55.506700000000002
 21
206.46100000000001
 31
0.0
  0
ARC
  5
171
  8
0
 62
     7
 10
63.570966000000013
 20
211.93182200000001
 30
0.0
 40
10.774559
 50
236.04830299999989
 51
238.85440099999991
  0
ARC
  5
172
  8
0
 62
     7
 10
59.928052000000001
 20
206.33877699999991
 30
0.0
 40
4.1017989999999989
 50
226.77106299999991
 51
234.62543299999999
  0
ARC
  5
173
  8
0
 62
     7
 10
60.483870999999994
 20
206.969582
 30
0.0
 40
4.9421809999999988
 50
219.2120119999999
 51
227.08483899999999
  0
ARC
  5
174
  8
0
 62
     7
 10
60.233604999999997
 20
206.76914500000001
 30
0.0
 40
4.6215589999999986
 50
210.64264799999989
 51
219.24815000000001
  0
ARC
  5
175
  8
0
 62
     7
 10
60.038119999999992
 20
206.6089999999999
 30
0.0
 40
4.3719130000000002
 50
204.91702799999999
 51
210.14269599999989
  0
ARC
  5
176
  8
0
 62
     7
 10
68.159981000000002
 20
210.36409900000001
 30
0.0
 40
13.319836
 50
202.41749799999999
 51
204.847295
  0
ARC
  5
177
  8
0
 62
     7
 10
63.093868999999991
 20
212.94089299999999
 30
0.0
 40
11.429335
 50
243.522863
 51
247.78894299999999
  0
ARC
  5
178
  8
0
 62
     7
 10
60.35343499999999
 20
206.64173699999989
 30
0.0
 40
4.5643159999999998
 50
249.74611999999999
 51
260.67197999999991
  0
ARC
  5
179
  8
0
 62
     7
 10
60.549886999999998
 20
207.637384
 30
0.0
 40
5.578733999999999
 50
260.33846599999998
 51
264.917124
  0
ARC
  5
17A
  8
0
 62
     7
 10
60.489915000000003
 20
207.2361249999999
 30
0.0
 40
5.1737960000000003
 50
265.18496099999987
 51
269.99777799999993
  0
ARC
  5
17B
  8
0
 62
     7
 10
60.478768000000002
 20
207.27929800000001
 30
0.0
 40
5.2169809999999988
 50
270.12022200000001
 51
281.70750600000002
  0
ARC
  5
17C
  8
0
 62
     7
 10
60.565318000000012
 20
206.907217
 30
0.0
 40
4.8350860000000004
 50
281.59791100000001
 51
290.85573999999991
  0
ARC
  5
17D
  8
0
 62
     7
 10
60.050204000000001
 20
208.12939299999999
 30
0.0
 40
6.160747999999999
 50
291.28586200000001
 51
298.40500099999991
  0
ARC
  5
17E
  8
0
 62
     7
 10
57.643367000000012
 20
211.57026099999999
 30
0.0
 40
10.343450000000001
 50
301.06620800000002
 51
303.99089600000002
  0
ARC
  5
17F
  8
0
 62
     7
 10
61.032755999999999
 20
206.36152399999989
 30
0.0
 40
4.1311260000000001
 50
305.40251000000001
 51
313.20103399999988
  0
ARC
  5
180
  8
0
 62
     7
 10
60.498941000000002
 20
206.96640899999991
 30
0.0
 40
4.9375530000000003
 50
312.91148500000003
 51
320.79170299999993
  0
ARC
  5
181
  8
0
 62
     7
 10
60.745821999999997
 20
206.76914500000001
 30
0.0
 40
4.6215589999999986
 50
320.751869
 51
329.35737199999988
  0
ARC
  5
182
  8
0
 62
     7
 10
60.882126999999997
 20
206.63846599999991
 30
0.0
 40
4.4378890000000002
 50
329.91201299999989
 51
335.15605899999991
  0
ARC
  5
183
  8
0
 62
     7
 10
52.875861
 20
210.33381299999999
 30
0.0
 40
13.255817
 50
335.20125000000002
 51
337.60997700000001
  0
ARC
  5
184
  8
0
 62
     7
 10
51.215752000000002
 20
210.05212999999989
 30
0.0
 40
14.710596000000001
 50
341.08944300000002
 51
342.40912300000002
  0
ARC
  5
185
  8
0
 62
     7
 10
59.35448499999999
 20
207.421076
 30
0.0
 40
6.1574770000000001
 50
342.85902799999991
 51
345.84225199999992
  0
ARC
  5
186
  8
0
 62
     7
 10
52.729880000000001
 20
209.14816699999989
 30
0.0
 40
13.00341399999999
 50
345.60297700000001
 51
346.70676400000002
  0
ARC
  5
187
  8
0
 62
     7
 10
82.903409999999994
 20
201.98257499999991
 30
0.0
 40
18.009301999999991
 50
165.98296499999989
 51
166.59332499999991
  0
ARC
  5
188
  8
0
 62
     7
 10
66.185602000000003
 20
206.1548829999999
 30
0.0
 40
0.778712
 50
157.56254300000001
 51
165.89839399999991
  0
LINE
  5
189
  8
0
 62
     7
 10
65.465800000000002
 20
206.45199999999991
 30
0.0
 11
65.472399999999993
 21
206.46100000000001
 31
0.0
  0
LINE
  5
18A
  8
0
 62
     7
 10
65.472399999999993
 20
206.46100000000001
 30
0.0
 11
65.512699999999995
 21
206.49299999999991
 31
0.0
  0
ARC
  5
18B
  8
0
 62
     7
 10
60.504038000000001
 20
206.99315300000001
 30
0.0
 40
4.8618410000000001
 50
354.096473
 51
5.9035269999999986
  0
ARC
  5
18C
  8
0
 62
     7
 10
52.942903000000001
 20
205.52752699999999
 30
0.0
 40
12.605486000000001
 50
8.9712469999999982
 51
11.019333
  0
ARC
  5
18D
  8
0
 62
     7
 10
60.862476999999998
 20
206.976913
 30
0.0
 40
4.555801999999999
 50
12.164946
 51
21.007435000000001
  0
ARC
  5
18E
  8
0
 62
     7
 10
60.135339000000002
 20
206.72744199999991
 30
0.0
 40
5.324114999999999
 50
20.708465
 51
28.760674000000002
  0
ARC
  5
18F
  8
0
 62
     7
 10
60.597859
 20
206.99116100000001
 30
0.0
 40
4.7917709999999989
 50
28.65732199999999
 51
34.351205
  0
ARC
  5
190
  8
0
 62
     7
 10
59.151525999999997
 20
205.96336700000001
 30
0.0
 40
6.5658830000000004
 50
34.634180000000001
 51
38.994982
  0
ARC
  5
191
  8
0
 62
     7
 10
60.489713999999999
 20
206.99297999999999
 30
0.0
 40
4.3332689999999996
 50
90.0
 51
179.99996999999991
  0
ARC
  5
192
  8
0
 62
     7
 10
60.489713000000002
 20
206.99297999999999
 30
0.0
 40
4.3332680000000003
 50
179.99996999999991
 51
270.00002000000001
  0
ARC
  5
193
  8
0
 62
     7
 10
60.489713000000002
 20
206.99298099999999
 30
0.0
 40
4.3332689999999996
 50
270.00002000000001
 51
359.99998999999991
  0
ARC
  5
194
  8
0
 62
     7
 10
60.489713000000002
 20
206.99297999999999
 30
0.0
 40
4.3332689999999996
 50
0.00001
 51
89.999980000000008
  0
ARC
  5
195
  8
0
 62
     7
 10
60.489713999999999
 20
206.99297999999999
 30
0.0
 40
4.6850160000000001
 50
90.0
 51
179.99996999999991
  0
ARC
  5
196
  8
0
 62
     7
 10
60.489713000000002
 20
206.99297999999999
 30
0.0
 40
4.6850139999999989
 50
179.99996999999991
 51
270.00002000000001
  0
ARC
  5
197
  8
0
 62
     7
 10
60.489713000000002
 20
206.99298099999999
 30
0.0
 40
4.6850160000000001
 50
270.00002000000001
 51
359.99998999999991
  0
ARC
  5
198
  8
0
 62
     7
 10
60.489713000000002
 20
206.99297999999999
 30
0.0
 40
4.6850160000000001
 50
0.00001
 51
89.999980000000008
  0
ARC
  5
199
  8
0
 62
     7
 10
60.489713999999999
 20
206.99297999999999
 30
0.0
 40
3.492659999999999
 50
90.0
 51
179.99996999999991
  0
ARC
  5
19A
  8
0
 62
     7
 10
60.489541000000003
 20
206.9931519999999
 30
0.0
 40
3.4924870000000001
 50
180.00283599999989
 51
270.00284599999998
  0
ARC
  5
19B
  8
0
 62
     7
 10
60.489713000000002
 20
206.99298099999999
 30
0.0
 40
3.4923160000000002
 50
270.00002000000001
 51
359.99998999999991
  0
ARC
  5
19C
  8
0
 62
     7
 10
60.489541000000003
 20
206.9931519999999
 30
0.0
 40
3.4924879999999989
 50
359.997184
 51
89.997154000000009
  0
ARC
  5
19D
  8
0
 62
     7
 10
90.880507999999992
 20
208.26209399999991
 30
0.0
 40
14.390637
 50
176.05444199999991
 51
179.98462299999991
  0
ARC
  5
19E
  8
0
 62
     7
 10
90.819318999999979
 20
208.13848200000001
 30
0.0
 40
13.995912999999989
 50
173.16333999999989
 51
186.83665999999999
  0
LINE
  5
19F
  8
0
 62
     7
 10
78.489800000000002
 20
209.82599999999991
 30
0.0
 11
78.489800000000002
 21
204.15999999999991
 31
0.0
  0
LINE
  5
1A0
  8
0
 62
     7
 10
77.823099999999997
 20
206.47200000000001
 30
0.0
 11
77.843800000000002
 21
206.4729999999999
 31
0.0
  0
ARC
  5
1A1
  8
0
 62
     7
 10
77.821775000000002
 20
206.8542469999999
 30
0.0
 40
0.382114
 50
273.3048
 51
291.0252769999999
  0
ARC
  5
1A2
  8
0
 62
     7
 10
77.791347999999999
 20
206.9321459999999
 30
0.0
 40
0.465744
 50
291.08094199999999
 51
309.08091699999989
  0
ARC
  5
1A3
  8
0
 62
     7
 10
77.687957999999995
 20
207.06283999999991
 30
0.0
 40
0.6323780000000001
 50
308.88750299999998
 51
327.92380800000001
  0
ARC
  5
1A4
  8
0
 62
     7
 10
77.318713000000002
 20
207.31330099999991
 30
0.0
 40
1.0783830000000001
 50
327.06622700000003
 51
346.53659699999997
  0
ARC
  5
1A5
  8
0
 62
     7
 10
76.090125
 20
207.6919189999999
 30
0.0
 40
2.3627889999999989
 50
344.54368399999993
 51
357.59513799999991
  0
ARC
  5
1A6
  8
0
 62
     7
 10
71.744461999999999
 20
208.08608099999989
 30
0.0
 40
6.7244890000000002
 50
355.793025
 51
0.446482
  0
ARC
  5
1A7
  8
0
 62
     7
 10
70.499718999999999
 20
208.13974899999999
 30
0.0
 40
7.9690279999999989
 50
359.99089500000002
 51
4.4266009999999989
  0
ARC
  5
1A8
  8
0
 62
     7
 10
75.852513000000002
 20
208.53125600000001
 30
0.0
 40
2.6020829999999999
 50
4.928628999999999
 51
18.822844
  0
ARC
  5
1A9
  8
0
 62
     7
 10
77.386678000000003
 20
208.99846299999999
 30
0.0
 40
1.0006159999999991
 50
21.845704999999999
 51
40.124400000000001
  0
ARC
  5
1AA
  8
0
 62
     7
 10
77.730939000000006
 20
209.262923
 30
0.0
 40
0.567287
 50
42.108446999999991
 51
57.009121
  0
ARC
  5
1AB
  8
0
 62
     7
 10
77.809568999999996
 20
209.38215700000001
 30
0.0
 40
0.424465
 50
57.147858999999983
 51
77.752409999999998
  0
ARC
  5
1AC
  8
0
 62
     7
 10
77.808653000000007
 20
209.26875999999999
 30
0.0
 40
0.5359770000000002
 50
80.229023999999995
 51
88.451993999999999
  0
LINE
  5
1AD
  8
0
 62
     7
 10
75.688500000000005
 20
210.49299999999991
 30
0.0
 11
75.688500000000005
 21
203.49299999999999
 31
0.0
  0
LINE
  5
1AE
  8
0
 62
     7
 10
76.922899999999984
 20
206.47200000000001
 30
0.0
 11
77.823099999999997
 21
206.47200000000001
 31
0.0
  0
ARC
  5
1AF
  8
0
 62
     7
 10
76.960453000000001
 20
206.8648639999999
 30
0.0
 40
0.394231
 50
254.96033399999999
 51
264.53729099999998
  0
ARC
  5
1B0
  8
0
 62
     7
 10
76.924102000000005
 20
206.68583100000001
 30
0.0
 40
0.212202
 50
229.083168
 51
251.89386200000001
  0
ARC
  5
1B1
  8
0
 62
     7
 10
77.050739000000007
 20
206.85482799999991
 30
0.0
 40
0.423115
 50
213.17197100000001
 51
231.11381299999999
  0
ARC
  5
1B2
  8
0
 62
     7
 10
77.283846999999994
 20
207.02646399999989
 30
0.0
 40
0.712328
 50
195.05874
 51
214.46861299999989
  0
ARC
  5
1B3
  8
0
 62
     7
 10
78.238975999999994
 20
207.336423
 30
0.0
 40
1.7159500000000001
 50
181.90870799999999
 51
196.76733899999999
  0
ARC
  5
1B4
  8
0
 62
     7
 10
105.99315900000001
 20
207.16977299999991
 30
0.0
 40
29.542671999999989
 50
175.9577459999999
 51
176.506822
  0
ARC
  5
1B5
  8
0
 62
     7
 10
87.448649000000003
 20
208.39527399999989
 30
0.0
 40
10.958345
 50
176.99474499999999
 51
179.607978
  0
ARC
  5
1B6
  8
0
 62
     7
 10
89.863033000000016
 20
208.3164809999999
 30
0.0
 40
13.373355999999999
 50
179.341185
 51
181.72376199999999
  0
ARC
  5
1B7
  8
0
 62
     7
 10
96.198436000000015
 20
208.472735
 30
0.0
 40
19.710622999999998
 50
181.62379899999999
 51
183.47136499999991
  0
ARC
  5
1B8
  8
0
 62
     7
 10
78.126889000000006
 20
209.04949999999991
 30
0.0
 40
1.615688
 50
161.01574600000001
 51
172.78963899999991
  0
ARC
  5
1B9
  8
0
 62
     7
 10
77.025772000000003
 20
209.37600199999989
 30
0.0
 40
0.4708540000000001
 50
141.4948709999999
 51
154.98613599999999
  0
ARC
  5
1BA
  8
0
 62
     7
 10
76.964615000000009
 20
209.423371
 30
0.0
 40
0.393505
 50
123.957826
 51
141.34839600000001
  0
ARC
  5
1BB
  8
0
 62
     7
 10
76.944260999999997
 20
209.4420429999999
 30
0.0
 40
0.366705
 50
111.37425
 51
122.949445
  0
ARC
  5
1BC
  8
0
 62
     7
 10
76.915870999999996
 20
209.52221099999991
 30
0.0
 40
0.281718
 50
95.088746000000015
 51
111.9398969999999
  0
LINE
  5
1BD
  8
0
 62
     7
 10
76.890900000000002
 20
209.803
 30
0.0
 11
76.922899999999984
 21
209.80500000000001
 31
0.0
  0
LINE
  5
1BE
  8
0
 62
     7
 10
77.823099999999997
 20
209.80500000000001
 30
0.0
 11
76.922899999999984
 21
209.80500000000001
 31
0.0
  0
LINE
  5
1BF
  8
0
 62
     7
 10
46.681999999999988
 20
201.99299999999999
 30
0.0
 11
50.48960000000001
 21
201.99299999999999
 31
0.0
  0
LINE
  5
1C0
  8
0
 62
     7
 10
70.489500000000007
 20
201.99299999999999
 30
0.0
 11
74.297399999999996
 21
201.99299999999999
 31
0.0
  0
LINE
  5
1C1
  8
0
 62
     7
 10
74.297399999999996
 20
211.99299999999999
 30
0.0
 11
70.489500000000007
 21
211.99299999999999
 31
0.0
  0
LINE
  5
1C2
  8
0
 62
     7
 10
50.48960000000001
 20
211.99299999999999
 30
0.0
 11
46.681999999999988
 21
211.99299999999999
 31
0.0
  0
LINE
  5
1C3
  8
0
 62
     7
 10
50.48960000000001
 20
201.99299999999999
 30
0.0
 11
50.82309999999999
 21
202.32599999999999
 31
0.0
  0
LINE
  5
1C4
  8
0
 62
     7
 10
70.156400000000005
 20
202.32599999999999
 30
0.0
 11
70.489500000000007
 21
201.99299999999999
 31
0.0
  0
LINE
  5
1C5
  8
0
 62
     7
 10
46.489800000000002
 20
202.32599999999999
 30
0.0
 11
46.681999999999988
 21
201.99299999999999
 31
0.0
  0
LINE
  5
1C6
  8
0
 62
     7
 10
74.297399999999996
 20
201.99299999999999
 30
0.0
 11
74.489599999999996
 21
202.32599999999999
 31
0.0
  0
LINE
  5
1C7
  8
0
 62
     7
 10
70.489500000000007
 20
211.99299999999999
 30
0.0
 11
70.156400000000005
 21
211.66
 31
0.0
  0
LINE
  5
1C8
  8
0
 62
     7
 10
74.489599999999996
 20
211.66
 30
0.0
 11
74.297399999999996
 21
211.99299999999999
 31
0.0
  0
LINE
  5
1C9
  8
0
 62
     7
 10
46.681999999999988
 20
211.99299999999999
 30
0.0
 11
46.489800000000002
 21
211.66
 31
0.0
  0
LINE
  5
1CA
  8
0
 62
     7
 10
50.82309999999999
 20
211.66
 30
0.0
 11
50.48960000000001
 21
211.99299999999999
 31
0.0
  0
LINE
  5
1CB
  8
0
 62
     7
 10
51.083899999999993
 20
211.66
 30
0.0
 11
50.82309999999999
 21
211.66
 31
0.0
  0
LINE
  5
1CC
  8
0
 62
     7
 10
50.82309999999999
 20
202.32599999999999
 30
0.0
 11
50.835500000000003
 21
202.32599999999999
 31
0.0
  0
LINE
  5
1CD
  8
0
 62
     7
 10
70.143600000000006
 20
202.32599999999999
 30
0.0
 11
70.156400000000005
 21
202.32599999999999
 31
0.0
  0
LINE
  5
1CE
  8
0
 62
     7
 10
70.156400000000005
 20
211.66
 30
0.0
 11
69.895600000000002
 21
211.66
 31
0.0
  0
LINE
  5
1CF
  8
0
 62
     7
 10
74.489599999999996
 20
203.50099999999989
 30
0.0
 11
75.688500000000005
 21
203.49299999999999
 31
0.0
  0
LINE
  5
1D0
  8
0
 62
     7
 10
75.688500000000005
 20
210.49299999999991
 30
0.0
 11
74.489599999999996
 21
210.4859999999999
 31
0.0
  0
ARC
  5
1D1
  8
0
 62
     7
 10
77.798209999999997
 20
204.18463799999989
 30
0.0
 40
0.692001
 50
272.06389999999988
 51
357.93610999999993
  0
ARC
  5
1D2
  8
0
 62
     7
 10
77.797398999999999
 20
209.80087
 30
0.0
 40
0.692828
 50
2.098967
 51
87.871420000000015
  0
LINE
  5
1D3
  8
0
 62
     7
 10
75.688500000000005
 20
203.49299999999999
 30
0.0
 11
77.823099999999997
 21
203.49299999999999
 31
0.0
  0
LINE
  5
1D4
  8
0
 62
     7
 10
77.823099999999997
 20
210.49299999999991
 30
0.0
 11
75.688500000000005
 21
210.49299999999991
 31
0.0
  0
LINE
  5
1D5
  8
0
 62
     7
 10
60.489699999999999
 20
205.65899999999999
 30
0.0
 11
57.898299999999999
 21
205.79400000000001
 31
0.0
  0
LINE
  5
1D6
  8
0
 62
     7
 10
60.489699999999999
 20
205.65899999999999
 30
0.0
 11
63.081099999999999
 21
205.79400000000001
 31
0.0
  0
ARC
  5
1D7
  8
0
 62
     7
 10
51.465001999999998
 20
201.726302
 30
0.0
 40
0.076833
 50
299.74759099999989
 51
349.99262299999992
  0
ARC
  5
1D8
  8
0
 62
     7
 10
50.120213999999997
 20
202.1516499999999
 30
0.0
 40
1.4866539999999999
 50
342.83696099999992
 51
353.80950899999999
  0
ARC
  5
1D9
  8
0
 62
     7
 10
47.208385
 20
202.650328
 30
0.0
 40
4.4390019999999986
 50
351.46262899999988
 51
355.17064399999992
  0
ARC
  5
1DA
  8
0
 62
     7
 10
75.350447000000003
 20
202.87086699999989
 30
0.0
 40
6.0323320000000002
 50
185.68634299999991
 51
190.12918099999999
  0
ARC
  5
1DB
  8
0
 62
     7
 10
69.613697000000002
 20
201.80709899999999
 30
0.0
 40
0.201581
 50
179.18269599999991
 51
227.032173
  0
LINE
  5
1DC
  8
0
 62
     7
 10
77.823099999999997
 20
210.49299999999991
 30
0.0
 11
77.823099999999997
 21
209.80500000000001
 31
0.0
  0
LINE
  5
1DD
  8
0
 62
     7
 10
77.823099999999997
 20
206.47200000000001
 30
0.0
 11
77.823099999999997
 21
203.49299999999999
 31
0.0
  0
ARC
  5
1DE
  8
0
 62
     7
 10
60.489542
 20
206.99280799999991
 30
0.0
 40
2.9385129999999999
 50
89.996640999999997
 51
179.996612
  0
ARC
  5
1DF
  8
0
 62
     7
 10
60.489713000000002
 20
206.99297999999999
 30
0.0
 40
2.9386849999999991
 50
179.99996999999991
 51
270.00002000000001
  0
ARC
  5
1E0
  8
0
 62
     7
 10
60.489541000000003
 20
206.99280899999999
 30
0.0
 40
2.9385129999999999
 50
270.00337899999988
 51
0.003349
  0
ARC
  5
1E1
  8
0
 62
     7
 10
60.489713000000002
 20
206.99297999999999
 30
0.0
 40
2.938340999999999
 50
0.00001
 51
89.999980000000008
  0
ARC
  5
1E2
  8
0
 62
     7
 10
60.489713999999999
 20
206.99297999999999
 30
0.0
 40
3.092681999999999
 50
90.0
 51
179.99996999999991
  0
ARC
  5
1E3
  8
0
 62
     7
 10
60.489713000000002
 20
206.99297999999999
 30
0.0
 40
3.0926809999999998
 50
179.99996999999991
 51
270.00002000000001
  0
ARC
  5
1E4
  8
0
 62
     7
 10
60.489713000000002
 20
206.99298099999999
 30
0.0
 40
3.092681999999999
 50
270.00002000000001
 51
359.99998999999991
  0
ARC
  5
1E5
  8
0
 62
     7
 10
60.489713000000002
 20
206.99297999999999
 30
0.0
 40
3.092681999999999
 50
0.00001
 51
89.999980000000008
  0
LINE
  5
1E6
  8
0
 62
     7
 10
66.487700000000004
 20
212.15700000000001
 30
0.0
 11
69.860399999999998
 21
212.15700000000001
 31
0.0
  0
LINE
  5
1E7
  8
0
 62
     7
 10
51.118600000000001
 20
212.15700000000001
 30
0.0
 11
54.491399999999992
 21
212.15700000000001
 31
0.0
  0
LINE
  5
1E8
  8
0
 62
     7
 10
54.491399999999992
 20
214.768
 30
0.0
 11
54.491399999999992
 21
214.10299999999989
 31
0.0
  0
LINE
  5
1E9
  8
0
 62
     7
 10
54.491399999999992
 20
214.10299999999989
 30
0.0
 11
51.484900000000003
 21
214.10299999999989
 31
0.0
  0
LINE
  5
1EA
  8
0
 62
     7
 10
66.487700000000004
 20
214.10299999999989
 30
0.0
 11
66.487700000000004
 21
214.768
 31
0.0
  0
LINE
  5
1EB
  8
0
 62
     7
 10
69.494600000000005
 20
214.10299999999989
 30
0.0
 11
66.487700000000004
 21
214.10299999999989
 31
0.0
  0
LINE
  5
1EC
  8
0
 62
     7
 10
66.487700000000004
 20
214.10299999999989
 30
0.0
 11
65.822100000000006
 21
214.10299999999989
 31
0.0
  0
LINE
  5
1ED
  8
0
 62
     7
 10
66.487700000000004
 20
214.10299999999989
 30
0.0
 11
66.487700000000004
 21
212.15700000000001
 31
0.0
  0
LINE
  5
1EE
  8
0
 62
     7
 10
66.487700000000004
 20
212.15700000000001
 30
0.0
 11
65.822100000000006
 21
212.15700000000001
 31
0.0
  0
LINE
  5
1EF
  8
0
 62
     7
 10
66.487700000000004
 20
212.15700000000001
 30
0.0
 11
66.487700000000004
 21
211.512
 31
0.0
  0
LINE
  5
1F0
  8
0
 62
     7
 10
55.157400000000003
 20
214.10299999999989
 30
0.0
 11
54.491399999999992
 21
214.10299999999989
 31
0.0
  0
LINE
  5
1F1
  8
0
 62
     7
 10
54.491399999999992
 20
212.15700000000001
 30
0.0
 11
54.491399999999992
 21
214.10299999999989
 31
0.0
  0
LINE
  5
1F2
  8
0
 62
     7
 10
55.157400000000003
 20
212.15700000000001
 30
0.0
 11
54.491399999999992
 21
212.15700000000001
 31
0.0
  0
LINE
  5
1F3
  8
0
 62
     7
 10
54.491399999999992
 20
211.512
 30
0.0
 11
54.491399999999992
 21
212.15700000000001
 31
0.0
  0
ARC
  5
1F4
  8
0
 62
     7
 10
51.484361
 20
215.10299999999989
 30
0.0
 40
1.000330999999999
 50
248.55610599999989
 51
270.02892200000002
  0
LINE
  5
1F5
  8
0
 62
     7
 10
51.484900000000003
 20
214.768
 30
0.0
 11
51.484900000000003
 21
214.10299999999989
 31
0.0
  0
LINE
  5
1F6
  8
0
 62
     7
 10
69.494600000000005
 20
214.10299999999989
 30
0.0
 11
69.494600000000005
 21
214.768
 31
0.0
  0
ARC
  5
1F7
  8
0
 62
     7
 10
69.494476000000006
 20
215.10429500000001
 30
0.0
 40
1.0016259999999999
 50
270.00484199999988
 51
291.42986799999989
  0
LINE
  5
1F8
  8
0
 62
     7
 10
50.48960000000001
 20
201.99299999999999
 30
0.0
 11
50.48960000000001
 21
202.054
 31
0.0
  0
LINE
  5
1F9
  8
0
 62
     7
 10
70.489500000000007
 20
201.99299999999999
 30
0.0
 11
70.489500000000007
 21
202.054
 31
0.0
  0
LINE
  5
1FA
  8
0
 62
     7
 10
46.489800000000002
 20
202.32599999999999
 30
0.0
 11
46.489800000000002
 21
202.952
 31
0.0
  0
LINE
  5
1FB
  8
0
 62
     7
 10
46.681999999999988
 20
201.99299999999999
 30
0.0
 11
46.681999999999988
 21
202.054
 31
0.0
  0
LINE
  5
1FC
  8
0
 62
     7
 10
74.489599999999996
 20
202.32599999999999
 30
0.0
 11
74.489599999999996
 21
202.952
 31
0.0
  0
LINE
  5
1FD
  8
0
 62
     7
 10
74.297399999999996
 20
201.99299999999999
 30
0.0
 11
74.297399999999996
 21
202.054
 31
0.0
  0
LINE
  5
1FE
  8
0
 62
     7
 10
70.489500000000007
 20
211.93199999999999
 30
0.0
 11
70.489500000000007
 21
211.99299999999999
 31
0.0
  0
LINE
  5
1FF
  8
0
 62
     7
 10
74.489599999999996
 20
211.03399999999999
 30
0.0
 11
74.489599999999996
 21
211.66
 31
0.0
  0
LINE
  5
200
  8
0
 62
     7
 10
74.297399999999996
 20
211.93199999999999
 30
0.0
 11
74.297399999999996
 21
211.99299999999999
 31
0.0
  0
LINE
  5
201
  8
0
 62
     7
 10
46.489800000000002
 20
211.03399999999999
 30
0.0
 11
46.489800000000002
 21
211.66
 31
0.0
  0
LINE
  5
202
  8
0
 62
     7
 10
46.681999999999988
 20
211.93199999999999
 30
0.0
 11
46.681999999999988
 21
211.99299999999999
 31
0.0
  0
LINE
  5
203
  8
0
 62
     7
 10
50.48960000000001
 20
211.93199999999999
 30
0.0
 11
50.48960000000001
 21
211.99299999999999
 31
0.0
  0
LINE
  5
204
  8
0
 62
     7
 10
70.489500000000007
 20
202.054
 30
0.0
 11
74.297399999999996
 21
202.054
 31
0.0
  0
ARC
  5
205
  8
0
 62
     7
 10
69.729956999999999
 20
203.7586629999999
 30
0.0
 40
4.8751610000000003
 50
339.534066
 51
345.01530700000001
  0
ARC
  5
206
  8
0
 62
     7
 10
72.209153000000001
 20
202.97503699999999
 30
0.0
 40
2.2806049999999991
 50
347.92971599999998
 51
359.40901700000001
  0
ARC
  5
207
  8
0
 62
     7
 10
73.500668999999974
 20
204.01885499999989
 30
0.0
 40
3.595480999999999
 50
205.1848489999999
 51
213.12464600000001
  0
ARC
  5
208
  8
0
 62
     7
 10
71.334539000000007
 20
202.8944129999999
 30
0.0
 40
1.1607279999999991
 50
190.14706599999991
 51
200.45169999999999
  0
ARC
  5
209
  8
0
 62
     7
 10
73.662072999999992
 20
203.295356
 30
0.0
 40
3.522526
 50
185.60171699999989
 51
189.896873
  0
LINE
  5
20A
  8
0
 62
     7
 10
50.48960000000001
 20
202.054
 30
0.0
 11
46.681999999999988
 21
202.054
 31
0.0
  0
ARC
  5
20B
  8
0
 62
     7
 10
47.555402999999998
 20
203.97590600000001
 30
0.0
 40
3.5075400000000001
 50
326.77567399999998
 51
334.91487000000001
  0
ARC
  5
20C
  8
0
 62
     7
 10
49.654063999999991
 20
202.89338599999999
 30
0.0
 40
1.1514519999999999
 50
339.43067100000002
 51
349.82224899999989
  0
ARC
  5
20D
  8
0
 62
     7
 10
47.381948999999992
 20
203.287407
 30
0.0
 40
3.457465
 50
350.04875199999998
 51
354.42491699999999
  0
ARC
  5
20E
  8
0
 62
     7
 10
51.249470000000002
 20
203.7586629999999
 30
0.0
 40
4.8751610000000003
 50
194.984713
 51
200.46595400000001
  0
ARC
  5
20F
  8
0
 62
     7
 10
48.770274000000001
 20
202.97503699999999
 30
0.0
 40
2.2806049999999991
 50
180.59100299999989
 51
192.07030399999999
  0
ARC
  5
210
  8
0
 62
     7
 10
70.270802000000003
 20
210.79377199999999
 30
0.0
 40
4.225693999999999
 50
3.265058999999999
 51
9.4913119999999989
  0
ARC
  5
211
  8
0
 62
     7
 10
72.031942000000001
 20
210.96430399999991
 30
0.0
 40
2.4635759999999989
 50
12.334764
 51
23.135114000000002
  0
LINE
  5
212
  8
0
 62
     7
 10
70.489500000000007
 20
211.93199999999999
 30
0.0
 11
74.297399999999996
 21
211.93199999999999
 31
0.0
  0
LINE
  5
213
  8
0
 62
     7
 10
70.156400000000005
 20
211.03399999999999
 30
0.0
 11
70.156400000000005
 21
211.0449999999999
 31
0.0
  0
ARC
  5
214
  8
0
 62
     7
 10
71.370120999999983
 20
211.0362559999999
 30
0.0
 40
1.213787999999999
 50
158.10638
 51
179.56495000000001
  0
ARC
  5
215
  8
0
 62
     7
 10
71.727236000000005
 20
210.89104800000001
 30
0.0
 40
1.5992939999999991
 50
149.26578699999999
 51
158.0500429999999
  0
ARC
  5
216
  8
0
 62
     7
 10
77.078218000000007
 20
207.74801599999989
 30
0.0
 40
7.8050519999999999
 50
147.58195399999991
 51
149.5085179999999
  0
LINE
  5
217
  8
0
 62
     7
 10
50.82309999999999
 20
211.03399999999999
 30
0.0
 11
50.82309999999999
 21
211.0449999999999
 31
0.0
  0
ARC
  5
218
  8
0
 62
     7
 10
49.599713000000001
 20
211.03348099999991
 30
0.0
 40
1.223404999999999
 50
0.5616040000000001
 51
21.852713000000001
  0
ARC
  5
219
  8
0
 62
     7
 10
49.251846
 20
210.89104800000001
 30
0.0
 40
1.5992939999999991
 50
21.949936999999991
 51
30.734192999999991
  0
ARC
  5
21A
  8
0
 62
     7
 10
43.900863999999999
 20
207.74801599999989
 30
0.0
 40
7.8050519999999999
 50
30.491461999999999
 51
32.41802599999999
  0
LINE
  5
21B
  8
0
 62
     7
 10
50.48960000000001
 20
211.93199999999999
 30
0.0
 11
46.681999999999988
 21
211.93199999999999
 31
0.0
  0
ARC
  5
21C
  8
0
 62
     7
 10
50.708624999999998
 20
210.79377199999999
 30
0.0
 40
4.225693999999999
 50
170.50866799999989
 51
176.7349209999999
  0
ARC
  5
21D
  8
0
 62
     7
 10
48.947485
 20
210.96430399999991
 30
0.0
 40
2.4635759999999989
 50
156.86486600000001
 51
167.6652159999999
  0
LINE
  5
21E
  8
0
 62
     7
 10
50.48960000000001
 20
203.84899999999999
 30
0.0
 11
46.681999999999988
 21
203.84899999999999
 31
0.0
  0
LINE
  5
21F
  8
0
 62
     7
 10
70.489500000000007
 20
203.84899999999999
 30
0.0
 11
74.297399999999996
 21
203.84899999999999
 31
0.0
  0
LINE
  5
220
  8
0
 62
     7
 10
46.681999999999988
 20
203.84899999999999
 30
0.0
 11
46.681999999999988
 21
205.19799999999989
 31
0.0
  0
LINE
  5
221
  8
0
 62
     7
 10
46.489800000000002
 20
202.952
 30
0.0
 11
46.489800000000002
 21
206.99299999999991
 31
0.0
  0
ARC
  5
222
  8
0
 62
     7
 10
50.715882000000001
 20
202.710027
 30
0.0
 40
4.2329850000000002
 50
170.514036
 51
176.72955400000001
  0
ARC
  5
223
  8
0
 62
     7
 10
48.939818999999993
 20
202.88306799999989
 30
0.0
 40
2.455722999999999
 50
156.83841499999991
 51
167.66571399999989
  0
LINE
  5
224
  8
0
 62
     7
 10
50.82309999999999
 20
202.952
 30
0.0
 11
50.82309999999999
 21
202.32599999999999
 31
0.0
  0
LINE
  5
225
  8
0
 62
     7
 10
50.82309999999999
 20
211.66
 30
0.0
 11
50.82309999999999
 21
211.03399999999999
 31
0.0
  0
LINE
  5
226
  8
0
 62
     7
 10
54.491399999999992
 20
211.512
 30
0.0
 11
51.144799999999996
 21
211.512
 31
0.0
  0
LINE
  5
227
  8
0
 62
     7
 10
50.48960000000001
 20
205.19799999999989
 30
0.0
 11
46.681999999999988
 21
205.19799999999989
 31
0.0
  0
ARC
  5
228
  8
0
 62
     7
 10
63.6751
 20
208.51733899999999
 30
0.0
 40
17.31428
 50
189.213267
 51
191.053585
  0
ARC
  5
229
  8
0
 62
     7
 10
53.461484999999989
 20
206.74949699999991
 30
0.0
 40
6.9502470000000001
 50
184.20316
 51
188.30857
  0
ARC
  5
22A
  8
0
 62
     7
 10
66.302713999999995
 20
207.6718139999999
 30
0.0
 40
19.824549999999991
 50
181.9623289999999
 51
184.141503
  0
ARC
  5
22B
  8
0
 62
     7
 10
47.535414999999993
 20
212.06880499999991
 30
0.0
 40
3.529720999999999
 50
326.81814700000001
 51
334.91100599999999
  0
ARC
  5
22C
  8
0
 62
     7
 10
49.657359
 20
210.97604100000001
 30
0.0
 40
1.148147
 50
339.40202499999998
 51
349.81006699999989
  0
ARC
  5
22D
  8
0
 62
     7
 10
47.388303999999998
 20
211.36962199999999
 30
0.0
 40
3.4510699999999992
 50
350.04333300000002
 51
354.42654700000003
  0
ARC
  5
22E
  8
0
 62
     7
 10
39.132953000000001
 20
206.47852700000001
 30
0.0
 40
11.701420000000001
 50
2.519822
 51
5.9151099999999976
  0
ARC
  5
22F
  8
0
 62
     7
 10
46.436574
 20
207.10732400000001
 30
0.0
 40
4.3737360000000001
 50
7.5819830000000001
 51
16.864626000000001
  0
ARC
  5
230
  8
0
 62
     7
 10
42.539751000000003
 20
205.999436
 30
0.0
 40
8.4246719999999993
 50
16.386709
 51
19.328648999999999
  0
LINE
  5
231
  8
0
 62
     7
 10
50.82309999999999
 20
211.03399999999999
 30
0.0
 11
50.82309999999999
 21
206.99299999999991
 31
0.0
  0
ARC
  5
232
  8
0
 62
     7
 10
-18.952206
 20
229.6502999999999
 30
0.0
 40
73.621251000000001
 50
340.60127999999992
 51
340.66920199999993
  0
ARC
  5
233
  8
0
 62
     7
 10
44.978794999999991
 20
207.20461399999991
 30
0.0
 40
5.8644970000000001
 50
340.842332
 51
349.07122099999992
  0
ARC
  5
234
  8
0
 62
     7
 10
45.861615999999991
 20
207.01348400000001
 30
0.0
 40
4.961492999999999
 50
349.3055359999999
 51
359.27783399999993
  0
ARC
  5
235
  8
0
 62
     7
 10
49.238957999999997
 20
206.984948
 30
0.0
 40
1.5841219999999989
 50
358.77022999999991
 51
0.290516
  0
LINE
  5
236
  8
0
 62
     7
 10
50.48960000000001
 20
203.84899999999999
 30
0.0
 11
50.48960000000001
 21
205.19799999999989
 31
0.0
  0
LINE
  5
237
  8
0
 62
     7
 10
50.82309999999999
 20
202.952
 30
0.0
 11
50.82309999999999
 21
202.96199999999999
 31
0.0
  0
ARC
  5
238
  8
0
 62
     7
 10
49.598158000000012
 20
202.95024799999999
 30
0.0
 40
1.224958999999999
 50
0.558746
 51
21.838608999999991
  0
ARC
  5
239
  8
0
 62
     7
 10
49.252769999999998
 20
202.80849199999989
 30
0.0
 40
1.5982959999999991
 50
21.949770000000001
 51
30.738828999999988
  0
ARC
  5
23A
  8
0
 62
     7
 10
44.092295
 20
199.77628499999989
 30
0.0
 40
7.5836579999999989
 50
30.501213
 51
32.481945000000003
  0
LINE
  5
23B
  8
0
 62
     7
 10
50.82309999999999
 20
206.99299999999991
 30
0.0
 11
50.82309999999999
 21
202.952
 31
0.0
  0
ARC
  5
23C
  8
0
 62
     7
 10
51.249470000000002
 20
211.84159700000001
 30
0.0
 40
4.8751610000000003
 50
194.984713
 51
200.46595400000001
  0
ARC
  5
23D
  8
0
 62
     7
 10
48.770274000000001
 20
211.05797100000001
 30
0.0
 40
2.2806049999999991
 50
180.59100299999989
 51
192.07030399999999
  0
LINE
  5
23E
  8
0
 62
     7
 10
46.489800000000002
 20
206.99299999999991
 30
0.0
 11
46.489800000000002
 21
211.03399999999999
 31
0.0
  0
ARC
  5
23F
  8
0
 62
     7
 10
64.332716000000005
 20
206.19051999999991
 30
0.0
 40
17.860960999999989
 50
172.93757799999989
 51
177.42491799999991
  0
ARC
  5
240
  8
0
 62
     7
 10
55.405370999999988
 20
206.95538300000001
 30
0.0
 40
8.9137409999999981
 50
168.13641799999991
 51
170.76085800000001
  0
LINE
  5
241
  8
0
 62
     7
 10
74.489599999999996
 20
206.99299999999991
 30
0.0
 11
74.489599999999996
 21
211.03399999999999
 31
0.0
  0
ARC
  5
242
  8
0
 62
     7
 10
69.729956999999999
 20
211.84159700000001
 30
0.0
 40
4.8751610000000003
 50
339.534066
 51
345.01530700000001
  0
ARC
  5
243
  8
0
 62
     7
 10
72.209153000000001
 20
211.05797100000001
 30
0.0
 40
2.2806049999999991
 50
347.92971599999998
 51
359.40901700000001
  0
LINE
  5
244
  8
0
 62
     7
 10
70.156400000000005
 20
202.952
 30
0.0
 11
70.156400000000005
 21
202.96199999999999
 31
0.0
  0
ARC
  5
245
  8
0
 62
     7
 10
71.371690000000001
 20
202.9530199999999
 30
0.0
 40
1.215357
 50
158.12073100000001
 51
179.56749999999991
  0
ARC
  5
246
  8
0
 62
     7
 10
71.726311999999993
 20
202.80849199999989
 30
0.0
 40
1.5982959999999991
 50
149.26115100000001
 51
158.05020999999999
  0
ARC
  5
247
  8
0
 62
     7
 10
76.886786999999998
 20
199.77628499999989
 30
0.0
 40
7.5836579999999989
 50
147.518035
 51
149.4987669999999
  0
LINE
  5
248
  8
0
 62
     7
 10
70.489500000000007
 20
203.84899999999999
 30
0.0
 11
70.489500000000007
 21
205.19799999999989
 31
0.0
  0
LINE
  5
249
  8
0
 62
     7
 10
74.297399999999996
 20
203.84899999999999
 30
0.0
 11
74.297399999999996
 21
205.19799999999989
 31
0.0
  0
ARC
  5
24A
  8
0
 62
     7
 10
70.263544999999993
 20
202.710027
 30
0.0
 40
4.2329850000000002
 50
3.2704270000000002
 51
9.4859449999999992
  0
ARC
  5
24B
  8
0
 62
     7
 10
72.039608000000001
 20
202.88306799999989
 30
0.0
 40
2.455722999999999
 50
12.334266
 51
23.161564999999989
  0
LINE
  5
24C
  8
0
 62
     7
 10
74.489599999999996
 20
202.952
 30
0.0
 11
74.489599999999996
 21
206.99299999999991
 31
0.0
  0
LINE
  5
24D
  8
0
 62
     7
 10
70.489500000000007
 20
205.19799999999989
 30
0.0
 11
74.297399999999996
 21
205.19799999999989
 31
0.0
  0
ARC
  5
24E
  8
0
 62
     7
 10
57.304327000000001
 20
208.51733899999999
 30
0.0
 40
17.31428
 50
348.94643499999989
 51
350.78675299999992
  0
ARC
  5
24F
  8
0
 62
     7
 10
67.517941000000008
 20
206.74949699999991
 30
0.0
 40
6.9502470000000001
 50
351.69144899999998
 51
355.79685899999993
  0
ARC
  5
250
  8
0
 62
     7
 10
54.676712999999999
 20
207.6718139999999
 30
0.0
 40
19.824549999999991
 50
355.85851700000001
 51
358.03769
  0
ARC
  5
251
  8
0
 62
     7
 10
56.418897999999999
 20
206.17131499999999
 30
0.0
 40
18.089408999999989
 50
2.603410999999999
 51
7.0340530000000001
  0
ARC
  5
252
  8
0
 62
     7
 10
64.696792000000002
 20
206.79197799999989
 30
0.0
 40
9.8058809999999994
 50
9.3585259999999995
 51
11.744158000000001
  0
ARC
  5
253
  8
0
 62
     7
 10
45.090623999999998
 20
196.31717900000001
 30
0.0
 40
26.906645999999999
 50
19.271834999999999
 51
19.457682999999999
  0
ARC
  5
254
  8
0
 62
     7
 10
76.062483
 20
207.21886199999989
 30
0.0
 40
5.9279279999999988
 50
190.95067800000001
 51
199.09049999999991
  0
ARC
  5
255
  8
0
 62
     7
 10
75.073194000000001
 20
207.010998
 30
0.0
 40
4.9171930000000001
 50
180.69972200000001
 51
190.76249299999989
  0
LINE
  5
256
  8
0
 62
     7
 10
70.156400000000005
 20
206.95099999999999
 30
0.0
 11
70.156400000000005
 21
206.99299999999991
 31
0.0
  0
ARC
  5
257
  8
0
 62
     7
 10
73.521562000000003
 20
212.112224
 30
0.0
 40
3.6186829999999999
 50
205.18865099999999
 51
213.08223599999991
  0
ARC
  5
258
  8
0
 62
     7
 10
71.331210999999996
 20
210.9770649999999
 30
0.0
 40
1.1573910000000001
 50
190.15920499999999
 51
200.48021099999991
  0
ARC
  5
259
  8
0
 62
     7
 10
73.620005000000006
 20
211.372713
 30
0.0
 40
3.4801160000000002
 50
185.5779509999999
 51
189.924421
  0
ARC
  5
25A
  8
0
 62
     7
 10
81.846474000000015
 20
206.47852700000001
 30
0.0
 40
11.701420000000001
 50
174.08487099999991
 51
177.48015799999999
  0
ARC
  5
25B
  8
0
 62
     7
 10
74.551003000000009
 20
207.1076469999999
 30
0.0
 40
4.381772999999999
 50
163.17162099999999
 51
172.4362459999999
  0
ARC
  5
25C
  8
0
 62
     7
 10
78.539798000000005
 20
205.9670679999999
 30
0.0
 40
8.5301899999999993
 50
160.68953099999999
 51
163.5950719999999
  0
LINE
  5
25D
  8
0
 62
     7
 10
70.156400000000005
 20
206.99299999999991
 30
0.0
 11
70.156400000000005
 21
202.952
 31
0.0
  0
LINE
  5
25E
  8
0
 62
     7
 10
70.156400000000005
 20
211.03399999999999
 30
0.0
 11
70.156400000000005
 21
206.99299999999991
 31
0.0
  0
LINE
  5
25F
  8
0
 62
     7
 10
70.156400000000005
 20
211.66
 30
0.0
 11
70.156400000000005
 21
211.03399999999999
 31
0.0
  0
LINE
  5
260
  8
0
 62
     7
 10
70.156400000000005
 20
202.952
 30
0.0
 11
70.156400000000005
 21
202.32599999999999
 31
0.0
  0
LINE
  5
261
  8
0
 62
     7
 10
69.834199999999996
 20
211.512
 30
0.0
 11
66.487700000000004
 21
211.512
 31
0.0
  0
LINE
  5
262
  8
0
 62
     7
 10
50.48960000000001
 20
208.7879999999999
 30
0.0
 11
46.681999999999988
 21
208.7879999999999
 31
0.0
  0
LINE
  5
263
  8
0
 62
     7
 10
50.48960000000001
 20
208.7879999999999
 30
0.0
 11
50.48960000000001
 21
210.137
 31
0.0
  0
LINE
  5
264
  8
0
 62
     7
 10
50.48960000000001
 20
210.137
 30
0.0
 11
46.681999999999988
 21
210.137
 31
0.0
  0
LINE
  5
265
  8
0
 62
     7
 10
46.681999999999988
 20
208.7879999999999
 30
0.0
 11
46.681999999999988
 21
210.137
 31
0.0
  0
LINE
  5
266
  8
0
 62
     7
 10
70.489500000000007
 20
208.7879999999999
 30
0.0
 11
74.297399999999996
 21
208.7879999999999
 31
0.0
  0
LINE
  5
267
  8
0
 62
     7
 10
74.297399999999996
 20
208.7879999999999
 30
0.0
 11
74.297399999999996
 21
210.137
 31
0.0
  0
LINE
  5
268
  8
0
 62
     7
 10
70.489500000000007
 20
210.137
 30
0.0
 11
74.297399999999996
 21
210.137
 31
0.0
  0
LINE
  5
269
  8
0
 62
     7
 10
70.489500000000007
 20
208.7879999999999
 30
0.0
 11
70.489500000000007
 21
210.137
 31
0.0
  0
ARC
  5
26A
  8
0
 62
     7
 10
70.914237999999997
 20
201.5281379999999
 30
0.0
 40
1.443932999999999
 50
165.89258499999991
 51
174.77648500000001
  0
ARC
  5
26B
  8
0
 62
     7
 10
70.073860999999994
 20
201.69824299999999
 30
0.0
 40
0.588791
 50
140.1199399999999
 51
162.01090799999989
  0
ARC
  5
26C
  8
0
 62
     7
 10
70.161991999999984
 20
201.63776599999991
 30
0.0
 40
0.695271
 50
122.432084
 51
140.95218
  0
ARC
  5
26D
  8
0
 62
     7
 10
70.144322000000003
 20
201.6547599999999
 30
0.0
 40
0.6714760000000001
 50
102.74636599999999
 51
121.9371389999999
  0
LINE
  5
26E
  8
0
 62
     7
 10
69.996200000000002
 20
202.30999999999989
 30
0.0
 11
70.135000000000005
 21
202.32599999999999
 31
0.0
  0
LINE
  5
26F
  8
0
 62
     7
 10
70.135000000000005
 20
202.32599999999999
 30
0.0
 11
70.143600000000006
 21
202.32599999999999
 31
0.0
  0
ARC
  5
270
  8
0
 62
     7
 10
124.805374
 20
206.59340399999999
 30
0.0
 40
54.937303999999997
 50
181.23150100000001
 51
182.6948469999999
  0
ARC
  5
271
  8
0
 62
     7
 10
88.452753000000001
 20
204.81143599999999
 30
0.0
 40
18.541239000000001
 50
182.47596100000001
 51
186.1827539999999
  0
ARC
  5
272
  8
0
 62
     7
 10
72.000725000000003
 20
202.9648939999999
 30
0.0
 40
1.9870609999999991
 50
184.33928999999989
 51
197.23658399999999
  0
ARC
  5
273
  8
0
 62
     7
 10
70.155514999999994
 20
202.37749299999999
 30
0.0
 40
0.052629
 50
181.52400399999999
 51
256.93888700000002
  0
ARC
  5
274
  8
0
 62
     7
 10
49.980660999999991
 20
201.51374199999989
 30
0.0
 40
1.529434
 50
5.4722739999999988
 51
13.858617000000001
  0
ARC
  5
275
  8
0
 62
     7
 10
50.909255000000002
 20
201.69949399999999
 30
0.0
 40
0.5848950000000001
 50
17.984137
 51
40.039383000000001
  0
ARC
  5
276
  8
0
 62
     7
 10
50.821527000000003
 20
201.64359999999999
 30
0.0
 40
0.6881520000000001
 50
38.903252999999999
 51
57.594959000000003
  0
ARC
  5
277
  8
0
 62
     7
 10
50.832817999999989
 20
201.64858599999999
 30
0.0
 40
0.6779270000000001
 50
58.174815000000002
 51
77.208581999999993
  0
ARC
  5
278
  8
0
 62
     7
 10
50.840047999999989
 20
201.70132199999989
 30
0.0
 40
0.624916
 50
76.784514000000001
 51
89.630842999999999
  0
LINE
  5
279
  8
0
 62
     7
 10
50.844099999999997
 20
202.32599999999999
 30
0.0
 11
50.835500000000003
 21
202.32599999999999
 31
0.0
  0
ARC
  5
27A
  8
0
 62
     7
 10
50.812368999999997
 20
202.38494899999989
 30
0.0
 40
0.063101
 50
291.46606600000001
 51
346.03370099999989
  0
ARC
  5
27B
  8
0
 62
     7
 10
49.855457000000001
 20
202.74128099999999
 30
0.0
 40
1.083828
 50
339.95102700000001
 51
352.80284899999998
  0
ARC
  5
27C
  8
0
 62
     7
 10
42.526631000000002
 20
203.87277499999999
 30
0.0
 40
8.4991259999999986
 50
351.42481099999998
 51
356.17540999999989
  0
ARC
  5
27D
  8
0
 62
     7
 10
13.953792
 20
205.97039299999989
 30
0.0
 40
37.148719
 50
355.88687399999998
 51
359.13982700000003
  0
LINE
  5
27E
  8
0
 62
     7
 10
54.7209
 20
206.49299999999991
 30
0.0
 11
54.7209
 21
205.83699999999999
 31
0.0
  0
LINE
  5
27F
  8
0
 62
     7
 10
66.258600000000001
 20
206.49299999999991
 30
0.0
 11
66.258600000000001
 21
205.83699999999999
 31
0.0
  0
ARC
  5
280
  8
0
 62
     7
 10
54.467948
 20
212.20209199999991
 30
0.0
 40
0.6908950000000002
 50
271.94687999999991
 51
356.24679199999991
  0
ARC
  5
281
  8
0
 62
     7
 10
-3.791566
 20
207.1257709999999
 30
0.0
 40
58.492224999999991
 50
0.3599270000000001
 51
3.5042219999999991
  0
ARC
  5
282
  8
0
 62
     7
 10
48.246679
 20
210.33073899999999
 30
0.0
 40
6.3554079999999997
 50
3.3393419999999989
 51
10.707981999999999
  0
ARC
  5
283
  8
0
 62
     7
 10
68.907301000000004
 20
210.95573999999991
 30
0.0
 40
2.4826649999999999
 50
167.06207299999991
 51
174.23271500000001
  0
ARC
  5
284
  8
0
 62
     7
 10
80.357842000000005
 20
209.57176299999989
 30
0.0
 40
14.016147
 50
173.30747099999999
 51
176.89906300000001
  0
ARC
  5
285
  8
0
 62
     7
 10
117.13846699999991
 20
207.43118000000001
 30
0.0
 40
50.858927000000001
 50
176.73254700000001
 51
179.9300979999999
  0
ARC
  5
286
  8
0
 62
     7
 10
66.511381999999998
 20
212.20197899999991
 30
0.0
 40
0.69079
 50
183.74442500000001
 51
268.03230899999988
  0
ARC
  5
287
  8
0
 62
     7
 10
53.955264
 20
199.51222299999989
 30
0.0
 40
7.2541149999999988
 50
104.859103
 51
105.614929
  0
ARC
  5
288
  8
0
 62
     7
 10
52.392389000000001
 20
205.1863919999999
 30
0.0
 40
1.368863999999999
 50
106.541174
 51
124.84542999999999
  0
ARC
  5
289
  8
0
 62
     7
 10
52.364891999999998
 20
205.22800699999999
 30
0.0
 40
1.3189999999999991
 50
124.898022
 51
143.01869500000001
  0
ARC
  5
28A
  8
0
 62
     7
 10
52.194763999999999
 20
205.36613199999991
 30
0.0
 40
1.1000369999999999
 50
143.435237
 51
163.886662
  0
ARC
  5
28B
  8
0
 62
     7
 10
52.379229000000002
 20
205.34895900000001
 30
0.0
 40
1.282489999999999
 50
165.43699599999991
 51
177.15091200000001
  0
ARC
  5
28C
  8
0
 62
     7
 10
51.218229999999998
 20
204.67109500000001
 30
0.0
 40
0.7512410000000001
 50
43.377595999999997
 51
99.184331000000014
  0
LINE
  5
28D
  8
0
 62
     7
 10
52.445399999999999
 20
206.3479999999999
 30
0.0
 11
52.445399999999999
 21
205.83699999999999
 31
0.0
  0
ARC
  5
28E
  8
0
 62
     7
 10
68.374478999999994
 20
204.4777949999999
 30
0.0
 40
2.1085549999999991
 50
73.412835999999999
 51
76.004292000000007
  0
ARC
  5
28F
  8
0
 62
     7
 10
68.584827000000004
 20
205.181082
 30
0.0
 40
1.3744860000000001
 50
55.205387000000002
 51
73.447248000000002
  0
ARC
  5
290
  8
0
 62
     7
 10
68.622359000000003
 20
205.23736999999991
 30
0.0
 40
1.306845
 50
36.868797999999998
 51
55.148441000000012
  0
ARC
  5
291
  8
0
 62
     7
 10
68.791656000000003
 20
205.36873099999991
 30
0.0
 40
1.092597
 50
16.084123999999989
 51
36.684486
  0
ARC
  5
292
  8
0
 62
     7
 10
68.612918999999991
 20
205.35259500000001
 30
0.0
 40
1.2692639999999991
 50
2.7144360000000001
 51
14.548496999999999
  0
LINE
  5
293
  8
0
 62
     7
 10
68.534099999999995
 20
206.3479999999999
 30
0.0
 11
68.534099999999995
 21
205.83699999999999
 31
0.0
  0
ARC
  5
294
  8
0
 62
     7
 10
69.760402999999997
 20
204.67325299999999
 30
0.0
 40
0.7491830000000002
 50
80.755416999999994
 51
136.7006429999999
  0
LINE
  5
295
  8
0
 62
     7
 10
60.489699999999999
 20
204.99299999999991
 30
0.0
 11
59.048999999999999
 21
205.06899999999999
 31
0.0
  0
LINE
  5
296
  8
0
 62
     7
 10
60.489699999999999
 20
204.99299999999991
 30
0.0
 11
61.93010000000001
 21
205.06899999999999
 31
0.0
  0
LINE
  5
297
  8
0
 62
     7
 10
51.503100000000011
 20
188.32599999999991
 30
0.0
 11
51.503100000000011
 21
201.65999999999991
 31
0.0
  0
ARC
  5
298
  8
0
 62
     7
 10
35.758395999999998
 20
203.84796700000001
 30
0.0
 40
15.950818999999999
 50
354.34649300000001
 51
357.08222799999987
  0
ARC
  5
299
  8
0
 62
     7
 10
-2.6783809999999999
 20
206.0268889999999
 30
0.0
 40
54.449123
 50
356.85118799999992
 51
359.11621899999989
  0
LINE
  5
29A
  8
0
 62
     7
 10
69.476299999999995
 20
188.32599999999991
 30
0.0
 11
69.476299999999995
 21
201.65999999999991
 31
0.0
  0
ARC
  5
29B
  8
0
 62
     7
 10
140.85336299999989
 20
206.525791
 30
0.0
 40
71.650707999999995
 50
181.07061100000001
 51
182.35120499999991
  0
ARC
  5
29C
  8
0
 62
     7
 10
94.154403000000002
 20
204.53487999999999
 30
0.0
 40
24.909495
 50
182.182288
 51
185.20948599999991
  0
LINE
  5
29D
  8
0
 62
     7
 10
69.215199999999996
 20
205.18700000000001
 30
0.0
 11
69.107299999999995
 21
205.07900000000001
 31
0.0
  0
ARC
  5
29E
  8
0
 62
     7
 10
67.914520999999993
 20
205.064795
 30
0.0
 40
1.306373999999999
 50
5.369796
 51
11.83742299999999
  0
ARC
  5
29F
  8
0
 62
     7
 10
68.601325000000003
 20
205.18503200000001
 30
0.0
 40
0.609953
 50
14.017969000000001
 51
34.46246
  0
ARC
  5
2A0
  8
0
 62
     7
 10
68.515073999999998
 20
205.1371419999999
 30
0.0
 40
0.7082270000000001
 50
33.708365000000001
 51
51.770621999999989
  0
ARC
  5
2A1
  8
0
 62
     7
 10
68.546204000000003
 20
205.17879500000001
 30
0.0
 40
0.6562450000000001
 50
51.655202000000003
 51
71.36233399999999
  0
ARC
  5
2A2
  8
0
 62
     7
 10
68.51202099999999
 20
205.01100700000001
 30
0.0
 40
0.8264309999999998
 50
72.834518000000003
 51
88.471733999999998
  0
LINE
  5
2A3
  8
0
 62
     7
 10
51.764299999999992
 20
205.18700000000001
 30
0.0
 11
51.872100000000003
 21
205.07900000000001
 31
0.0
  0
ARC
  5
2A4
  8
0
 62
     7
 10
53.064906000000001
 20
205.064795
 30
0.0
 40
1.306373999999999
 50
168.16255699999999
 51
174.63018400000001
  0
ARC
  5
2A5
  8
0
 62
     7
 10
52.378101999999998
 20
205.18503200000001
 30
0.0
 40
0.609953
 50
145.53751999999989
 51
165.982011
  0
ARC
  5
2A6
  8
0
 62
     7
 10
52.453609
 20
205.1470689999999
 30
0.0
 40
0.693785
 50
128.03973799999989
 51
146.481236
  0
ARC
  5
2A7
  8
0
 62
     7
 10
52.428753999999991
 20
205.187028
 30
0.0
 40
0.647017
 50
108.495677
 51
128.48674700000001
  0
ARC
  5
2A8
  8
0
 62
     7
 10
52.486743999999987
 20
204.893517
 30
0.0
 40
0.9445339999999999
 50
92.510878999999989
 51
106.182829
  0
LINE
  5
2A9
  8
0
 62
     7
 10
59.048999999999999
 20
204.874
 30
0.0
 11
60.489699999999999
 21
204.79799999999989
 31
0.0
  0
LINE
  5
2AA
  8
0
 62
     7
 10
61.93010000000001
 20
204.874
 30
0.0
 11
60.489699999999999
 21
204.79799999999989
 31
0.0
  0
ARC
  5
2AB
  8
0
 62
     7
 10
94.191593999999995
 20
875.03292100000021
 30
0.0
 40
670.88544400000001
 50
266.9705009999999
 51
266.997342
  0
ARC
  5
2AC
  8
0
 62
     7
 10
61.409355000000012
 20
260.23819900000001
 30
0.0
 40
55.217919999999992
 50
266.97671999999989
 51
267.22405299999991
  0
ARC
  5
2AD
  8
0
 62
     7
 10
56.457289000000003
 20
169.58366499999991
 30
0.0
 40
35.571998000000001
 50
86.712733999999998
 51
86.851123999999984
  0
ARC
  5
2AE
  8
0
 62
     7
 10
57.737560999999992
 20
204.9710409999999
 30
0.0
 40
1.3150239999999991
 50
355.74814800000001
 51
4.2518519999999986
  0
LINE
  5
2AF
  8
0
 62
     7
 10
61.93010000000001
 20
205.06899999999999
 30
0.0
 11
62.244300000000003
 21
205.08500000000001
 31
0.0
  0
LINE
  5
2B0
  8
0
 62
     7
 10
62.244300000000003
 20
205.08500000000001
 30
0.0
 11
62.481999999999999
 21
205.09699999999989
 31
0.0
  0
LINE
  5
2B1
  8
0
 62
     7
 10
62.481999999999999
 20
205.09699999999989
 30
0.0
 11
62.592599999999997
 21
205.10299999999989
 31
0.0
  0
ARC
  5
2B2
  8
0
 62
     7
 10
63.348459999999989
 20
204.9710409999999
 30
0.0
 40
1.421691
 50
176.06765899999999
 51
183.93234099999989
  0
ARC
  5
2B3
  8
0
 62
     7
 10
66.286043000000006
 20
206.53069699999989
 30
0.0
 40
0.6940970000000001
 50
183.10551699999999
 51
267.73093299999988
  0
ARC
  5
2B4
  8
0
 62
     7
 10
54.693667000000012
 20
206.530045
 30
0.0
 40
0.6934350000000001
 50
272.24781100000001
 51
356.94543999999991
  0
ARC
  5
2B5
  8
0
 62
     7
 10
62.425279000000003
 20
204.95279199999999
 30
0.0
 40
0.021177
 50
305.52035999999998
 51
24.992518
  0
ARC
  5
2B6
  8
0
 62
     7
 10
62.411494999999988
 20
204.909716
 30
0.0
 40
0.061595
 50
57.629185
 51
84.632800000000003
  0
ARC
  5
2B7
  8
0
 62
     7
 10
62.392783999999992
 20
204.75549099999989
 30
0.0
 40
0.216935
 50
83.52265899999999
 51
90.451746000000014
  0
ARC
  5
2B8
  8
0
 62
     7
 10
62.394024000000002
 20
204.495
 30
0.0
 40
0.477429
 50
90.354097999999993
 51
97.862105999999997
  0
ARC
  5
2B9
  8
0
 62
     7
 10
62.388270999999989
 20
204.384557
 30
0.0
 40
0.5864160000000001
 50
95.828723999999994
 51
100.180712
  0
ARC
  5
2BA
  8
0
 62
     7
 10
62.538114
 20
203.405664
 30
0.0
 40
1.576589
 50
99.252556999999996
 51
104.5387199999999
  0
ARC
  5
2BB
  8
0
 62
     7
 10
63.123259999999988
 20
200.94045199999991
 30
0.0
 40
4.110085999999999
 50
103.807605
 51
106.8756849999999
  0
ARC
  5
2BC
  8
0
 62
     7
 10
60.51435
 20
206.54954599999999
 30
0.0
 40
2.1939410000000001
 50
269.35660299999989
 51
310.18874799999992
  0
ARC
  5
2BD
  8
0
 62
     7
 10
60.463400999999998
 20
206.54582600000001
 30
0.0
 40
2.190240999999999
 50
229.77507
 51
270.68834199999998
  0
ARC
  5
2BE
  8
0
 62
     7
 10
58.553803000000002
 20
204.95279199999999
 30
0.0
 40
0.021177
 50
155.0074449999999
 51
234.47967799999989
  0
LINE
  5
2BF
  8
0
 62
     7
 10
58.534599999999998
 20
204.9619999999999
 30
0.0
 11
58.561799999999998
 21
204.97099999999989
 31
0.0
  0
LINE
  5
2C0
  8
0
 62
     7
 10
58.561799999999998
 20
204.97099999999989
 30
0.0
 11
58.588000000000001
 21
204.97200000000001
 31
0.0
  0
LINE
  5
2C1
  8
0
 62
     7
 10
58.588000000000001
 20
204.97200000000001
 30
0.0
 11
58.650399999999998
 21
204.9679999999999
 31
0.0
  0
LINE
  5
2C2
  8
0
 62
     7
 10
58.650399999999998
 20
204.9679999999999
 30
0.0
 11
58.694499999999998
 21
204.9619999999999
 31
0.0
  0
ARC
  5
2C3
  8
0
 62
     7
 10
58.391608999999988
 20
203.16622899999999
 30
0.0
 40
1.8208729999999991
 50
75.838663999999994
 51
80.425854999999984
  0
ARC
  5
2C4
  8
0
 62
     7
 10
57.747230999999999
 20
200.55108499999989
 30
0.0
 40
4.5142179999999987
 50
73.239998999999997
 51
76.029135999999994
  0
LINE
  5
2C5
  8
0
 62
     7
 10
68.534099999999995
 20
205.83699999999999
 30
0.0
 11
66.258600000000001
 21
205.83699999999999
 31
0.0
  0
LINE
  5
2C6
  8
0
 62
     7
 10
66.258600000000001
 20
205.83699999999999
 30
0.0
 11
66.134500000000003
 21
205.72399999999999
 31
0.0
  0
LINE
  5
2C7
  8
0
 62
     7
 10
68.441400000000002
 20
205.745
 30
0.0
 11
68.534099999999995
 21
205.83699999999999
 31
0.0
  0
LINE
  5
2C8
  8
0
 62
     7
 10
52.445399999999999
 20
205.83699999999999
 30
0.0
 11
54.7209
 21
205.83699999999999
 31
0.0
  0
LINE
  5
2C9
  8
0
 62
     7
 10
52.537700000000001
 20
205.745
 30
0.0
 11
52.445399999999999
 21
205.83699999999999
 31
0.0
  0
LINE
  5
2CA
  8
0
 62
     7
 10
54.7209
 20
205.83699999999999
 30
0.0
 11
54.844900000000003
 21
205.72399999999999
 31
0.0
  0
ARC
  5
2CB
  8
0
 62
     7
 10
64.773505
 20
141.20683
 30
0.0
 40
64.532013000000006
 50
88.112180000000009
 51
88.791485999999978
  0
ARC
  5
2CC
  8
0
 62
     7
 10
56.653893000000011
 20
124.63189799999989
 30
0.0
 40
81.112764999999996
 50
91.277926000000008
 51
91.818368999999976
  0
LINE
  5
2CD
  8
0
 62
     7
 10
63.10629999999999
 20
188.32599999999991
 30
0.0
 11
63.10629999999999
 21
202.13499999999991
 31
0.0
  0
ARC
  5
2CE
  8
0
 62
     7
 10
64.624101999999993
 20
155.74696399999991
 30
0.0
 40
49.328014000000003
 50
87.777635000000004
 51
88.359399999999994
  0
ARC
  5
2CF
  8
0
 62
     7
 10
56.087185999999988
 20
163.69810799999999
 30
0.0
 40
41.372472999999999
 50
91.584646000000006
 51
92.278278999999984
  0
LINE
  5
2D0
  8
0
 62
     7
 10
57.872799999999991
 20
188.32599999999991
 30
0.0
 11
57.872799999999991
 21
202.13499999999991
 31
0.0
  0
LINE
  5
2D1
  8
0
 62
     7
 10
66.899399999999986
 20
205.70400000000001
 30
0.0
 11
66.830500000000001
 21
205.68599999999989
 31
0.0
  0
LINE
  5
2D2
  8
0
 62
     7
 10
66.830500000000001
 20
205.68599999999989
 30
0.0
 11
66.764300000000006
 21
205.64500000000001
 31
0.0
  0
LINE
  5
2D3
  8
0
 62
     7
 10
66.764300000000006
 20
205.64500000000001
 30
0.0
 11
66.702600000000004
 21
205.58199999999991
 31
0.0
  0
LINE
  5
2D4
  8
0
 62
     7
 10
66.702600000000004
 20
205.58199999999991
 30
0.0
 11
66.648499999999999
 21
205.49799999999999
 31
0.0
  0
LINE
  5
2D5
  8
0
 62
     7
 10
66.648499999999999
 20
205.49799999999999
 30
0.0
 11
66.603399999999993
 21
205.399
 31
0.0
  0
LINE
  5
2D6
  8
0
 62
     7
 10
66.603399999999993
 20
205.399
 30
0.0
 11
66.569000000000003
 21
205.28599999999989
 31
0.0
  0
LINE
  5
2D7
  8
0
 62
     7
 10
66.569000000000003
 20
205.28599999999989
 30
0.0
 11
66.546599999999984
 21
205.16399999999999
 31
0.0
  0
LINE
  5
2D8
  8
0
 62
     7
 10
66.546599999999984
 20
205.16399999999999
 30
0.0
 11
66.536900000000003
 21
205.0379999999999
 31
0.0
  0
ARC
  5
2D9
  8
0
 62
     7
 10
68.413948000000005
 20
205.0514179999999
 30
0.0
 40
0.6939390000000002
 50
2.2959399999999999
 51
87.733699000000016
  0
ARC
  5
2DA
  8
0
 62
     7
 10
67.42213000000001
 20
221.097736
 30
0.0
 40
15.402792
 50
268.05500000000001
 51
273.20107999999988
  0
ARC
  5
2DB
  8
0
 62
     7
 10
68.309092000000007
 20
206.0566189999999
 30
0.0
 40
0.33871
 50
265.45038899999997
 51
292.99127700000003
  0
LINE
  5
2DC
  8
0
 62
     7
 10
51.872100000000003
 20
188.32599999999991
 30
0.0
 11
51.872100000000003
 21
205.07900000000001
 31
0.0
  0
LINE
  5
2DD
  8
0
 62
     7
 10
54.442500000000003
 20
188.32599999999991
 30
0.0
 11
54.442500000000003
 21
205.0379999999999
 31
0.0
  0
LINE
  5
2DE
  8
0
 62
     7
 10
69.107299999999995
 20
188.32599999999991
 30
0.0
 11
69.107299999999995
 21
205.07900000000001
 31
0.0
  0
ARC
  5
2DF
  8
0
 62
     7
 10
67.403369999999995
 20
247.5568109999999
 30
0.0
 40
42.527762000000003
 50
268.83260999999987
 51
271.93819300000001
  0
ARC
  5
2E0
  8
0
 62
     7
 10
68.894317999999998
 20
205.89077900000001
 30
0.0
 40
0.8390509999999999
 50
266.40531699999991
 51
284.70677799999987
  0
LINE
  5
2E1
  8
0
 62
     7
 10
66.536900000000003
 20
188.32599999999991
 30
0.0
 11
66.536900000000003
 21
205.0379999999999
 31
0.0
  0
LINE
  5
2E2
  8
0
 62
     7
 10
54.080100000000002
 20
205.70400000000001
 30
0.0
 11
54.148999999999987
 21
205.68599999999989
 31
0.0
  0
LINE
  5
2E3
  8
0
 62
     7
 10
54.148999999999987
 20
205.68599999999989
 30
0.0
 11
54.2151
 21
205.64500000000001
 31
0.0
  0
LINE
  5
2E4
  8
0
 62
     7
 10
54.2151
 20
205.64500000000001
 30
0.0
 11
54.276400000000002
 21
205.58199999999991
 31
0.0
  0
LINE
  5
2E5
  8
0
 62
     7
 10
54.276400000000002
 20
205.58199999999991
 30
0.0
 11
54.330899999999993
 21
205.49799999999999
 31
0.0
  0
LINE
  5
2E6
  8
0
 62
     7
 10
54.330899999999993
 20
205.49799999999999
 30
0.0
 11
54.375999999999998
 21
205.399
 31
0.0
  0
LINE
  5
2E7
  8
0
 62
     7
 10
54.375999999999998
 20
205.399
 30
0.0
 11
54.410499999999999
 21
205.28599999999989
 31
0.0
  0
LINE
  5
2E8
  8
0
 62
     7
 10
54.410499999999999
 20
205.28599999999989
 30
0.0
 11
54.432899999999997
 21
205.16399999999999
 31
0.0
  0
LINE
  5
2E9
  8
0
 62
     7
 10
54.432899999999997
 20
205.16399999999999
 30
0.0
 11
54.442500000000003
 21
205.0379999999999
 31
0.0
  0
ARC
  5
2EA
  8
0
 62
     7
 10
52.741242999999997
 20
206.45033599999999
 30
0.0
 40
0.734297
 50
253.9066959999999
 51
269.71215299999989
  0
ARC
  5
2EB
  8
0
 62
     7
 10
53.486036999999989
 20
218.891547
 30
0.0
 40
13.196742999999991
 50
266.74860499999988
 51
270.44617299999987
  0
LINE
  5
2EC
  8
0
 62
     7
 10
53.588799999999999
 20
205.69499999999999
 30
0.0
 11
54.080100000000002
 21
205.70400000000001
 31
0.0
  0
ARC
  5
2ED
  8
0
 62
     7
 10
52.56465
 20
205.05226200000001
 30
0.0
 40
0.6930770000000001
 50
92.228988999999999
 51
177.77098100000001
  0
ARC
  5
2EE
  8
0
 62
     7
 10
52.20879
 20
207.03497200000001
 30
0.0
 40
1.984524
 50
260.23199499999998
 51
269.89408900000001
  0
ARC
  5
2EF
  8
0
 62
     7
 10
53.452144999999987
 20
241.639263
 30
0.0
 40
36.610056
 50
268.04800499999988
 51
270.26833399999998
  0
LINE
  5
2F0
  8
0
 62
     7
 10
53.623600000000003
 20
205.03
 30
0.0
 11
54.442500000000003
 21
205.0379999999999
 31
0.0
  0
ARC
  5
2F1
  8
0
 62
     7
 10
62.306151
 20
208.27351100000001
 30
0.0
 40
5.0555050000000001
 50
214.548677
 51
215.742445
  0
ARC
  5
2F2
  8
0
 62
     7
 10
60.307025000000003
 20
206.84073000000001
 30
0.0
 40
2.5959680000000001
 50
215.8496309999999
 51
222.8346019999999
  0
LINE
  5
2F3
  8
0
 62
     7
 10
58.403399999999998
 20
205.07599999999991
 30
0.0
 11
58.405099999999997
 21
205.07400000000001
 31
0.0
  0
ARC
  5
2F4
  8
0
 62
     7
 10
58.406054000000012
 20
208.461636
 30
0.0
 40
5.3822890000000001
 50
324.293815
 51
325.41510199999999
  0
ARC
  5
2F5
  8
0
 62
     7
 10
60.699727000000003
 20
206.818332
 30
0.0
 40
2.5607029999999988
 50
317.11725999999987
 51
324.19854800000002
  0
ARC
  5
2F6
  8
0
 62
     7
 10
63.888776999999997
 20
203.78671900000001
 30
0.0
 40
1.839793999999999
 50
135.52072200000001
 51
136.69687300000001
  0
ARC
  5
2F7
  8
0
 62
     7
 10
52.726459999999989
 20
204.51460499999999
 30
0.0
 40
11.003192
 50
15.817997999999999
 51
19.092099999999991
  0
ARC
  5
2F8
  8
0
 62
     7
 10
60.540774999999996
 20
207.15326599999989
 30
0.0
 40
2.756343999999999
 50
20.390277999999991
 51
27.899725
  0
ARC
  5
2F9
  8
0
 62
     7
 10
60.671456999999997
 20
207.20566400000001
 30
0.0
 40
2.6163759999999989
 50
28.224751999999999
 51
50.011369999999992
  0
ARC
  5
2FA
  8
0
 62
     7
 10
60.347211999999992
 20
206.92261999999999
 30
0.0
 40
3.042335
 50
48.758255999999989
 51
67.645921999999999
  0
ARC
  5
2FB
  8
0
 62
     7
 10
60.011029000000001
 20
205.90308400000001
 30
0.0
 40
4.1138329999999996
 50
68.716181000000006
 51
73.984725999999995
  0
ARC
  5
2FC
  8
0
 62
     7
 10
68.110501999999997
 20
204.56630899999999
 30
0.0
 40
10.852033
 50
160.96081299999989
 51
164.23960099999991
  0
ARC
  5
2FD
  8
0
 62
     7
 10
60.471780000000003
 20
207.13923799999989
 30
0.0
 40
2.792492999999999
 50
152.167236
 51
159.73614900000001
  0
ARC
  5
2FE
  8
0
 62
     7
 10
60.307625999999999
 20
207.20566400000001
 30
0.0
 40
2.6163759999999989
 50
129.98861099999999
 51
151.775228
  0
ARC
  5
2FF
  8
0
 62
     7
 10
60.637678000000001
 20
206.9124909999999
 30
0.0
 40
3.0537809999999999
 50
112.37657900000001
 51
131.198373
  0
ARC
  5
300
  8
0
 62
     7
 10
61.012279999999997
 20
205.77306200000001
 30
0.0
 40
4.2509189999999997
 50
106.1002629999999
 51
111.19879
  0
LINE
  5
301
  8
0
 62
     7
 10
57.780799999999999
 20
206.03399999999999
 30
0.0
 11
57.666400000000003
 21
206.47200000000001
 31
0.0
  0
LINE
  5
302
  8
0
 62
     7
 10
63.198599999999999
 20
206.03399999999999
 30
0.0
 11
63.313000000000002
 21
206.47200000000001
 31
0.0
  0
ARC
  5
303
  8
0
 62
     7
 10
57.493862
 20
207.25450799999999
 30
0.0
 40
5.871491999999999
 50
352.342039
 51
357.36632200000003
  0
ARC
  5
304
  8
0
 62
     7
 10
60.316634999999998
 20
206.985883
 30
0.0
 40
3.0425169999999988
 50
359.9779509999999
 51
9.9937210000000007
  0
ARC
  5
305
  8
0
 62
     7
 10
60.518821000000003
 20
207.1434459999999
 30
0.0
 40
2.943678999999999
 50
216.16116199999999
 51
301.94165600000002
  0
ARC
  5
306
  8
0
 62
     7
 10
60.487444000000004
 20
206.99524999999991
 30
0.0
 40
2.8364660000000002
 50
304.063715
 51
325.93629399999992
  0
ARC
  5
307
  8
0
 62
     7
 10
62.291356000000007
 20
208.40097
 30
0.0
 40
5.1168579999999997
 50
211.77417700000001
 51
215.81825299999991
  0
ARC
  5
308
  8
0
 62
     7
 10
60.333556000000009
 20
207.08192399999999
 30
0.0
 40
2.759382
 50
202.31471899999991
 51
209.895995
  0
ARC
  5
309
  8
0
 62
     7
 10
63.485565000000001
 20
207.25450799999999
 30
0.0
 40
5.871491999999999
 50
182.63369800000001
 51
187.65798099999989
  0
ARC
  5
30A
  8
0
 62
     7
 10
60.662779999999998
 20
206.985884
 30
0.0
 40
3.0425049999999989
 50
170.00623899999999
 51
180.02208799999991
  0
ARC
  5
30B
  8
0
 62
     7
 10
58.410389000000002
 20
208.58683600000001
 30
0.0
 40
5.4508080000000003
 50
324.30569600000001
 51
328.10191400000002
  0
ARC
  5
30C
  8
0
 62
     7
 10
60.645871
 20
207.08192399999999
 30
0.0
 40
2.759382
 50
330.10402499999992
 51
337.68530099999998
  0
ARC
  5
30D
  8
0
 62
     7
 10
68.899761999999996
 20
211.537622
 30
0.0
 40
3.1393749999999989
 50
168.62373999999991
 51
174.771962
  0
ARC
  5
30E
  8
0
 62
     7
 10
83.462143000000012
 20
209.97591899999989
 30
0.0
 40
17.784942999999998
 50
174.0364909999999
 51
177.27943500000001
  0
ARC
  5
30F
  8
0
 62
     7
 10
131.58171200000001
 20
207.4998249999999
 30
0.0
 40
65.968075999999996
 50
177.1149979999999
 51
180.00576399999991
  0
LINE
  5
310
  8
0
 62
     7
 10
65.822100000000006
 20
212.15700000000001
 30
0.0
 11
65.822100000000006
 21
214.10299999999989
 31
0.0
  0
LINE
  5
311
  8
0
 62
     7
 10
55.157400000000003
 20
214.10299999999989
 30
0.0
 11
55.157400000000003
 21
212.15700000000001
 31
0.0
  0
ARC
  5
312
  8
0
 62
     7
 10
-22.367636999999998
 20
207.11976199999989
 30
0.0
 40
77.734324999999998
 50
0.27526
 51
2.9976599999999989
  0
ARC
  5
313
  8
0
 62
     7
 10
46.608972999999999
 20
210.75990200000001
 30
0.0
 40
8.6617809999999995
 50
2.8123409999999991
 51
9.2811500000000002
  0
ARC
  5
314
  8
0
 62
     7
 10
54.464002000000001
 20
214.07489200000001
 30
0.0
 40
0.693915
 50
2.2940969999999998
 51
87.735542000000009
  0
LINE
  5
315
  8
0
 62
     7
 10
55.157400000000003
 20
214.10299999999989
 30
0.0
 11
55.54529999999999
 21
214.4909999999999
 31
0.0
  0
LINE
  5
316
  8
0
 62
     7
 10
65.822100000000006
 20
214.10299999999989
 30
0.0
 11
65.434100000000001
 21
214.4909999999999
 31
0.0
  0
ARC
  5
317
  8
0
 62
     7
 10
66.514618999999996
 20
214.07571299999989
 30
0.0
 40
0.6930770000000001
 50
92.228988999999999
 51
177.77098100000001
  0
ARC
  5
318
  8
0
 62
     7
 10
54.816875000000003
 20
206.41791399999991
 30
0.0
 40
0.6939920000000001
 50
272.31342299999989
 51
358.10027300000002
  0
ARC
  5
319
  8
0
 62
     7
 10
54.766308999999993
 20
206.38545500000001
 30
0.0
 40
0.744236
 50
0.727799
 51
5.8301720000000001
  0
LINE
  5
31A
  8
0
 62
     7
 10
54.844900000000003
 20
205.72399999999999
 30
0.0
 11
54.831499999999998
 21
205.71899999999999
 31
0.0
  0
ARC
  5
31B
  8
0
 62
     7
 10
54.890864000000001
 20
205.62033400000001
 30
0.0
 40
0.115447
 50
120.97202900000001
 51
161.8612139999999
  0
ARC
  5
31C
  8
0
 62
     7
 10
55.082848999999989
 20
205.5204929999999
 30
0.0
 40
0.330843
 50
155.76919399999991
 51
175.0340239999999
  0
ARC
  5
31D
  8
0
 62
     7
 10
55.238395999999987
 20
205.501417
 30
0.0
 40
0.487488
 50
174.382926
 51
185.61707399999989
  0
ARC
  5
31E
  8
0
 62
     7
 10
55.255414000000002
 20
205.500066
 30
0.0
 40
0.504301
 50
185.27510499999991
 51
190.2143539999999
  0
ARC
  5
31F
  8
0
 62
     7
 10
55.356285
 20
205.52356
 30
0.0
 40
0.6077620000000001
 50
190.707742
 51
200.776374
  0
ARC
  5
320
  8
0
 62
     7
 10
55.418940999999997
 20
205.54410299999989
 30
0.0
 40
0.673638
 50
200.51964099999989
 51
207.25339299999999
  0
ARC
  5
321
  8
0
 62
     7
 10
55.611837000000001
 20
205.64569
 30
0.0
 40
0.891641
 50
207.380492
 51
218.475266
  0
ARC
  5
322
  8
0
 62
     7
 10
56.010871999999999
 20
205.949105
 30
0.0
 40
1.392855999999999
 50
218.03372300000001
 51
219.948296
  0
ARC
  5
323
  8
0
 62
     7
 10
66.165433999999991
 20
206.41565399999999
 30
0.0
 40
0.694533
 50
176.2519649999999
 51
261.96817299999992
  0
LINE
  5
324
  8
0
 62
     7
 10
66.068399999999997
 20
205.72799999999989
 30
0.0
 11
66.134500000000003
 21
205.72399999999999
 31
0.0
  0
LINE
  5
325
  8
0
 62
     7
 10
66.134500000000003
 20
205.72399999999999
 30
0.0
 11
66.147999999999996
 21
205.71899999999999
 31
0.0
  0
ARC
  5
326
  8
0
 62
     7
 10
66.082103000000004
 20
205.61581499999991
 30
0.0
 40
0.122689
 50
19.255566000000002
 51
57.52749699999999
  0
ARC
  5
327
  8
0
 62
     7
 10
65.896232999999995
 20
205.5204929999999
 30
0.0
 40
0.330843
 50
4.9659559999999994
 51
24.230785999999998
  0
ARC
  5
328
  8
0
 62
     7
 10
65.775735999999995
 20
205.4997919999999
 30
0.0
 40
0.452794
 50
354.15781900000002
 51
6.2558669999999976
  0
ARC
  5
329
  8
0
 62
     7
 10
65.738131999999993
 20
205.502002
 30
0.0
 40
0.4904310000000001
 50
349.26342899999997
 51
354.34804600000001
  0
ARC
  5
32A
  8
0
 62
     7
 10
65.652115000000009
 20
205.51348699999991
 30
0.0
 40
0.5771
 50
339.13832300000001
 51
349.73414300000002
  0
ARC
  5
32B
  8
0
 62
     7
 10
65.511955
 20
205.56867700000001
 30
0.0
 40
0.727727
 50
332.76390900000001
 51
339.0077
  0
ARC
  5
32C
  8
0
 62
     7
 10
65.391598000000002
 20
205.62831399999999
 30
0.0
 40
0.8620359999999999
 50
321.43607200000002
 51
332.90063800000001
  0
ARC
  5
32D
  8
0
 62
     7
 10
64.278515999999996
 20
206.50770700000001
 30
0.0
 40
2.2805810000000002
 50
320.42436800000002
 51
321.59365200000002
  0
ARC
  5
32E
  8
0
 62
     7
 10
55.847243000000013
 20
203.39080599999991
 30
0.0
 40
1.893740999999999
 50
90.015540000000016
 51
118.5190259999999
  0
ARC
  5
32F
  8
0
 62
     7
 10
65.800066999999999
 20
210.5595209999999
 30
0.0
 40
12.172784999999999
 50
206.88615200000001
 51
212.23278500000001
  0
ARC
  5
330
  8
0
 62
     7
 10
59.369916000000003
 20
206.76973699999999
 30
0.0
 40
4.7175909999999996
 50
214.95252500000001
 51
225.01892100000001
  0
ARC
  5
331
  8
0
 62
     7
 10
60.507927000000002
 20
207.80775799999989
 30
0.0
 40
6.2566589999999991
 50
224.36678099999989
 51
232.23635499999989
  0
ARC
  5
332
  8
0
 62
     7
 10
60.341481000000009
 20
207.594978
 30
0.0
 40
5.9865149999999989
 50
232.24855899999989
 51
238.9268459999999
  0
ARC
  5
333
  8
0
 62
     7
 10
61.193252000000001
 20
209.08543599999999
 30
0.0
 40
7.7028339999999993
 50
239.22232700000001
 51
244.46462
  0
ARC
  5
334
  8
0
 62
     7
 10
65.132947000000001
 20
203.39380799999989
 30
0.0
 40
1.8907389999999991
 50
61.45783800000001
 51
90.017988000000017
  0
ARC
  5
335
  8
0
 62
     7
 10
55.115656000000001
 20
210.59926400000001
 30
0.0
 40
12.247577
 50
327.76805499999989
 51
333.08281099999999
  0
ARC
  5
336
  8
0
 62
     7
 10
61.638736000000002
 20
206.74314200000001
 30
0.0
 40
4.6781199999999989
 50
314.95815800000003
 51
325.106987
  0
ARC
  5
337
  8
0
 62
     7
 10
60.450203000000002
 20
207.83166199999999
 30
0.0
 40
6.2885989999999987
 50
307.78368099999989
 51
315.61322199999989
  0
ARC
  5
338
  8
0
 62
     7
 10
60.626171999999997
 20
207.612165
 30
0.0
 40
6.007312999999999
 50
301.08474699999988
 51
307.73988700000001
  0
ARC
  5
339
  8
0
 62
     7
 10
59.81859
 20
209.02827899999991
 30
0.0
 40
7.6371409999999997
 50
295.49848100000003
 51
300.78818100000001
  0
ARC
  5
33A
  8
0
 62
     7
 10
57.310014000000002
 20
202.559022
 30
0.0
 40
0.704633
 50
323.00583299999988
 51
12.401958
  0
ARC
  5
33B
  8
0
 62
     7
 10
57.525969000000003
 20
212.326154
 30
0.0
 40
11.61891
 50
294.68666699999989
 51
298.70358900000002
  0
ARC
  5
33C
  8
0
 62
     7
 10
60.627531999999988
 20
205.94380299999989
 30
0.0
 40
4.5270549999999998
 50
282.28499499999998
 51
292.75656499999991
  0
ARC
  5
33D
  8
0
 62
     7
 10
60.471237000000002
 20
206.52415300000001
 30
0.0
 40
5.1274550000000003
 50
270.20647200000002
 51
282.61164600000001
  0
ARC
  5
33E
  8
0
 62
     7
 10
60.490076000000002
 20
206.365287
 30
0.0
 40
4.9685550000000003
 50
264.72840600000001
 51
269.99582500000002
  0
ARC
  5
33F
  8
0
 62
     7
 10
60.496327000000001
 20
206.40686599999989
 30
0.0
 40
5.0105329999999997
 50
259.33654499999989
 51
264.70091200000002
  0
ARC
  5
340
  8
0
 62
     7
 10
60.458904000000011
 20
206.26492400000001
 30
0.0
 40
4.8641290000000001
 50
248.6134789999999
 51
259.46036700000002
  0
ARC
  5
341
  8
0
 62
     7
 10
60.989451000000003
 20
207.449859
 30
0.0
 40
6.161249999999999
 50
239.61243699999989
 51
248.0376719999999
  0
ARC
  5
342
  8
0
 62
     7
 10
63.672561000000002
 20
202.55978400000001
 30
0.0
 40
0.707883
 50
167.718929
 51
216.87328099999991
  0
LINE
  5
343
  8
0
 62
     7
 10
55.54529999999999
 20
214.4909999999999
 30
0.0
 11
55.54529999999999
 21
207.49299999999999
 31
0.0
  0
LINE
  5
344
  8
0
 62
     7
 10
65.434100000000001
 20
214.4909999999999
 30
0.0
 11
65.434100000000001
 21
207.49299999999999
 31
0.0
  0
LINE
  5
345
  8
0
 62
     7
 10
56.210900000000002
 20
210.51799999999989
 30
0.0
 11
56.210900000000002
 21
214.55699999999999
 31
0.0
  0
LINE
  5
346
  8
0
 62
     7
 10
64.768199999999993
 20
210.51799999999989
 30
0.0
 11
64.768199999999993
 21
214.55699999999999
 31
0.0
  0
LINE
  5
347
  8
0
 62
     7
 10
56.210900000000002
 20
216.65999999999991
 30
0.0
 11
64.768199999999993
 21
216.65999999999991
 31
0.0
  0
LINE
  5
348
  8
0
 62
     7
 10
64.768199999999993
 20
216.52099999999999
 30
0.0
 11
56.210900000000002
 21
216.52099999999999
 31
0.0
  0
LINE
  5
349
  8
0
 62
     7
 10
59.833399999999997
 20
209.857
 30
0.0
 11
59.975700000000003
 21
209.87599999999989
 31
0.0
  0
LINE
  5
34A
  8
0
 62
     7
 10
61.146000000000001
 20
209.857
 30
0.0
 11
60.994399999999999
 21
209.87799999999999
 31
0.0
  0
ARC
  5
34B
  8
0
 62
     7
 10
60.489713000000002
 20
206.99298099999999
 30
0.0
 40
2.938496999999999
 50
102.905478
 51
192.90552700000001
  0
ARC
  5
34C
  8
0
 62
     7
 10
60.489766000000003
 20
206.99306499999989
 30
0.0
 40
2.9385680000000001
 50
192.90688599999999
 51
282.90413899999999
  0
ARC
  5
34D
  8
0
 62
     7
 10
60.489629000000001
 20
206.993033
 30
0.0
 40
2.9385680000000001
 50
282.9068759999999
 51
12.90412899999999
  0
ARC
  5
34E
  8
0
 62
     7
 10
60.432963999999998
 20
206.93623099999991
 30
0.0
 40
3.0067909999999989
 50
13.71807999999999
 51
76.281909999999996
  0
ARC
  5
34F
  8
0
 62
     7
 10
54.852528999999997
 20
214.46343399999989
 30
0.0
 40
0.6932840000000001
 50
2.2447799999999991
 51
87.755209999999991
  0
ARC
  5
350
  8
0
 62
     7
 10
56.209817999999999
 20
209.02038200000001
 30
0.0
 40
5.5363540000000002
 50
89.989026999999993
 51
94.624328000000006
  0
ARC
  5
351
  8
0
 62
     7
 10
55.738500000000002
 20
214.1332359999999
 30
0.0
 40
0.4062450000000001
 50
86.476853000000006
 51
118.39986999999989
  0
ARC
  5
352
  8
0
 62
     7
 10
65.372783999999996
 20
214.428887
 30
0.0
 40
0.08702
 50
45.15831699999999
 51
88.279856000000009
  0
ARC
  5
353
  8
0
 62
     7
 10
65.000707999999989
 20
212.52795599999999
 30
0.0
 40
2.0229149999999998
 50
79.325937999999994
 51
88.661719999999974
  0
ARC
  5
354
  8
0
 62
     7
 10
64.802921999999995
 20
209.96889100000001
 30
0.0
 40
4.5879760000000003
 50
86.938524999999998
 51
90.433559000000017
  0
ARC
  5
355
  8
0
 62
     7
 10
66.126699000000002
 20
214.46363299999999
 30
0.0
 40
0.6930770000000001
 50
92.228988999999999
 51
177.77098100000001
  0
ARC
  5
356
  8
0
 62
     7
 10
65.797305000000009
 20
214.79472200000001
 30
0.0
 40
0.4253210000000001
 50
106.0887069999999
 51
116.77360299999999
  0
ARC
  5
357
  8
0
 62
     7
 10
66.055514000000002
 20
214.34934199999989
 30
0.0
 40
0.9397429999999999
 50
118.59682599999999
 51
124.79628599999999
  0
ARC
  5
358
  8
0
 62
     7
 10
68.495582999999996
 20
210.662139
 30
0.0
 40
5.3610129999999989
 50
123.723304
 51
124.033749
  0
ARC
  5
359
  8
0
 62
     7
 10
66.992844999999988
 20
213.03206900000001
 30
0.0
 40
2.5572650000000001
 50
125.8505309999999
 51
129.718886
  0
ARC
  5
35A
  8
0
 62
     7
 10
40.404384999999991
 20
245.62949499999999
 30
0.0
 40
39.508727999999998
 50
308.64037000000002
 51
309.16939600000001
  0
ARC
  5
35B
  8
0
 62
     7
 10
62.886223999999999
 20
217.6574609999999
 30
0.0
 40
3.623181999999999
 50
304.354242
 51
307.16076600000008
  0
ARC
  5
35C
  8
0
 62
     7
 10
61.961815000000001
 20
218.94912199999999
 30
0.0
 40
5.211295999999999
 50
303.686691
 51
304.730977
  0
ARC
  5
35D
  8
0
 62
     7
 10
60.049228999999997
 20
221.69910899999999
 30
0.0
 40
8.5605869999999982
 50
303.47454499999998
 51
304.129414
  0
LINE
  5
35E
  8
0
 62
     7
 10
64.771000000000001
 20
214.55799999999991
 30
0.0
 11
64.768199999999993
 21
214.55699999999999
 31
0.0
  0
ARC
  5
35F
  8
0
 62
     7
 10
55.197347999999998
 20
214.83351200000001
 30
0.0
 40
0.38385
 50
62.647224000000001
 51
74.490425999999999
  0
ARC
  5
360
  8
0
 62
     7
 10
54.904860999999997
 20
214.31849099999999
 30
0.0
 40
0.975951
 50
55.318801000000001
 51
61.288046999999999
  0
LINE
  5
361
  8
0
 62
     7
 10
55.4602
 20
215.1209999999999
 30
0.0
 11
55.483999999999988
 21
215.10499999999999
 31
0.0
  0
ARC
  5
362
  8
0
 62
     7
 10
53.972358999999997
 20
213.00879900000001
 30
0.0
 40
2.5842559999999999
 50
50.368231000000009
 51
54.202213
  0
ARC
  5
363
  8
0
 62
     7
 10
76.840581
 20
241.00213299999999
 30
0.0
 40
33.562484999999988
 50
230.78376
 51
231.40651399999999
  0
ARC
  5
364
  8
0
 62
     7
 10
58.126283999999998
 20
217.70340200000001
 30
0.0
 40
3.6797779999999989
 50
232.86083999999991
 51
235.62419199999991
  0
ARC
  5
365
  8
0
 62
     7
 10
59.507398999999999
 20
219.647773
 30
0.0
 40
6.0645179999999987
 50
235.2266589999999
 51
236.121331
  0
LINE
  5
366
  8
0
 62
     7
 10
56.12680000000001
 20
214.61299999999989
 30
0.0
 11
56.208500000000001
 21
214.55799999999991
 31
0.0
  0
LINE
  5
367
  8
0
 62
     7
 10
56.208500000000001
 20
214.55799999999991
 30
0.0
 11
56.210900000000002
 21
214.55699999999999
 31
0.0
  0
LINE
  5
368
  8
0
 62
     7
 10
64.768199999999993
 20
214.55699999999999
 30
0.0
 11
64.768199999999993
 21
216.52099999999999
 31
0.0
  0
LINE
  5
369
  8
0
 62
     7
 10
64.768199999999993
 20
214.55699999999999
 30
0.0
 11
64.769199999999984
 21
214.55999999999989
 31
0.0
  0
LINE
  5
36A
  8
0
 62
     7
 10
64.769199999999984
 20
214.55999999999989
 30
0.0
 11
64.796800000000005
 21
214.64099999999991
 31
0.0
  0
LINE
  5
36B
  8
0
 62
     7
 10
64.796800000000005
 20
214.64099999999991
 30
0.0
 11
64.824700000000007
 21
214.72200000000001
 31
0.0
  0
ARC
  5
36C
  8
0
 62
     7
 10
69.714590999999999
 20
212.97574399999999
 30
0.0
 40
5.1923750000000002
 50
158.48656199999999
 51
160.346484
  0
ARC
  5
36D
  8
0
 62
     7
 10
67.178130999999993
 20
213.961592
 30
0.0
 40
2.47113
 50
149.13772299999991
 51
158.18506999999991
  0
ARC
  5
36E
  8
0
 62
     7
 10
66.134726999999984
 20
214.55992900000001
 30
0.0
 40
1.2687209999999991
 50
139.17118699999989
 51
148.1610169999999
  0
ARC
  5
36F
  8
0
 62
     7
 10
65.763459999999995
 20
214.87018399999999
 30
0.0
 40
0.784992
 50
127.39820400000001
 51
138.589054
  0
LINE
  5
370
  8
0
 62
     7
 10
65.286699999999996
 20
215.494
 30
0.0
 11
65.305000000000007
 21
215.50599999999989
 31
0.0
  0
ARC
  5
371
  8
0
 62
     7
 10
65.456485999999984
 20
215.25349999999989
 30
0.0
 40
0.294364
 50
105.9532549999999
 51
120.9825179999999
  0
LINE
  5
372
  8
0
 62
     7
 10
56.210900000000002
 20
214.55699999999999
 30
0.0
 11
56.209800000000001
 21
214.55999999999989
 31
0.0
  0
ARC
  5
373
  8
0
 62
     7
 10
48.659517999999998
 20
212.07794899999999
 30
0.0
 40
7.9478869999999988
 50
18.198703999999999
 51
18.816794999999999
  0
ARC
  5
374
  8
0
 62
     7
 10
46.471786000000002
 20
211.28379899999999
 30
0.0
 40
10.27494499999999
 50
19.073685000000001
 51
19.550022999999999
  0
ARC
  5
375
  8
0
 62
     7
 10
52.564221999999987
 20
213.46385299999989
 30
0.0
 40
3.804262
 50
19.314121
 51
21.852792999999991
  0
ARC
  5
376
  8
0
 62
     7
 10
53.84341899999999
 20
213.984667
 30
0.0
 40
2.4231349999999989
 50
21.681529999999992
 51
30.904838000000002
  0
ARC
  5
377
  8
0
 62
     7
 10
54.789294999999989
 20
214.51917999999989
 30
0.0
 40
1.3372969999999991
 50
32.06989999999999
 51
40.597856999999991
  0
ARC
  5
378
  8
0
 62
     7
 10
55.221524000000002
 20
214.87459100000001
 30
0.0
 40
0.777909
 50
41.438268999999991
 51
52.750006999999997
  0
ARC
  5
379
  8
0
 62
     7
 10
55.564770000000003
 20
215.32041099999989
 30
0.0
 40
0.215297
 50
53.647300999999999
 51
59.472947999999988
  0
ARC
  5
37A
  8
0
 62
     7
 10
55.531139000000003
 20
215.27317500000001
 30
0.0
 40
0.273113
 50
58.428966000000003
 51
74.635221999999985
  0
LINE
  5
37B
  8
0
 62
     7
 10
56.210900000000002
 20
214.55699999999999
 30
0.0
 11
56.210900000000002
 21
216.52099999999999
 31
0.0
  0
ARC
  5
37C
  8
0
 62
     7
 10
60.489541000000003
 20
206.9931519999999
 30
0.0
 40
5.5438359999999989
 50
39.48531899999999
 51
129.48528899999999
  0
ARC
  5
37D
  8
0
 62
     7
 10
60.518200999999998
 20
206.96449299999989
 30
0.0
 40
5.584179999999999
 50
129.525263
 51
140.47470699999991
  0
ARC
  5
37E
  8
0
 62
     7
 10
65.715835999999996
 20
215.54172899999989
 30
0.0
 40
0.340297
 50
180.87589800000001
 51
263.85997400000002
  0
ARC
  5
37F
  8
0
 62
     7
 10
65.389189000000002
 20
215.59444500000001
 30
0.0
 40
0.059496
 50
256.77586400000001
 51
319.07999099999989
  0
ARC
  5
380
  8
0
 62
     7
 10
55.263570999999999
 20
215.54139499999999
 30
0.0
 40
0.339967
 50
276.14937700000002
 51
359.17951199999999
  0
ARC
  5
381
  8
0
 62
     7
 10
55.637300000000003
 20
215.7392999999999
 30
0.0
 40
0.20557
 50
243.40834099999989
 51
260.5373689999999
  0
LINE
  5
382
  8
0
 62
     7
 10
65.340100000000007
 20
207.49299999999999
 30
0.0
 11
65.599500000000006
 21
207.49299999999999
 31
0.0
  0
LINE
  5
383
  8
0
 62
     7
 10
65.599500000000006
 20
206.49299999999991
 30
0.0
 11
65.340100000000007
 21
206.49299999999991
 31
0.0
  0
LINE
  5
384
  8
0
 62
     7
 10
55.379600000000003
 20
206.49299999999991
 30
0.0
 11
55.639000000000003
 21
206.49299999999991
 31
0.0
  0
LINE
  5
385
  8
0
 62
     7
 10
55.639000000000003
 20
207.49299999999999
 30
0.0
 11
55.379600000000003
 21
207.49299999999999
 31
0.0
  0
LINE
  5
386
  8
0
 62
     7
 10
64.768199999999993
 20
216.65999999999991
 30
0.0
 11
65.007300000000001
 21
216.65999999999991
 31
0.0
  0
LINE
  5
387
  8
0
 62
     7
 10
65.007300000000001
 20
216.65999999999991
 30
0.0
 11
65.219200000000001
 21
216.65999999999991
 31
0.0
  0
LINE
  5
388
  8
0
 62
     7
 10
65.219200000000001
 20
216.65999999999991
 30
0.0
 11
65.381799999999998
 21
216.65999999999991
 31
0.0
  0
LINE
  5
389
  8
0
 62
     7
 10
65.381799999999998
 20
216.65999999999991
 30
0.0
 11
65.406899999999993
 21
216.65999999999991
 31
0.0
  0
LINE
  5
38A
  8
0
 62
     7
 10
64.768199999999993
 20
216.65999999999991
 30
0.0
 11
64.768199999999993
 21
216.52099999999999
 31
0.0
  0
ARC
  5
38B
  8
0
 62
     7
 10
65.367870999999994
 20
216.37520000000001
 30
0.0
 40
0.116644
 50
55.376877
 51
91.282955999999984
  0
ARC
  5
38C
  8
0
 62
     7
 10
64.868094999999997
 20
212.41420699999989
 30
0.0
 40
4.107804999999999
 50
83.048479
 51
91.393398000000005
  0
LINE
  5
38D
  8
0
 62
     7
 10
55.573500000000003
 20
216.65999999999991
 30
0.0
 11
55.68889999999999
 21
216.65999999999991
 31
0.0
  0
LINE
  5
38E
  8
0
 62
     7
 10
55.68889999999999
 20
216.65999999999991
 30
0.0
 11
55.8874
 21
216.65999999999991
 31
0.0
  0
LINE
  5
38F
  8
0
 62
     7
 10
55.8874
 20
216.65999999999991
 30
0.0
 11
56.121299999999998
 21
216.65999999999991
 31
0.0
  0
LINE
  5
390
  8
0
 62
     7
 10
56.121299999999998
 20
216.65999999999991
 30
0.0
 11
56.210900000000002
 21
216.65999999999991
 31
0.0
  0
ARC
  5
391
  8
0
 62
     7
 10
56.211781000000009
 20
209.47210100000001
 30
0.0
 40
7.0486949999999986
 50
90.007333000000003
 51
94.129794000000004
  0
ARC
  5
392
  8
0
 62
     7
 10
55.664468000000006
 20
216.28513199999989
 30
0.0
 40
0.220957
 50
79.651343999999995
 51
122.643531
  0
LINE
  5
393
  8
0
 62
     7
 10
56.210900000000002
 20
216.65999999999991
 30
0.0
 11
56.210900000000002
 21
216.52099999999999
 31
0.0
  0
ARC
  5
394
  8
0
 62
     7
 10
44.912053999999998
 20
203.26672400000001
 30
0.0
 40
21.1389
 50
17.439344999999989
 51
20.062646999999998
  0
ARC
  5
395
  8
0
 62
     7
 10
57.31024399999999
 20
207.34370999999999
 30
0.0
 40
8.0906079999999996
 50
5.1106169999999986
 51
16.207744000000002
  0
ARC
  5
396
  8
0
 62
     7
 10
48.894739000000001
 20
206.39569499999999
 30
0.0
 40
16.558250000000001
 50
3.8004730000000002
 51
5.7840049999999996
  0
LINE
  5
397
  8
0
 62
     7
 10
64.768199999999993
 20
210.51799999999989
 30
0.0
 11
64.671099999999996
 21
210.4379999999999
 31
0.0
  0
LINE
  5
398
  8
0
 62
     7
 10
64.671099999999996
 20
210.4379999999999
 30
0.0
 11
64.577699999999993
 21
210.3609999999999
 31
0.0
  0
LINE
  5
399
  8
0
 62
     7
 10
64.577699999999993
 20
210.3609999999999
 30
0.0
 11
64.490899999999996
 21
210.28999999999991
 31
0.0
  0
LINE
  5
39A
  8
0
 62
     7
 10
64.490899999999996
 20
210.28999999999991
 30
0.0
 11
64.414000000000001
 21
210.22699999999989
 31
0.0
  0
LINE
  5
39B
  8
0
 62
     7
 10
64.414000000000001
 20
210.22699999999989
 30
0.0
 11
64.349999999999994
 21
210.17399999999989
 31
0.0
  0
LINE
  5
39C
  8
0
 62
     7
 10
64.349999999999994
 20
210.17399999999989
 30
0.0
 11
64.301000000000002
 21
210.1339999999999
 31
0.0
  0
LINE
  5
39D
  8
0
 62
     7
 10
64.301000000000002
 20
210.1339999999999
 30
0.0
 11
64.268699999999995
 21
210.10699999999991
 31
0.0
  0
LINE
  5
39E
  8
0
 62
     7
 10
64.268699999999995
 20
210.10699999999991
 30
0.0
 11
64.254499999999993
 21
210.095
 31
0.0
  0
LINE
  5
39F
  8
0
 62
     7
 10
56.210900000000002
 20
210.51799999999989
 30
0.0
 11
56.308
 21
210.4379999999999
 31
0.0
  0
LINE
  5
3A0
  8
0
 62
     7
 10
56.308
 20
210.4379999999999
 30
0.0
 11
56.401699999999998
 21
210.3609999999999
 31
0.0
  0
LINE
  5
3A1
  8
0
 62
     7
 10
56.401699999999998
 20
210.3609999999999
 30
0.0
 11
56.488599999999991
 21
210.28999999999991
 31
0.0
  0
LINE
  5
3A2
  8
0
 62
     7
 10
56.488599999999991
 20
210.28999999999991
 30
0.0
 11
56.564999999999998
 21
210.22699999999989
 31
0.0
  0
LINE
  5
3A3
  8
0
 62
     7
 10
56.564999999999998
 20
210.22699999999989
 30
0.0
 11
56.6295
 21
210.17399999999989
 31
0.0
  0
LINE
  5
3A4
  8
0
 62
     7
 10
56.6295
 20
210.17399999999989
 30
0.0
 11
56.678400000000003
 21
210.1339999999999
 31
0.0
  0
LINE
  5
3A5
  8
0
 62
     7
 10
56.678400000000003
 20
210.1339999999999
 30
0.0
 11
56.7104
 21
210.10699999999991
 31
0.0
  0
LINE
  5
3A6
  8
0
 62
     7
 10
56.7104
 20
210.10699999999991
 30
0.0
 11
56.724899999999991
 21
210.095
 31
0.0
  0
ARC
  5
3A7
  8
0
 62
     7
 10
76.996886000000003
 20
202.95106199999989
 30
0.0
 40
22.120629999999998
 50
159.995554
 51
162.5024139999999
  0
ARC
  5
3A8
  8
0
 62
     7
 10
63.738694999999993
 20
207.33056199999999
 30
0.0
 40
8.1613609999999994
 50
163.840487
 51
174.84111299999989
  0
ARC
  5
3A9
  8
0
 62
     7
 10
71.890553999999995
 20
206.42178999999999
 30
0.0
 40
16.362818000000001
 50
174.238496
 51
176.245621
  0
LINE
  5
3AA
  8
0
 62
     7
 10
51.083899999999993
 20
216.65999999999991
 30
0.0
 11
51.417700000000011
 21
216.65999999999991
 31
0.0
  0
LINE
  5
3AB
  8
0
 62
     7
 10
51.083899999999993
 20
216.65999999999991
 30
0.0
 11
51.083899999999993
 21
211.66
 31
0.0
  0
ARC
  5
3AC
  8
0
 62
     7
 10
50.755534999999988
 20
211.437971
 30
0.0
 40
0.396199
 50
10.709517999999999
 51
34.037343
  0
ARC
  5
3AD
  8
0
 62
     7
 10
58.982357999999998
 20
212.152783
 30
0.0
 40
7.8637090000000001
 50
179.97022499999991
 51
184.67696199999989
  0
LINE
  5
3AE
  8
0
 62
     7
 10
51.118600000000001
 20
212.15700000000001
 30
0.0
 11
51.118600000000001
 21
214.17199999999991
 31
0.0
  0
ARC
  5
3AF
  8
0
 62
     7
 10
94.383828000000008
 20
213.87350000000001
 30
0.0
 40
43.266207000000001
 50
179.24207999999999
 51
179.60479699999999
  0
ARC
  5
3B0
  8
0
 62
     7
 10
62.162503000000001
 20
214.27213699999999
 30
0.0
 40
11.04246199999999
 50
177.83098699999999
 51
179.098848
  0
ARC
  5
3B1
  8
0
 62
     7
 10
63.425507000000003
 20
214.18260000000001
 30
0.0
 40
12.308021
 50
176.13200699999999
 51
177.6369949999999
  0
ARC
  5
3B2
  8
0
 62
     7
 10
74.523038
 20
213.379852
 30
0.0
 40
23.43448299999999
 50
175.79216099999999
 51
176.00412299999991
  0
LINE
  5
3B3
  8
0
 62
     7
 10
51.151699999999991
 20
215.09899999999999
 30
0.0
 11
51.151699999999991
 21
215.10099999999991
 31
0.0
  0
LINE
  5
3B4
  8
0
 62
     7
 10
69.561700000000002
 20
216.65999999999991
 30
0.0
 11
69.895600000000002
 21
216.65999999999991
 31
0.0
  0
LINE
  5
3B5
  8
0
 62
     7
 10
69.827399999999983
 20
215.10099999999991
 30
0.0
 11
69.827699999999993
 21
215.09899999999999
 31
0.0
  0
ARC
  5
3B6
  8
0
 62
     7
 10
41.537851000000003
 20
213.027129
 30
0.0
 40
28.365645000000001
 50
4.0142809999999987
 51
4.1893950000000002
  0
ARC
  5
3B7
  8
0
 62
     7
 10
57.630603999999998
 20
214.199816
 30
0.0
 40
12.230356
 50
2.2972790000000001
 51
3.8117369999999999
  0
ARC
  5
3B8
  8
0
 62
     7
 10
56.288251000000002
 20
214.18524300000001
 30
0.0
 40
13.572271000000001
 50
1.100028
 51
2.131599
  0
ARC
  5
3B9
  8
0
 62
     7
 10
50.219468999999997
 20
214.13593099999991
 30
0.0
 40
19.640995999999991
 50
0.104975
 51
0.9039819999999998
  0
LINE
  5
3BA
  8
0
 62
     7
 10
69.860399999999998
 20
214.17199999999991
 30
0.0
 11
69.860399999999998
 21
212.15700000000001
 31
0.0
  0
LINE
  5
3BB
  8
0
 62
     7
 10
51.489699999999999
 20
188.32599999999991
 30
0.0
 11
51.622300000000003
 21
188.32599999999991
 31
0.0
  0
LINE
  5
3BC
  8
0
 62
     7
 10
56.895099999999999
 20
188.32599999999991
 30
0.0
 11
57.687800000000003
 21
188.32599999999991
 31
0.0
  0
LINE
  5
3BD
  8
0
 62
     7
 10
67.823000000000008
 20
188.32599999999991
 30
0.0
 11
69.489699999999999
 21
188.32599999999991
 31
0.0
  0
LINE
  5
3BE
  8
0
 62
     7
 10
67.823000000000008
 20
188.32599999999991
 30
0.0
 11
58.866399999999992
 21
188.32599999999991
 31
0.0
  0
LINE
  5
3BF
  8
0
 62
     7
 10
57.687800000000003
 20
188.32599999999991
 30
0.0
 11
58.866399999999992
 21
188.32599999999991
 31
0.0
  0
LINE
  5
3C0
  8
0
 62
     7
 10
67.823000000000008
 20
207.49299999999999
 30
0.0
 11
66.494200000000006
 21
207.49299999999999
 31
0.0
  0
LINE
  5
3C1
  8
0
 62
     7
 10
66.494200000000006
 20
206.49299999999991
 30
0.0
 11
67.823000000000008
 21
206.49299999999991
 31
0.0
  0
LINE
  5
3C2
  8
0
 62
     7
 10
67.823000000000008
 20
205.99299999999999
 30
0.0
 11
69.822900000000004
 21
206.99299999999991
 31
0.0
  0
LINE
  5
3C3
  8
0
 62
     7
 10
69.822900000000004
 20
206.99299999999991
 30
0.0
 11
67.823000000000008
 21
207.99299999999999
 31
0.0
  0
LINE
  5
3C4
  8
0
 62
     7
 10
67.823000000000008
 20
206.49299999999991
 30
0.0
 11
67.823000000000008
 21
205.99299999999999
 31
0.0
  0
LINE
  5
3C5
  8
0
 62
     7
 10
67.823000000000008
 20
207.99299999999999
 30
0.0
 11
67.823000000000008
 21
207.49299999999999
 31
0.0
  0
LINE
  5
3C6
  8
0
 62
     7
 10
66.494200000000006
 20
207.49299999999999
 30
0.0
 11
65.828599999999994
 21
207.49299999999999
 31
0.0
  0
LINE
  5
3C7
  8
0
 62
     7
 10
65.828599999999994
 20
206.49299999999991
 30
0.0
 11
66.494200000000006
 21
206.49299999999991
 31
0.0
  0
LINE
  5
3C8
  8
0
 62
     7
 10
65.828599999999994
 20
207.49299999999999
 30
0.0
 11
65.599500000000006
 21
207.49299999999999
 31
0.0
  0
LINE
  5
3C9
  8
0
 62
     7
 10
65.599500000000006
 20
206.49299999999991
 30
0.0
 11
65.828599999999994
 21
206.49299999999991
 31
0.0
  0
LINE
  5
3CA
  8
0
 62
     7
 10
65.828599999999994
 20
207.49299999999999
 30
0.0
 11
65.828599999999994
 21
206.49299999999991
 31
0.0
  0
LINE
  5
3CB
  8
0
 62
     7
 10
65.599500000000006
 20
207.49299999999999
 30
0.0
 11
65.599500000000006
 21
206.49299999999991
 31
0.0
  0
LINE
  5
3CC
  8
0
 62
     7
 10
54.484900000000003
 20
206.49299999999991
 30
0.0
 11
53.156399999999998
 21
206.49299999999991
 31
0.0
  0
LINE
  5
3CD
  8
0
 62
     7
 10
53.156399999999998
 20
207.49299999999999
 30
0.0
 11
54.484900000000003
 21
207.49299999999999
 31
0.0
  0
LINE
  5
3CE
  8
0
 62
     7
 10
53.156399999999998
 20
207.99299999999999
 30
0.0
 11
53.156399999999998
 21
207.49299999999999
 31
0.0
  0
LINE
  5
3CF
  8
0
 62
     7
 10
51.156199999999991
 20
206.99299999999991
 30
0.0
 11
53.156399999999998
 21
207.99299999999999
 31
0.0
  0
LINE
  5
3D0
  8
0
 62
     7
 10
53.156399999999998
 20
205.99299999999999
 30
0.0
 11
51.156199999999991
 21
206.99299999999991
 31
0.0
  0
LINE
  5
3D1
  8
0
 62
     7
 10
53.156399999999998
 20
206.49299999999991
 30
0.0
 11
53.156399999999998
 21
205.99299999999999
 31
0.0
  0
LINE
  5
3D2
  8
0
 62
     7
 10
55.150799999999997
 20
206.49299999999991
 30
0.0
 11
54.484900000000003
 21
206.49299999999991
 31
0.0
  0
LINE
  5
3D3
  8
0
 62
     7
 10
54.484900000000003
 20
207.49299999999999
 30
0.0
 11
55.150799999999997
 21
207.49299999999999
 31
0.0
  0
LINE
  5
3D4
  8
0
 62
     7
 10
55.150799999999997
 20
207.49299999999999
 30
0.0
 11
55.150799999999997
 21
206.49299999999991
 31
0.0
  0
LINE
  5
3D5
  8
0
 62
     7
 10
55.379600000000003
 20
206.49299999999991
 30
0.0
 11
55.150799999999997
 21
206.49299999999991
 31
0.0
  0
LINE
  5
3D6
  8
0
 62
     7
 10
55.150799999999997
 20
207.49299999999999
 30
0.0
 11
55.379600000000003
 21
207.49299999999999
 31
0.0
  0
LINE
  5
3D7
  8
0
 62
     7
 10
55.379600000000003
 20
207.49299999999999
 30
0.0
 11
55.379600000000003
 21
206.49299999999991
 31
0.0
  0
LINE
  5
3D8
  8
0
 62
     7
 10
51.622300000000003
 20
188.32599999999991
 30
0.0
 11
51.872100000000003
 21
188.32599999999991
 31
0.0
  0
LINE
  5
3D9
  8
0
 62
     7
 10
54.442500000000003
 20
188.32599999999991
 30
0.0
 11
56.895099999999999
 21
188.32599999999991
 31
0.0
  0
LINE
  5
3DA
  8
0
 62
     7
 10
51.872100000000003
 20
188.32599999999991
 30
0.0
 11
54.442500000000003
 21
188.32599999999991
 31
0.0
  0
LINE
  5
3DB
  8
0
 62
     7
 10
51.977899999999998
 20
185.65899999999999
 30
0.0
 11
51.489699999999999
 21
185.65899999999999
 31
0.0
  0
LINE
  5
3DC
  8
0
 62
     7
 10
51.489699999999999
 20
185.65899999999999
 30
0.0
 11
51.489699999999999
 21
188.32599999999991
 31
0.0
  0
LINE
  5
3DD
  8
0
 62
     7
 10
54.5366
 20
185.65899999999999
 30
0.0
 11
57.687800000000003
 21
185.65899999999999
 31
0.0
  0
LINE
  5
3DE
  8
0
 62
     7
 10
51.977899999999998
 20
185.65899999999999
 30
0.0
 11
52.536299999999997
 21
185.65899999999999
 31
0.0
  0
LINE
  5
3DF
  8
0
 62
     7
 10
51.977899999999998
 20
188.32599999999991
 30
0.0
 11
51.977899999999998
 21
185.65899999999999
 31
0.0
  0
LINE
  5
3E0
  8
0
 62
     7
 10
69.489699999999999
 20
185.65899999999999
 30
0.0
 11
67.823000000000008
 21
185.65899999999999
 31
0.0
  0
LINE
  5
3E1
  8
0
 62
     7
 10
69.489699999999999
 20
188.32599999999991
 30
0.0
 11
69.489699999999999
 21
185.65899999999999
 31
0.0
  0
LINE
  5
3E2
  8
0
 62
     7
 10
67.823000000000008
 20
185.65899999999999
 30
0.0
 11
58.866399999999992
 21
185.65899999999999
 31
0.0
  0
LINE
  5
3E3
  8
0
 62
     7
 10
67.823000000000008
 20
185.65899999999999
 30
0.0
 11
67.823000000000008
 21
188.32599999999991
 31
0.0
  0
LINE
  5
3E4
  8
0
 62
     7
 10
58.866399999999992
 20
185.65899999999999
 30
0.0
 11
57.687800000000003
 21
185.65899999999999
 31
0.0
  0
LINE
  5
3E5
  8
0
 62
     7
 10
57.687800000000003
 20
185.65899999999999
 30
0.0
 11
57.687800000000003
 21
188.32599999999991
 31
0.0
  0
LINE
  5
3E6
  8
0
 62
     7
 10
58.866399999999992
 20
188.32599999999991
 30
0.0
 11
58.866399999999992
 21
185.65899999999999
 31
0.0
  0
ARC
  5
3E7
  8
0
 62
     7
 10
76.879681000000005
 20
173.93622500000001
 30
0.0
 40
0.277007
 50
272.10370499999999
 51
357.89630499999998
  0
LINE
  5
3E8
  8
0
 62
     7
 10
76.889799999999994
 20
178.65999999999991
 30
0.0
 11
77.156499999999994
 21
178.65999999999991
 31
0.0
  0
LINE
  5
3E9
  8
0
 62
     7
 10
77.156499999999994
 20
178.65999999999991
 30
0.0
 11
77.156499999999994
 21
173.9259999999999
 31
0.0
  0
LINE
  5
3EA
  8
0
 62
     7
 10
76.889799999999994
 20
173.65899999999999
 30
0.0
 11
44.08959999999999
 21
173.65899999999999
 31
0.0
  0
LINE
  5
3EB
  8
0
 62
     7
 10
44.08959999999999
 20
178.65999999999991
 30
0.0
 11
76.889799999999994
 21
178.65999999999991
 31
0.0
  0
LINE
  5
3EC
  8
0
 62
     7
 10
43.822899999999997
 20
178.65999999999991
 30
0.0
 11
44.08959999999999
 21
178.65999999999991
 31
0.0
  0
LINE
  5
3ED
  8
0
 62
     7
 10
43.822899999999997
 20
173.9259999999999
 30
0.0
 11
43.822899999999997
 21
178.65999999999991
 31
0.0
  0
ARC
  5
3EE
  8
0
 62
     7
 10
44.099744000000001
 20
173.9362229999999
 30
0.0
 40
0.277005
 50
182.103354
 51
267.89667500000002
  0
LINE
  5
3EF
  8
0
 62
     7
 10
67.823000000000008
 20
168.66
 30
0.0
 11
53.156399999999998
 21
168.66
 31
0.0
  0
ARC
  5
3F0
  8
0
 62
     7
 10
60.22483900000001
 20
165.61940999999999
 30
0.0
 40
0.516462
 50
345.88292300000001
 51
355.19243499999999
  0
ARC
  5
3F1
  8
0
 62
     7
 10
60.511265999999999
 20
165.56428799999989
 30
0.0
 40
0.225838
 50
320.31036999999998
 51
341.71755400000001
  0
ARC
  5
3F2
  8
0
 62
     7
 10
60.476228999999996
 20
165.5915379999999
 30
0.0
 40
0.270205
 50
302.73664899999989
 51
320.60855400000003
  0
ARC
  5
3F3
  8
0
 62
     7
 10
60.494016999999999
 20
165.56549099999989
 30
0.0
 40
0.238678
 50
282.20863700000001
 51
302.52614399999987
  0
ARC
  5
3F4
  8
0
 62
     7
 10
60.476799
 20
165.685123
 30
0.0
 40
0.359345
 50
272.05962599999992
 51
280.85802499999988
  0
ARC
  5
3F5
  8
0
 62
     7
 10
60.54007399999999
 20
165.86986599999989
 30
0.0
 40
0.546183
 50
255.901599
 51
264.70953399999991
  0
ARC
  5
3F6
  8
0
 62
     7
 10
60.476469000000002
 20
165.5505959999999
 30
0.0
 40
0.22162
 50
229.876724
 51
251.740388
  0
ARC
  5
3F7
  8
0
 62
     7
 10
60.486764000000001
 20
165.57361
 30
0.0
 40
0.245951
 50
211.84711299999989
 51
231.49810899999991
  0
ARC
  5
3F8
  8
0
 62
     7
 10
60.471896999999998
 20
165.56942299999989
 30
0.0
 40
0.231153
 50
192.00394299999991
 51
212.9099699999999
  0
ARC
  5
3F9
  8
0
 62
     7
 10
60.599003000000003
 20
165.5890729999999
 30
0.0
 40
0.359638
 50
182.06322700000001
 51
190.854444
  0
LINE
  5
3FA
  8
0
 62
     7
 10
60.239600000000003
 20
165.57599999999991
 30
0.0
 11
60.239600000000003
 21
166.74299999999991
 31
0.0
  0
ARC
  5
3FB
  8
0
 62
     7
 10
60.721778
 20
166.70265000000001
 30
0.0
 40
0.483864
 50
165.31341499999991
 51
175.21808200000001
  0
ARC
  5
3FC
  8
0
 62
     7
 10
60.466803000000013
 20
166.7559029999999
 30
0.0
 40
0.224104
 50
140.30091799999991
 51
161.9541999999999
  0
ARC
  5
3FD
  8
0
 62
     7
 10
60.497514000000002
 20
166.73396
 30
0.0
 40
0.261764
 50
122.445971
 51
140.899192
  0
ARC
  5
3FE
  8
0
 62
     7
 10
60.482238999999993
 20
166.75939199999991
 30
0.0
 40
0.232107
 50
101.84598099999999
 51
122.632209
  0
LINE
  5
3FF
  8
0
 62
     7
 10
60.434600000000003
 20
166.98699999999991
 30
0.0
 11
60.489699999999999
 21
166.99299999999991
 31
0.0
  0
LINE
  5
400
  8
0
 62
     7
 10
60.489699999999999
 20
166.99299999999991
 30
0.0
 11
60.572400000000002
 21
166.97900000000001
 31
0.0
  0
ARC
  5
401
  8
0
 62
     7
 10
60.492533000000002
 20
166.74826100000001
 30
0.0
 40
0.244147
 50
51.121450000000003
 51
70.906454000000011
  0
ARC
  5
402
  8
0
 62
     7
 10
60.481021999999989
 20
166.73548500000001
 30
0.0
 40
0.261321
 50
32.430203999999989
 51
50.914977999999991
  0
ARC
  5
403
  8
0
 62
     7
 10
60.494224000000003
 20
166.7447699999999
 30
0.0
 40
0.245199
 50
12.481543
 51
32.25321799999999
  0
ARC
  5
404
  8
0
 62
     7
 10
60.357314000000002
 20
166.729827
 30
0.0
 40
0.382397
 50
1.9720740000000001
 51
10.23348399999999
  0
LINE
  5
405
  8
0
 62
     7
 10
60.739499999999992
 20
166.74299999999991
 30
0.0
 11
60.739499999999992
 21
165.57599999999991
 31
0.0
  0
LINE
  5
406
  8
0
 62
     7
 10
67.723100000000002
 20
153.16
 30
0.0
 11
53.256300000000003
 21
153.16
 31
0.0
  0
LINE
  5
407
  8
0
 62
     7
 10
54.5366
 20
178.65999999999991
 30
0.0
 11
54.5366
 21
188.32599999999991
 31
0.0
  0
LINE
  5
408
  8
0
 62
     7
 10
52.536299999999997
 20
188.32599999999991
 30
0.0
 11
52.536299999999997
 21
178.65999999999991
 31
0.0
  0
LINE
  5
409
  8
0
 62
     7
 10
68.442800000000005
 20
178.65999999999991
 30
0.0
 11
68.442800000000005
 21
185.65899999999999
 31
0.0
  0
LINE
  5
40A
  8
0
 62
     7
 10
66.822900000000004
 20
168.66
 30
0.0
 11
66.822900000000004
 21
169.32599999999991
 31
0.0
  0
LINE
  5
40B
  8
0
 62
     7
 10
54.156199999999998
 20
169.32599999999991
 30
0.0
 11
54.156199999999998
 21
168.66
 31
0.0
  0
LINE
  5
40C
  8
0
 62
     7
 10
67.989699999999999
 20
178.65999999999991
 30
0.0
 11
67.989699999999999
 21
185.65899999999999
 31
0.0
  0
ARC
  5
40D
  8
0
 62
     7
 10
53.162691000000002
 20
168.48650799999999
 30
0.0
 40
0.17311
 50
92.070297999999994
 51
177.92967200000001
  0
ARC
  5
40E
  8
0
 62
     7
 10
67.816735999999992
 20
168.48650799999999
 30
0.0
 40
0.17311
 50
2.0703249999999991
 51
87.929665
  0
LINE
  5
40F
  8
0
 62
     7
 10
67.989699999999999
 20
153.42599999999999
 30
0.0
 11
67.989699999999999
 21
168.49299999999999
 31
0.0
  0
LINE
  5
410
  8
0
 62
     7
 10
52.989699999999999
 20
168.49299999999999
 30
0.0
 11
52.989699999999999
 21
153.42599999999999
 31
0.0
  0
ARC
  5
411
  8
0
 62
     7
 10
53.266430999999997
 20
153.43631600000001
 30
0.0
 40
0.276922
 50
182.08725200000001
 51
267.91277799999989
  0
ARC
  5
412
  8
0
 62
     7
 10
67.712913
 20
153.43639899999991
 30
0.0
 40
0.277007
 50
272.10370499999999
 51
357.89630499999998
  0
LINE
  5
413
  8
0
 62
     7
 10
60.686900000000001
 20
80.391499999999994
 30
0.0
 11
60.485599999999998
 21
80.391499999999994
 31
0.0
  0
LINE
  5
414
  8
0
 62
     7
 10
60.485599999999998
 20
80.391499999999994
 30
0.0
 11
60.485599999999998
 21
80.564400000000006
 31
0.0
  0
LINE
  5
415
  8
0
 62
     7
 10
60.485599999999998
 20
80.564400000000006
 30
0.0
 11
60.686900000000001
 21
80.564400000000006
 31
0.0
  0
LINE
  5
416
  8
0
 62
     7
 10
60.686900000000001
 20
80.564400000000006
 30
0.0
 11
60.686900000000001
 21
80.391499999999994
 31
0.0
  0
LINE
  5
417
  8
0
 62
     7
 10
60.698999999999998
 20
80.638800000000003
 30
0.0
 11
60.41129999999999
 21
80.638800000000003
 31
0.0
  0
LINE
  5
418
  8
0
 62
     7
 10
60.41129999999999
 20
80.638800000000003
 30
0.0
 11
60.41129999999999
 21
80.317400000000006
 31
0.0
  0
LINE
  5
419
  8
0
 62
     7
 10
60.41129999999999
 20
80.317400000000006
 30
0.0
 11
60.698999999999998
 21
80.317400000000006
 31
0.0
  0
ARC
  5
41A
  8
0
 62
     7
 10
60.696845999999987
 20
80.382090000000005
 30
0.0
 40
0.06473
 50
271.911046
 51
357.93090599999988
  0
LINE
  5
41B
  8
0
 62
     7
 10
60.761499999999998
 20
80.379800000000003
 30
0.0
 11
60.761499999999998
 21
80.576099999999997
 31
0.0
  0
ARC
  5
41C
  8
0
 62
     7
 10
60.696554000000013
 20
80.573852999999986
 30
0.0
 40
0.065019
 50
2.0024239999999991
 51
87.839943999999988
  0
LINE
  5
41D
  8
0
 62
     7
 10
60.415300000000002
 20
81.983800000000002
 30
0.0
 11
60.102499999999999
 21
81.983800000000002
 31
0.0
  0
ARC
  5
41E
  8
0
 62
     7
 10
60.117618000000007
 20
81.570229999999995
 30
0.0
 40
0.413847
 50
92.095974999999996
 51
177.87921900000001
  0
LINE
  5
41F
  8
0
 62
     7
 10
59.704099999999997
 20
81.585499999999996
 30
0.0
 11
59.704099999999997
 21
80.864799999999988
 31
0.0
  0
ARC
  5
420
  8
0
 62
     7
 10
59.769775000000003
 20
80.867156000000008
 30
0.0
 40
0.065762
 50
182.03087899999991
 51
267.9691509999999
  0
LINE
  5
421
  8
0
 62
     7
 10
59.767400000000002
 20
80.801400000000001
 30
0.0
 11
60.415300000000002
 21
80.801400000000001
 31
0.0
  0
ARC
  5
422
  8
0
 62
     7
 10
60.413041999999997
 20
80.867260999999985
 30
0.0
 40
0.065864
 50
271.96366999999998
 51
357.88085599999999
  0
LINE
  5
423
  8
0
 62
     7
 10
60.478900000000003
 20
80.864799999999988
 30
0.0
 11
60.478900000000003
 21
80.938199999999995
 31
0.0
  0
ARC
  5
424
  8
0
 62
     7
 10
60.413006999999993
 20
80.935736000000006
 30
0.0
 40
0.065901
 50
2.148820999999999
 51
88.006653
  0
LINE
  5
425
  8
0
 62
     7
 10
60.415300000000002
 20
81.001599999999996
 30
0.0
 11
59.8994
 21
81.001599999999996
 31
0.0
  0
LINE
  5
426
  8
0
 62
     7
 10
59.8994
 20
81.001599999999996
 30
0.0
 11
59.8994
 21
81.292400000000015
 31
0.0
  0
LINE
  5
427
  8
0
 62
     7
 10
59.8994
 20
81.292400000000015
 30
0.0
 11
60.3521
 21
81.292400000000015
 31
0.0
  0
ARC
  5
428
  8
0
 62
     7
 10
60.349870000000003
 20
81.358311
 30
0.0
 40
0.065983
 50
271.920275
 51
358.07973500000003
  0
LINE
  5
429
  8
0
 62
     7
 10
60.41579999999999
 20
81.356099999999984
 30
0.0
 11
60.41579999999999
 21
81.429100000000005
 31
0.0
  0
ARC
  5
42A
  8
0
 62
     7
 10
60.350062000000001
 20
81.426760999999999
 30
0.0
 40
0.065797
 50
2.0691000000000002
 51
88.241434999999996
  0
LINE
  5
42B
  8
0
 62
     7
 10
60.3521
 20
81.492500000000007
 30
0.0
 11
59.8994
 21
81.492500000000007
 31
0.0
  0
LINE
  5
42C
  8
0
 62
     7
 10
59.8994
 20
81.492500000000007
 30
0.0
 11
59.8994
 21
81.783600000000007
 31
0.0
  0
LINE
  5
42D
  8
0
 62
     7
 10
59.8994
 20
81.783600000000007
 30
0.0
 11
60.415300000000002
 21
81.783600000000007
 31
0.0
  0
ARC
  5
42E
  8
0
 62
     7
 10
60.413041999999997
 20
81.849463999999983
 30
0.0
 40
0.065864
 50
271.96366999999998
 51
357.88085599999999
  0
LINE
  5
42F
  8
0
 62
     7
 10
60.478900000000003
 20
81.846999999999994
 30
0.0
 11
60.478900000000003
 21
81.920400000000001
 31
0.0
  0
ARC
  5
430
  8
0
 62
     7
 10
60.413006999999993
 20
81.917939000000004
 30
0.0
 40
0.065901
 50
2.148820999999999
 51
88.006653
  0
LINE
  5
431
  8
0
 62
     7
 10
59.515999999999998
 20
81.983800000000002
 30
0.0
 11
59.201399999999992
 21
81.983800000000002
 31
0.0
  0
ARC
  5
432
  8
0
 62
     7
 10
59.216549999999998
 20
81.570406000000006
 30
0.0
 40
0.413671
 50
92.097207999999966
 51
177.902762
  0
LINE
  5
433
  8
0
 62
     7
 10
58.803199999999997
 20
81.585499999999996
 30
0.0
 11
58.803199999999997
 21
80.864799999999988
 31
0.0
  0
ARC
  5
434
  8
0
 62
     7
 10
58.86888299999999
 20
80.867168999999976
 30
0.0
 40
0.065769
 50
182.041392
 51
268.11412100000001
  0
LINE
  5
435
  8
0
 62
     7
 10
58.866700000000002
 20
80.801400000000001
 30
0.0
 11
59.515999999999998
 21
80.801400000000001
 31
0.0
  0
ARC
  5
436
  8
0
 62
     7
 10
59.513668000000003
 20
80.867108999999985
 30
0.0
 40
0.065712
 50
271.990656
 51
358.00935399999997
  0
LINE
  5
437
  8
0
 62
     7
 10
59.579300000000011
 20
80.864799999999988
 30
0.0
 11
59.579300000000011
 21
80.938199999999995
 31
0.0
  0
ARC
  5
438
  8
0
 62
     7
 10
59.513534
 20
80.935789
 30
0.0
 40
0.065852
 50
2.103847
 51
87.896143000000009
  0
LINE
  5
439
  8
0
 62
     7
 10
59.515999999999998
 20
81.001599999999996
 30
0.0
 11
58.998699999999992
 21
81.001599999999996
 31
0.0
  0
LINE
  5
43A
  8
0
 62
     7
 10
58.998699999999992
 20
81.001599999999996
 30
0.0
 11
58.998699999999992
 21
81.783600000000007
 31
0.0
  0
LINE
  5
43B
  8
0
 62
     7
 10
58.998699999999992
 20
81.783600000000007
 30
0.0
 11
59.515999999999998
 21
81.783600000000007
 31
0.0
  0
ARC
  5
43C
  8
0
 62
     7
 10
59.513668000000003
 20
81.849311999999983
 30
0.0
 40
0.065712
 50
271.990656
 51
358.00935399999997
  0
LINE
  5
43D
  8
0
 62
     7
 10
59.579300000000011
 20
81.846999999999994
 30
0.0
 11
59.579300000000011
 21
81.920400000000001
 31
0.0
  0
ARC
  5
43E
  8
0
 62
     7
 10
59.513534
 20
81.917991999999998
 30
0.0
 40
0.065852
 50
2.103847
 51
87.896143000000009
  0
LINE
  5
43F
  8
0
 62
     7
 10
59.622399999999999
 20
80.506200000000007
 30
0.0
 11
59.422800000000002
 21
80.506200000000007
 31
0.0
  0
LINE
  5
440
  8
0
 62
     7
 10
59.422800000000002
 20
80.506200000000007
 30
0.0
 11
59.422800000000002
 21
80.564400000000006
 31
0.0
  0
LINE
  5
441
  8
0
 62
     7
 10
59.422800000000002
 20
80.564400000000006
 30
0.0
 11
59.622399999999999
 21
80.564400000000006
 31
0.0
  0
LINE
  5
442
  8
0
 62
     7
 10
59.622399999999999
 20
80.564400000000006
 30
0.0
 11
59.622399999999999
 21
80.506200000000007
 31
0.0
  0
LINE
  5
443
  8
0
 62
     7
 10
59.634500000000003
 20
80.638800000000003
 30
0.0
 11
59.348300000000002
 21
80.638800000000003
 31
0.0
  0
LINE
  5
444
  8
0
 62
     7
 10
59.348300000000002
 20
80.638800000000003
 30
0.0
 11
59.348300000000002
 21
80.317400000000006
 31
0.0
  0
LINE
  5
445
  8
0
 62
     7
 10
59.348300000000002
 20
80.317400000000006
 30
0.0
 11
59.422800000000002
 21
80.317400000000006
 31
0.0
  0
LINE
  5
446
  8
0
 62
     7
 10
59.422800000000002
 20
80.317400000000006
 30
0.0
 11
59.422800000000002
 21
80.431799999999996
 31
0.0
  0
LINE
  5
447
  8
0
 62
     7
 10
59.422800000000002
 20
80.431799999999996
 30
0.0
 11
59.622399999999999
 21
80.431799999999996
 31
0.0
  0
LINE
  5
448
  8
0
 62
     7
 10
59.622399999999999
 20
80.431799999999996
 30
0.0
 11
59.622399999999999
 21
80.317400000000006
 31
0.0
  0
LINE
  5
449
  8
0
 62
     7
 10
59.622399999999999
 20
80.317400000000006
 30
0.0
 11
59.696800000000003
 21
80.317400000000006
 31
0.0
  0
LINE
  5
44A
  8
0
 62
     7
 10
59.696800000000003
 20
80.317400000000006
 30
0.0
 11
59.696800000000003
 21
80.425200000000004
 31
0.0
  0
ARC
  5
44B
  8
0
 62
     7
 10
59.650038000000002
 20
80.425689000000006
 30
0.0
 40
0.046784
 50
359.436398
 51
70.069300999999996
  0
LINE
  5
44C
  8
0
 62
     7
 10
59.665999999999997
 20
80.469699999999989
 30
0.0
 11
59.66429999999999
 21
80.472099999999983
 31
0.0
  0
LINE
  5
44D
  8
0
 62
     7
 10
59.66429999999999
 20
80.472099999999983
 30
0.0
 11
59.665599999999998
 21
80.473799999999997
 31
0.0
  0
ARC
  5
44E
  8
0
 62
     7
 10
59.647798000000002
 20
80.519852999999998
 30
0.0
 40
0.049384
 50
291.18131499999998
 51
6.9469949999999994
  0
LINE
  5
44F
  8
0
 62
     7
 10
59.696800000000003
 20
80.525800000000004
 30
0.0
 11
59.696800000000003
 21
80.576099999999997
 31
0.0
  0
ARC
  5
450
  8
0
 62
     7
 10
59.631906999999998
 20
80.573926999999983
 30
0.0
 40
0.06495
 50
1.9397990000000001
 51
87.744511999999986
  0
LINE
  5
451
  8
0
 62
     7
 10
58.822099999999999
 20
80.564400000000006
 30
0.0
 11
58.969599999999993
 21
80.564400000000006
 31
0.0
  0
LINE
  5
452
  8
0
 62
     7
 10
58.969599999999993
 20
80.564400000000006
 30
0.0
 11
58.969599999999993
 21
80.317400000000006
 31
0.0
  0
LINE
  5
453
  8
0
 62
     7
 10
58.969599999999993
 20
80.317400000000006
 30
0.0
 11
59.04399999999999
 21
80.317400000000006
 31
0.0
  0
LINE
  5
454
  8
0
 62
     7
 10
59.04399999999999
 20
80.317400000000006
 30
0.0
 11
59.04399999999999
 21
80.564400000000006
 31
0.0
  0
LINE
  5
455
  8
0
 62
     7
 10
59.04399999999999
 20
80.564400000000006
 30
0.0
 11
59.191400000000002
 21
80.564400000000006
 31
0.0
  0
LINE
  5
456
  8
0
 62
     7
 10
59.191400000000002
 20
80.564400000000006
 30
0.0
 11
59.191400000000002
 21
80.638800000000003
 31
0.0
  0
LINE
  5
457
  8
0
 62
     7
 10
59.191400000000002
 20
80.638800000000003
 30
0.0
 11
58.822099999999999
 21
80.638800000000003
 31
0.0
  0
LINE
  5
458
  8
0
 62
     7
 10
58.822099999999999
 20
80.638800000000003
 30
0.0
 11
58.822099999999999
 21
80.564400000000006
 31
0.0
  0
LINE
  5
459
  8
0
 62
     7
 10
59.987400000000001
 20
80.458299999999994
 30
0.0
 11
60.050800000000002
 21
80.578199999999995
 31
0.0
  0
LINE
  5
45A
  8
0
 62
     7
 10
60.050800000000002
 20
80.578199999999995
 30
0.0
 11
60.113999999999997
 21
80.458299999999994
 31
0.0
  0
LINE
  5
45B
  8
0
 62
     7
 10
60.113999999999997
 20
80.458299999999994
 30
0.0
 11
59.987400000000001
 21
80.458299999999994
 31
0.0
  0
LINE
  5
45C
  8
0
 62
     7
 10
60.012900000000002
 20
80.638800000000003
 30
0.0
 11
59.826500000000003
 21
80.317400000000006
 31
0.0
  0
LINE
  5
45D
  8
0
 62
     7
 10
59.826500000000003
 20
80.317400000000006
 30
0.0
 11
59.912999999999997
 21
80.317400000000006
 31
0.0
  0
LINE
  5
45E
  8
0
 62
     7
 10
59.912999999999997
 20
80.317400000000006
 30
0.0
 11
59.948300000000003
 21
80.384200000000007
 31
0.0
  0
LINE
  5
45F
  8
0
 62
     7
 10
59.948300000000003
 20
80.384200000000007
 30
0.0
 11
60.153300000000002
 21
80.384200000000007
 31
0.0
  0
LINE
  5
460
  8
0
 62
     7
 10
60.153300000000002
 20
80.384200000000007
 30
0.0
 11
60.188400000000001
 21
80.317400000000006
 31
0.0
  0
LINE
  5
461
  8
0
 62
     7
 10
60.188400000000001
 20
80.317400000000006
 30
0.0
 11
60.275100000000002
 21
80.317400000000006
 31
0.0
  0
LINE
  5
462
  8
0
 62
     7
 10
60.275100000000002
 20
80.317400000000006
 30
0.0
 11
60.088700000000003
 21
80.638800000000003
 31
0.0
  0
LINE
  5
463
  8
0
 62
     7
 10
60.088700000000003
 20
80.638800000000003
 30
0.0
 11
60.012900000000002
 21
80.638800000000003
 31
0.0
  0
LINE
  5
464
  8
0
 62
     7
 10
62.112900000000003
 20
81.983800000000002
 30
0.0
 11
61.73149999999999
 21
81.983800000000002
 31
0.0
  0
ARC
  5
465
  8
0
 62
     7
 10
61.746644000000003
 20
81.570406000000006
 30
0.0
 40
0.413671
 50
92.097207999999966
 51
177.902762
  0
LINE
  5
466
  8
0
 62
     7
 10
61.333300000000001
 20
81.585499999999996
 30
0.0
 11
61.333300000000001
 21
80.864799999999988
 31
0.0
  0
ARC
  5
467
  8
0
 62
     7
 10
61.398924000000001
 20
80.867103
 30
0.0
 40
0.065713
 50
181.98606599999991
 51
267.85805699999992
  0
LINE
  5
468
  8
0
 62
     7
 10
61.396500000000003
 20
80.801400000000001
 30
0.0
 11
61.465400000000002
 21
80.801400000000001
 31
0.0
  0
ARC
  5
469
  8
0
 62
     7
 10
61.462989
 20
80.867208000000005
 30
0.0
 40
0.065815
 50
272.0738859999999
 51
357.92612400000002
  0
LINE
  5
46A
  8
0
 62
     7
 10
61.52879999999999
 20
80.864799999999988
 30
0.0
 11
61.52879999999999
 21
81.292400000000015
 31
0.0
  0
LINE
  5
46B
  8
0
 62
     7
 10
61.52879999999999
 20
81.292400000000015
 30
0.0
 11
61.980600000000003
 21
81.292400000000015
 31
0.0
  0
LINE
  5
46C
  8
0
 62
     7
 10
61.980600000000003
 20
81.292400000000015
 30
0.0
 11
61.980600000000003
 21
80.864799999999988
 31
0.0
  0
ARC
  5
46D
  8
0
 62
     7
 10
62.046315
 20
80.867168999999976
 30
0.0
 40
0.065769
 50
182.041392
 51
268.11412100000001
  0
LINE
  5
46E
  8
0
 62
     7
 10
62.044199999999989
 20
80.801400000000001
 30
0.0
 11
62.112900000000003
 21
80.801400000000001
 31
0.0
  0
ARC
  5
46F
  8
0
 62
     7
 10
62.110598000000003
 20
80.867108999999985
 30
0.0
 40
0.065712
 50
271.990656
 51
358.00935399999997
  0
LINE
  5
470
  8
0
 62
     7
 10
62.176299999999991
 20
80.864799999999988
 30
0.0
 11
62.176299999999991
 21
81.920400000000001
 31
0.0
  0
ARC
  5
471
  8
0
 62
     7
 10
62.110463000000003
 20
81.917991999999998
 30
0.0
 40
0.065852
 50
2.103847
 51
87.896143000000009
  0
LINE
  5
472
  8
0
 62
     7
 10
61.206800000000001
 20
81.983800000000002
 30
0.0
 11
61.020800000000001
 21
81.983800000000002
 31
0.0
  0
ARC
  5
473
  8
0
 62
     7
 10
61.035888999999997
 20
81.570255000000003
 30
0.0
 40
0.413821
 50
92.092596999999984
 51
177.88259599999989
  0
LINE
  5
474
  8
0
 62
     7
 10
60.622399999999999
 20
81.585499999999996
 30
0.0
 11
60.622399999999999
 21
80.864799999999988
 31
0.0
  0
ARC
  5
475
  8
0
 62
     7
 10
60.687989000000002
 20
80.867075000000014
 30
0.0
 40
0.065677
 50
181.96221999999989
 51
268.03780999999998
  0
LINE
  5
476
  8
0
 62
     7
 10
60.685699999999997
 20
80.801400000000001
 30
0.0
 11
60.754300000000001
 21
80.801400000000001
 31
0.0
  0
ARC
  5
477
  8
0
 62
     7
 10
60.751917000000013
 20
80.867208000000005
 30
0.0
 40
0.065815
 50
272.0738859999999
 51
357.92612400000002
  0
LINE
  5
478
  8
0
 62
     7
 10
60.817700000000002
 20
80.864799999999988
 30
0.0
 11
60.817700000000002
 21
81.783600000000007
 31
0.0
  0
LINE
  5
479
  8
0
 62
     7
 10
60.817700000000002
 20
81.783600000000007
 30
0.0
 11
61.206800000000001
 21
81.783600000000007
 31
0.0
  0
ARC
  5
47A
  8
0
 62
     7
 10
61.204532
 20
81.849311999999983
 30
0.0
 40
0.065712
 50
271.990656
 51
358.00935399999997
  0
LINE
  5
47B
  8
0
 62
     7
 10
61.270200000000003
 20
81.846999999999994
 30
0.0
 11
61.270200000000003
 21
81.920400000000001
 31
0.0
  0
ARC
  5
47C
  8
0
 62
     7
 10
61.204397
 20
81.917991999999998
 30
0.0
 40
0.065852
 50
2.103847
 51
87.896143000000009
  0
LINE
  5
47D
  8
0
 62
     7
 10
61.525300000000001
 20
80.401499999999999
 30
0.0
 11
61.291600000000003
 21
80.638800000000003
 31
0.0
  0
LINE
  5
47E
  8
0
 62
     7
 10
61.291600000000003
 20
80.638800000000003
 30
0.0
 11
61.217300000000002
 21
80.638800000000003
 31
0.0
  0
LINE
  5
47F
  8
0
 62
     7
 10
61.217300000000002
 20
80.638800000000003
 30
0.0
 11
61.217300000000002
 21
80.317400000000006
 31
0.0
  0
LINE
  5
480
  8
0
 62
     7
 10
61.217300000000002
 20
80.317400000000006
 30
0.0
 11
61.291600000000003
 21
80.317400000000006
 31
0.0
  0
LINE
  5
481
  8
0
 62
     7
 10
61.291600000000003
 20
80.317400000000006
 30
0.0
 11
61.291600000000003
 21
80.554400000000001
 31
0.0
  0
LINE
  5
482
  8
0
 62
     7
 10
61.291600000000003
 20
80.554400000000001
 30
0.0
 11
61.525300000000001
 21
80.317400000000006
 31
0.0
  0
LINE
  5
483
  8
0
 62
     7
 10
61.525300000000001
 20
80.317400000000006
 30
0.0
 11
61.599699999999999
 21
80.317400000000006
 31
0.0
  0
LINE
  5
484
  8
0
 62
     7
 10
61.599699999999999
 20
80.317400000000006
 30
0.0
 11
61.599699999999999
 21
80.638800000000003
 31
0.0
  0
LINE
  5
485
  8
0
 62
     7
 10
61.599699999999999
 20
80.638800000000003
 30
0.0
 11
61.525300000000001
 21
80.638800000000003
 31
0.0
  0
LINE
  5
486
  8
0
 62
     7
 10
61.525300000000001
 20
80.638800000000003
 30
0.0
 11
61.525300000000001
 21
80.401499999999999
 31
0.0
  0
LINE
  5
487
  8
0
 62
     7
 10
60.949300000000001
 20
80.317400000000006
 30
0.0
 11
61.023699999999998
 21
80.317400000000006
 31
0.0
  0
LINE
  5
488
  8
0
 62
     7
 10
61.023699999999998
 20
80.317400000000006
 30
0.0
 11
61.023699999999998
 21
80.638800000000003
 31
0.0
  0
LINE
  5
489
  8
0
 62
     7
 10
61.023699999999998
 20
80.638800000000003
 30
0.0
 11
60.949300000000001
 21
80.638800000000003
 31
0.0
  0
LINE
  5
48A
  8
0
 62
     7
 10
60.949300000000001
 20
80.638800000000003
 30
0.0
 11
60.949300000000001
 21
80.317400000000006
 31
0.0
  0
LINE
  5
48B
  8
0
 62
     7
 10
62.1372
 20
80.564400000000006
 30
0.0
 11
62.1372
 21
80.638800000000003
 31
0.0
  0
LINE
  5
48C
  8
0
 62
     7
 10
62.1372
 20
80.638800000000003
 30
0.0
 11
61.849499999999999
 21
80.638800000000003
 31
0.0
  0
ARC
  5
48D
  8
0
 62
     7
 10
61.851866999999999
 20
80.574116000000004
 30
0.0
 40
0.064753
 50
92.093478000000005
 51
178.222171
  0
LINE
  5
48E
  8
0
 62
     7
 10
61.787100000000002
 20
80.576099999999997
 30
0.0
 11
61.787100000000002
 21
80.379800000000003
 31
0.0
  0
ARC
  5
48F
  8
0
 62
     7
 10
61.851688000000003
 20
80.381940999999998
 30
0.0
 40
0.064581
 50
181.940889
 51
268.05914100000001
  0
LINE
  5
490
  8
0
 62
     7
 10
61.849499999999999
 20
80.317400000000006
 30
0.0
 11
62.1372
 21
80.317400000000006
 31
0.0
  0
LINE
  5
491
  8
0
 62
     7
 10
62.1372
 20
80.317400000000006
 30
0.0
 11
62.1372
 21
80.478999999999999
 31
0.0
  0
LINE
  5
492
  8
0
 62
     7
 10
62.1372
 20
80.478999999999999
 30
0.0
 11
62.062800000000003
 21
80.478999999999999
 31
0.0
  0
LINE
  5
493
  8
0
 62
     7
 10
62.062800000000003
 20
80.478999999999999
 30
0.0
 11
62.062800000000003
 21
80.391499999999994
 31
0.0
  0
LINE
  5
494
  8
0
 62
     7
 10
62.062800000000003
 20
80.391499999999994
 30
0.0
 11
61.861600000000003
 21
80.391499999999994
 31
0.0
  0
LINE
  5
495
  8
0
 62
     7
 10
61.861600000000003
 20
80.391499999999994
 30
0.0
 11
61.861600000000003
 21
80.564400000000006
 31
0.0
  0
LINE
  5
496
  8
0
 62
     7
 10
61.861600000000003
 20
80.564400000000006
 30
0.0
 11
62.1372
 21
80.564400000000006
 31
0.0
  0
LINE
  5
497
  8
0
 62
     7
 10
61.980600000000003
 20
81.492500000000007
 30
0.0
 11
61.52879999999999
 21
81.492500000000007
 31
0.0
  0
LINE
  5
498
  8
0
 62
     7
 10
61.52879999999999
 20
81.492500000000007
 30
0.0
 11
61.52879999999999
 21
81.783600000000007
 31
0.0
  0
LINE
  5
499
  8
0
 62
     7
 10
61.52879999999999
 20
81.783600000000007
 30
0.0
 11
61.980600000000003
 21
81.783600000000007
 31
0.0
  0
LINE
  5
49A
  8
0
 62
     7
 10
61.980600000000003
 20
81.783600000000007
 30
0.0
 11
61.980600000000003
 21
81.492500000000007
 31
0.0
  0
ARC
  5
49B
  8
0
 62
     7
 10
62.844684999999998
 20
81.148565000000005
 30
0.0
 40
0.6450390000000001
 50
0.165321
 51
32.975002000000003
  0
ARC
  5
49C
  8
0
 62
     7
 10
62.503900999999999
 20
80.952546999999996
 30
0.0
 40
1.037825999999999
 50
31.813462999999992
 51
46.008727999999998
  0
ARC
  5
49D
  8
0
 62
     7
 10
62.090347000000001
 20
80.527069999999995
 30
0.0
 40
1.6311679999999991
 50
45.937949999999987
 51
57.056981999999998
  0
ARC
  5
49E
  8
0
 62
     7
 10
61.386454000000001
 20
79.414108999999996
 30
0.0
 40
2.9479939999999991
 50
57.33914699999999
 51
75.249918000000008
  0
ARC
  5
49F
  8
0
 62
     7
 10
60.573838000000002
 20
76.804805000000002
 30
0.0
 40
5.6795049999999998
 50
74.024117000000004
 51
90.848686999999984
  0
ARC
  5
4A0
  8
0
 62
     7
 10
60.489078000000013
 20
76.213652999999994
 30
0.0
 40
6.270033999999999
 50
89.994187999999994
 51
105.7934989999999
  0
ARC
  5
4A1
  8
0
 62
     7
 10
59.686728000000002
 20
79.21148199999999
 30
0.0
 40
3.1673040000000001
 50
106.586983
 51
123.404499
  0
ARC
  5
4A2
  8
0
 62
     7
 10
58.651231999999993
 20
80.821066999999999
 30
0.0
 40
1.2537139999999991
 50
124.3969289999999
 51
150.65718699999999
  0
ARC
  5
4A3
  8
0
 62
     7
 10
58.143564000000012
 20
81.143676999999997
 30
0.0
 40
0.6538930000000001
 50
153.50131499999989
 51
179.40856199999999
  0
ARC
  5
4A4
  8
0
 62
     7
 10
58.134343000000001
 20
81.152287999999999
 30
0.0
 40
0.64464
 50
180.16546600000001
 51
212.985522
  0
ARC
  5
4A5
  8
0
 62
     7
 10
58.475614
 20
81.348596000000001
 30
0.0
 40
1.037990999999999
 50
211.81897499999991
 51
226.01080999999999
  0
ARC
  5
4A6
  8
0
 62
     7
 10
58.889328999999996
 20
81.774278000000024
 30
0.0
 40
1.6315939999999991
 50
225.940245
 51
237.05625399999991
  0
ARC
  5
4A7
  8
0
 62
     7
 10
59.593511999999997
 20
82.887665999999996
 30
0.0
 40
2.9489359999999998
 50
237.33843100000001
 51
255.24390399999999
  0
ARC
  5
4A8
  8
0
 62
     7
 10
60.405679999999997
 20
85.494454000000005
 30
0.0
 40
5.6779099999999989
 50
254.01856799999999
 51
270.84802000000002
  0
ARC
  5
4A9
  8
0
 62
     7
 10
60.490354000000011
 20
86.084828000000002
 30
0.0
 40
6.2676619999999996
 50
269.99415499999992
 51
285.799598
  0
ARC
  5
4AA
  8
0
 62
     7
 10
61.29204
 20
83.090474
 30
0.0
 40
3.168461999999999
 50
286.593189
 51
303.40497099999999
  0
ARC
  5
4AB
  8
0
 62
     7
 10
62.327989999999993
 20
81.480193999999997
 30
0.0
 40
1.2540420000000001
 50
304.39798999999999
 51
330.649584
  0
ARC
  5
4AC
  8
0
 62
     7
 10
62.836243000000003
 20
81.157189000000002
 30
0.0
 40
0.6535140000000002
 50
333.49347
 51
359.40708000000001
  0
ARC
  5
4AD
  8
0
 62
     7
 10
49.131104999999998
 20
94.77941899999999
 30
0.0
 40
0.6924739999999999
 50
2.1008009999999988
 51
87.913991999999993
  0
ARC
  5
4AE
  8
0
 62
     7
 10
49.181693000000003
 20
94.779421999999997
 30
0.0
 40
0.692478
 50
92.100583999999984
 51
177.89938599999999
  0
ARC
  5
4AF
  8
0
 62
     7
 10
49.181683
 20
94.830175999999994
 30
0.0
 40
0.6924670000000001
 50
182.09981400000001
 51
267.900216
  0
ARC
  5
4B0
  8
0
 62
     7
 10
49.131435000000003
 20
94.829858999999999
 30
0.0
 40
0.6921330000000001
 50
272.05975999999998
 51
357.92544600000002
  0
ARC
  5
4B1
  8
0
 62
     7
 10
60.476813999999997
 20
106.125485
 30
0.0
 40
0.346449
 50
2.104277999999999
 51
87.866108999999994
  0
ARC
  5
4B2
  8
0
 62
     7
 10
60.502332000000003
 20
106.125766
 30
0.0
 40
0.346158
 50
92.089116000000004
 51
177.94045700000001
  0
ARC
  5
4B3
  8
0
 62
     7
 10
60.502226999999998
 20
106.1508989999999
 30
0.0
 40
0.346062
 50
182.101979
 51
267.92766899999998
  0
ARC
  5
4B4
  8
0
 62
     7
 10
60.477385999999989
 20
106.1507129999999
 30
0.0
 40
0.345869
 50
272.042644
 51
357.92774800000001
  0
ARC
  5
4B5
  8
0
 62
     7
 10
60.464320999999998
 20
106.1128139999999
 30
0.0
 40
0.692488
 50
2.1014110000000001
 51
87.898578999999984
  0
ARC
  5
4B6
  8
0
 62
     7
 10
60.515096
 20
106.1128239999999
 30
0.0
 40
0.692478
 50
92.100583999999984
 51
177.89938599999999
  0
ARC
  5
4B7
  8
0
 62
     7
 10
60.515085999999997
 20
106.163578
 30
0.0
 40
0.6924670000000001
 50
182.09981400000001
 51
267.900216
  0
ARC
  5
4B8
  8
0
 62
     7
 10
60.464783999999987
 20
106.163135
 30
0.0
 40
0.692009
 50
272.064503
 51
357.93550699999992
  0
ARC
  5
4B9
  8
0
 62
     7
 10
60.489711999999997
 20
94.804803000000007
 30
0.0
 40
7.5000220000000004
 50
0.00001
 51
89.999980000000008
  0
ARC
  5
4BA
  8
0
 62
     7
 10
60.489714999999997
 20
94.804803000000007
 30
0.0
 40
7.5000220000000004
 50
90.0
 51
179.99996999999991
  0
ARC
  5
4BB
  8
0
 62
     7
 10
60.489711999999997
 20
94.804803000000007
 30
0.0
 40
7.5000189999999991
 50
179.99996999999991
 51
270.00002000000001
  0
ARC
  5
4BC
  8
0
 62
     7
 10
60.489711999999997
 20
94.804805000000002
 30
0.0
 40
7.5000220000000004
 50
270.00002000000001
 51
359.99998999999991
  0
ARC
  5
4BD
  8
0
 62
     7
 10
44.342040999999988
 20
110.952662
 30
0.0
 40
0.51928
 50
92.103113000000022
 51
177.93633099999991
  0
ARC
  5
4BE
  8
0
 62
     7
 10
44.342218999999993
 20
78.657482000000002
 30
0.0
 40
0.519478
 50
182.1220329999999
 51
267.87799699999999
  0
LINE
  5
4BF
  8
0
 62
     7
 10
43.82309999999999
 20
78.638199999999998
 30
0.0
 11
43.82309999999999
 21
110.9709999999999
 31
0.0
  0
ARC
  5
4C0
  8
0
 62
     7
 10
76.637065000000007
 20
110.9523409999999
 30
0.0
 40
0.5196130000000001
 50
2.0977749999999991
 51
87.862741999999983
  0
ARC
  5
4C1
  8
0
 62
     7
 10
76.637662000000006
 20
78.657027999999997
 30
0.0
 40
0.519008
 50
272.07383700000003
 51
357.92617300000001
  0
LINE
  5
4C2
  8
0
 62
     7
 10
77.156300000000002
 20
110.9709999999999
 30
0.0
 11
77.156300000000002
 21
78.638199999999998
 31
0.0
  0
LINE
  5
4C3
  8
0
 62
     7
 10
44.323
 20
111.47199999999999
 30
0.0
 11
76.656400000000005
 21
111.47199999999999
 31
0.0
  0
LINE
  5
4C4
  8
0
 62
     7
 10
76.656400000000005
 20
78.138400000000004
 30
0.0
 11
44.323
 21
78.138400000000004
 31
0.0
  0
LINE
  5
4C5
  8
0
 62
     7
 10
101.422
 20
87.3048
 30
0.0
 11
101.482
 21
87.3048
 31
0.0
  0
ARC
  5
4C6
  8
0
 62
     7
 10
100.7415249999999
 20
102.0280859999999
 30
0.0
 40
0.276922
 50
92.087222000000025
 51
177.91274799999991
  0
ARC
  5
4C7
  8
0
 62
     7
 10
121.2413509999999
 20
111.19485399999991
 30
0.0
 40
0.276922
 50
92.087222000000025
 51
177.91274799999991
  0
ARC
  5
4C8
  8
0
 62
     7
 10
115.79171699999991
 20
102.131827
 30
0.0
 40
0.17311
 50
2.0703249999999991
 51
87.929665
  0
LINE
  5
4C9
  8
0
 62
     7
 10
116.6309999999999
 20
101.13799999999991
 30
0.0
 11
115.965
 21
101.13799999999991
 31
0.0
  0
LINE
  5
4CA
  8
0
 62
     7
 10
115.798
 20
102.30500000000001
 30
0.0
 11
100.73099999999999
 21
102.30500000000001
 31
0.0
  0
LINE
  5
4CB
  8
0
 62
     7
 10
125.965
 20
111.47199999999999
 30
0.0
 11
125.965
 21
111.2049999999999
 31
0.0
  0
LINE
  5
4CC
  8
0
 62
     7
 10
132.96499999999989
 20
103.80500000000001
 30
0.0
 11
135.63199999999989
 21
103.80500000000001
 31
0.0
  0
LINE
  5
4CD
  8
0
 62
     7
 10
132.96499999999989
 20
102.13799999999991
 30
0.0
 11
132.96499999999989
 21
103.80500000000001
 31
0.0
  0
LINE
  5
4CE
  8
0
 62
     7
 10
120.965
 20
102.30500000000001
 30
0.0
 11
116.6309999999999
 21
102.30500000000001
 31
0.0
  0
LINE
  5
4CF
  8
0
 62
     7
 10
132.96499999999989
 20
102.30500000000001
 30
0.0
 11
125.965
 21
102.30500000000001
 31
0.0
  0
LINE
  5
4D0
  8
0
 62
     7
 10
121.23099999999999
 20
111.47199999999999
 30
0.0
 11
125.965
 21
111.47199999999999
 31
0.0
  0
ARC
  5
4D1
  8
0
 62
     7
 10
100.7415249999999
 20
87.581521999999993
 30
0.0
 40
0.276922
 50
182.08725200000001
 51
267.91277799999989
  0
LINE
  5
4D2
  8
0
 62
     7
 10
101.621
 20
87.371300000000005
 30
0.0
 11
101.62299999999991
 21
87.372299999999996
 31
0.0
  0
LINE
  5
4D3
  8
0
 62
     7
 10
101.62299999999991
 20
87.372299999999996
 30
0.0
 11
101.626
 21
87.375100000000003
 31
0.0
  0
LINE
  5
4D4
  8
0
 62
     7
 10
101.626
 20
87.375100000000003
 30
0.0
 11
101.6299999999999
 21
87.377499999999998
 31
0.0
  0
LINE
  5
4D5
  8
0
 62
     7
 10
101.6299999999999
 20
87.377499999999998
 30
0.0
 11
101.6329999999999
 21
87.380200000000002
 31
0.0
  0
LINE
  5
4D6
  8
0
 62
     7
 10
101.6329999999999
 20
87.380200000000002
 30
0.0
 11
101.64100000000001
 21
87.386399999999995
 31
0.0
  0
ARC
  5
4D7
  8
0
 62
     7
 10
102.0916629999999
 20
86.872198999999995
 30
0.0
 40
0.6840250000000001
 50
128.5099229999999
 51
131.25541799999999
  0
LINE
  5
4D8
  8
0
 62
     7
 10
101.4889999999999
 20
87.312700000000007
 30
0.0
 11
101.536
 21
87.325100000000006
 31
0.0
  0
ARC
  5
4D9
  8
0
 62
     7
 10
101.42680799999989
 20
87.629361000000003
 30
0.0
 40
0.32321
 50
289.72138899999987
 51
298.28664099999997
  0
ARC
  5
4DA
  8
0
 62
     7
 10
101.389572
 20
87.682374999999993
 30
0.0
 40
0.387614
 50
299.42005499999999
 51
304.33915200000001
  0
LINE
  5
4DB
  8
0
 62
     7
 10
101.6079999999999
 20
87.362300000000005
 30
0.0
 11
101.6179999999999
 21
87.368899999999996
 31
0.0
  0
LINE
  5
4DC
  8
0
 62
     7
 10
101.6179999999999
 20
87.368899999999996
 30
0.0
 11
101.621
 21
87.371300000000005
 31
0.0
  0
LINE
  5
4DD
  8
0
 62
     7
 10
101.6389999999999
 20
87.384699999999995
 30
0.0
 11
101.645
 21
87.390600000000006
 31
0.0
  0
ARC
  5
4DE
  8
0
 62
     7
 10
104.18332099999991
 20
84.355415000000008
 30
0.0
 40
3.9563929999999989
 50
129.518584
 51
129.90122500000001
  0
LINE
  5
4DF
  8
0
 62
     7
 10
100.73099999999999
 20
87.3048
 30
0.0
 11
101.422
 21
87.3048
 31
0.0
  0
LINE
  5
4E0
  8
0
 62
     7
 10
100.465
 20
87.571399999999997
 30
0.0
 11
100.465
 21
94.8048
 31
0.0
  0
LINE
  5
4E1
  8
0
 62
     7
 10
106.83199999999999
 20
87.3048
 30
0.0
 11
107.2979999999999
 21
87.3048
 31
0.0
  0
LINE
  5
4E2
  8
0
 62
     7
 10
106.681
 20
87.347200000000015
 30
0.0
 11
106.712
 21
87.331000000000003
 31
0.0
  0
ARC
  5
4E3
  8
0
 62
     7
 10
106.81622400000001
 20
87.541145999999983
 30
0.0
 40
0.234683
 50
243.58421999999999
 51
268.90184099999999
  0
LINE
  5
4E4
  8
0
 62
     7
 10
106.812
 20
87.3065
 30
0.0
 11
106.83199999999999
 21
87.307900000000004
 31
0.0
  0
ARC
  5
4E5
  8
0
 62
     7
 10
108.79832500000001
 20
89.979411999999996
 30
0.0
 40
2.871216
 50
246.23602
 51
292.94897099999997
  0
ARC
  5
4E6
  8
0
 62
     7
 10
108.797827
 20
79.863624999999999
 30
0.0
 40
7.59077
 50
78.751256000000012
 51
101.39443
  0
LINE
  5
4E7
  8
0
 62
     7
 10
115.965
 20
88.471599999999995
 30
0.0
 11
116.6309999999999
 21
88.471599999999995
 31
0.0
  0
ARC
  5
4E8
  8
0
 62
     7
 10
115.79174399999999
 20
87.477754000000004
 30
0.0
 40
0.173083
 50
272.06175400000001
 51
357.93825499999991
  0
LINE
  5
4E9
  8
0
 62
     7
 10
125.965
 20
87.3048
 30
0.0
 11
132.96499999999989
 21
87.3048
 31
0.0
  0
LINE
  5
4EA
  8
0
 62
     7
 10
116.6309999999999
 20
87.3048
 30
0.0
 11
120.965
 21
87.3048
 31
0.0
  0
LINE
  5
4EB
  8
0
 62
     7
 10
115.965
 20
94.8048
 30
0.0
 11
115.965
 21
87.471500000000006
 31
0.0
  0
LINE
  5
4EC
  8
0
 62
     7
 10
110.2789999999999
 20
87.3048
 30
0.0
 11
115.798
 21
87.3048
 31
0.0
  0
ARC
  5
4ED
  8
0
 62
     7
 10
121.240994
 20
78.414754000000002
 30
0.0
 40
0.276565
 50
182.09008299999999
 51
267.98401999999999
  0
ARC
  5
4EE
  8
0
 62
     7
 10
107.00522099999991
 20
87.883071000000001
 30
0.0
 40
0.626628
 50
229.81515999999999
 51
231.60605499999991
  0
ARC
  5
4EF
  8
0
 62
     7
 10
103.96098600000001
 20
84.287330999999995
 30
0.0
 40
4.0847110000000004
 50
49.737682
 51
51.722749999999991
  0
ARC
  5
4F0
  8
0
 62
     7
 10
104.165031
 20
84.506473999999983
 30
0.0
 40
3.7863579999999999
 50
52.092403999999988
 51
56.083956999999998
  0
ARC
  5
4F1
  8
0
 62
     7
 10
104.0097469999999
 20
84.266559999999984
 30
0.0
 40
4.0720999999999989
 50
56.154346999999987
 51
59.802590000000009
  0
ARC
  5
4F2
  8
0
 62
     7
 10
104.129614
 20
84.471660999999997
 30
0.0
 40
3.8345410000000002
 50
59.809153999999999
 51
64.673750999999996
  0
ARC
  5
4F3
  8
0
 62
     7
 10
104.11590099999999
 20
84.419166000000004
 30
0.0
 40
3.887869999999999
 50
64.822012000000001
 51
73.102951000000004
  0
ARC
  5
4F4
  8
0
 62
     7
 10
104.13661499999991
 20
84.500841000000008
 30
0.0
 40
3.803701999999999
 50
73.043909999999997
 51
82.322946000000016
  0
ARC
  5
4F5
  8
0
 62
     7
 10
104.128693
 20
84.405387000000005
 30
0.0
 40
3.899362
 50
82.394956999999991
 51
92.354884999999996
  0
ARC
  5
4F6
  8
0
 62
     7
 10
104.1358819999999
 20
84.440280000000016
 30
0.0
 40
3.864803999999999
 50
92.482635999999985
 51
98.085944999999995
  0
ARC
  5
4F7
  8
0
 62
     7
 10
104.149146
 20
84.374050999999994
 30
0.0
 40
3.932242
 50
98.141548999999998
 51
103.40657399999991
  0
ARC
  5
4F8
  8
0
 62
     7
 10
104.109764
 20
84.533927000000006
 30
0.0
 40
3.7675909999999999
 50
103.3877259999999
 51
113.17128599999999
  0
ARC
  5
4F9
  8
0
 62
     7
 10
104.14804699999991
 20
84.433793999999992
 30
0.0
 40
3.874712999999999
 50
113.109087
 51
117.891077
  0
ARC
  5
4FA
  8
0
 62
     7
 10
104.167768
 20
84.398443
 30
0.0
 40
3.9151829999999999
 50
117.904155
 51
121.823323
  0
ARC
  5
4FB
  8
0
 62
     7
 10
104.13841600000001
 20
84.444783000000001
 30
0.0
 40
3.860331
 50
121.815825
 51
126.5583219999999
  0
ARC
  5
4FC
  8
0
 62
     7
 10
103.82924
 20
84.87128100000001
 30
0.0
 40
3.3335940000000002
 50
126.6561929999999
 51
129.915504
  0
ARC
  5
4FD
  8
0
 62
     7
 10
108.119485
 20
79.777293999999998
 30
0.0
 40
9.9935289999999988
 50
130.04155900000001
 51
130.39334700000001
  0
LINE
  5
4FE
  8
0
 62
     7
 10
132.96499999999989
 20
93.181500000000014
 30
0.0
 11
135.63199999999989
 21
93.181500000000014
 31
0.0
  0
LINE
  5
4FF
  8
0
 62
     7
 10
135.63199999999989
 20
92.002899999999997
 30
0.0
 11
132.96499999999989
 21
92.002899999999997
 31
0.0
  0
LINE
  5
500
  8
0
 62
     7
 10
135.63199999999989
 20
93.181500000000014
 30
0.0
 11
135.63199999999989
 21
92.530000000000001
 31
0.0
  0
LINE
  5
501
  8
0
 62
     7
 10
132.96499999999989
 20
85.804799999999986
 30
0.0
 11
132.96499999999989
 21
93.181500000000014
 31
0.0
  0
LINE
  5
502
  8
0
 62
     7
 10
135.63199999999989
 20
85.804799999999986
 30
0.0
 11
132.96499999999989
 21
85.804799999999986
 31
0.0
  0
LINE
  5
503
  8
0
 62
     7
 10
135.63199999999989
 20
86.185100000000006
 30
0.0
 11
135.63199999999989
 21
85.804799999999986
 31
0.0
  0
LINE
  5
504
  8
0
 62
     7
 10
125.965
 20
78.138400000000004
 30
0.0
 11
121.23099999999999
 21
78.138400000000004
 31
0.0
  0
LINE
  5
505
  8
0
 62
     7
 10
100.465
 20
94.8048
 30
0.0
 11
100.465
 21
102.038
 31
0.0
  0
LINE
  5
506
  8
0
 62
     7
 10
115.965
 20
102.13799999999991
 30
0.0
 11
115.965
 21
94.8048
 31
0.0
  0
LINE
  5
507
  8
0
 62
     7
 10
125.965
 20
111.2049999999999
 30
0.0
 11
125.965
 21
78.138400000000004
 31
0.0
  0
LINE
  5
508
  8
0
 62
     7
 10
120.965
 20
78.404700000000005
 30
0.0
 11
120.965
 21
111.2049999999999
 31
0.0
  0
LINE
  5
509
  8
0
 62
     7
 10
132.96499999999989
 20
93.181500000000014
 30
0.0
 11
132.96499999999989
 21
102.13799999999991
 31
0.0
  0
LINE
  5
50A
  8
0
 62
     7
 10
116.6309999999999
 20
102.30500000000001
 30
0.0
 11
116.6309999999999
 21
87.3048
 31
0.0
  0
LINE
  5
50B
  8
0
 62
     7
 10
149.965
 20
80.781099999999995
 30
0.0
 11
149.61299999999989
 21
81.133199999999988
 31
0.0
  0
LINE
  5
50C
  8
0
 62
     7
 10
158.983
 20
81.133199999999988
 30
0.0
 11
158.631
 21
80.781099999999995
 31
0.0
  0
LINE
  5
50D
  8
0
 62
     7
 10
154.298
 20
81.133199999999988
 30
0.0
 11
158.983
 21
81.133199999999988
 31
0.0
  0
LINE
  5
50E
  8
0
 62
     7
 10
158.631
 20
80.781099999999995
 30
0.0
 11
154.298
 21
80.781099999999995
 31
0.0
  0
LINE
  5
50F
  8
0
 62
     7
 10
149.61299999999989
 20
81.133199999999988
 30
0.0
 11
154.298
 21
81.133199999999988
 31
0.0
  0
LINE
  5
510
  8
0
 62
     7
 10
154.298
 20
80.781099999999995
 30
0.0
 11
149.965
 21
80.781099999999995
 31
0.0
  0
LINE
  5
511
  8
0
 62
     7
 10
135.63199999999989
 20
86.161299999999997
 30
0.0
 11
135.63199999999989
 21
87.740899999999996
 31
0.0
  0
LINE
  5
512
  8
0
 62
     7
 10
149.29300000000001
 20
82.781300000000002
 30
0.0
 11
149.52699999999999
 21
82.781300000000002
 31
0.0
  0
ARC
  5
513
  8
0
 62
     7
 10
1021.441
 20
122.50008099999999
 30
0.0
 40
872.73069899999996
 50
182.403775
 51
182.47707700000001
  0
ARC
  5
514
  8
0
 62
     7
 10
148.684788
 20
85.842006999999995
 30
0.0
 40
0.795226
 50
3.9483629999999992
 51
19.801138999999999
  0
ARC
  5
515
  8
0
 62
     7
 10
148.87356800000001
 20
85.802409999999995
 30
0.0
 40
0.6390850000000001
 50
28.912955
 51
34.169668999999999
  0
LINE
  5
516
  8
0
 62
     7
 10
149.22799999999989
 20
86.161299999999997
 30
0.0
 11
149.28700000000001
 21
84.781199999999998
 31
0.0
  0
LINE
  5
517
  8
0
 62
     7
 10
149.28700000000001
 20
84.781199999999998
 30
0.0
 11
149.52600000000001
 21
84.781199999999998
 31
0.0
  0
LINE
  5
518
  8
0
 62
     7
 10
149.21299999999991
 20
84.781199999999998
 30
0.0
 11
149.14799999999991
 21
86.161299999999997
 31
0.0
  0
LINE
  5
519
  8
0
 62
     7
 10
148.9439999999999
 20
86.161299999999997
 30
0.0
 11
149.1879999999999
 21
84.781199999999998
 31
0.0
  0
LINE
  5
51A
  8
0
 62
     7
 10
149.1879999999999
 20
84.781199999999998
 30
0.0
 11
149.21299999999991
 21
84.781199999999998
 31
0.0
  0
ARC
  5
51B
  8
0
 62
     7
 10
158.67768699999999
 20
73.172466999999997
 30
0.0
 40
15.70173299999999
 50
124.18515499999999
 51
124.87489099999991
  0
ARC
  5
51C
  8
0
 62
     7
 10
155.58104299999999
 20
77.544506999999996
 30
0.0
 40
10.34436099999999
 50
124.6499019999999
 51
126.155243
  0
LINE
  5
51D
  8
0
 62
     7
 10
149.29300000000001
 20
82.781300000000002
 30
0.0
 11
149.1879999999999
 21
84.781199999999998
 31
0.0
  0
ARC
  5
51E
  8
0
 62
     7
 10
168.8653229999999
 20
83.79128399999999
 30
0.0
 40
19.364975000000001
 50
177.069703
 51
182.98951700000001
  0
ARC
  5
51F
  8
0
 62
     7
 10
169.87563
 20
83.841575999999989
 30
0.0
 40
20.610139999999991
 50
177.3868389999999
 51
182.9487419999999
  0
LINE
  5
520
  8
0
 62
     7
 10
152.5979999999999
 20
86.215799999999987
 30
0.0
 11
152.59
 21
86.134100000000004
 31
0.0
  0
LINE
  5
521
  8
0
 62
     7
 10
152.59
 20
86.134100000000004
 30
0.0
 11
152.3899999999999
 21
86.174099999999996
 31
0.0
  0
ARC
  5
522
  8
0
 62
     7
 10
152.71722500000001
 20
90.937961000000001
 30
0.0
 40
3.2143000000000002
 50
264.05713900000001
 51
275.942881
  0
LINE
  5
523
  8
0
 62
     7
 10
153.05000000000001
 20
87.740899999999996
 30
0.0
 11
153.0
 21
86.793199999999999
 31
0.0
  0
ARC
  5
524
  8
0
 62
     7
 10
154.30728799999989
 20
94.797826000000001
 30
0.0
 40
5.0187730000000004
 50
231.07788999999991
 51
248.9292999999999
  0
ARC
  5
525
  8
0
 62
     7
 10
153.07197199999999
 20
89.410495999999995
 30
0.0
 40
0.118254
 50
53.475338999999998
 51
81.912235999999979
  0
ARC
  5
526
  8
0
 62
     7
 10
155.012137
 20
96.139007000000007
 30
0.0
 40
6.8855659999999999
 50
253.21310199999991
 51
253.778199
  0
ARC
  5
527
  8
0
 62
     7
 10
153.63176899999991
 20
91.596074999999985
 30
0.0
 40
2.1375820000000001
 50
251.0433029999999
 51
253.46737699999991
  0
ARC
  5
528
  8
0
 62
     7
 10
153.666034
 20
91.654231999999993
 30
0.0
 40
2.2037569999999991
 50
247.85694899999999
 51
250.69195799999989
  0
ARC
  5
529
  8
0
 62
     7
 10
153.52311
 20
91.293658999999991
 30
0.0
 40
1.815909999999999
 50
243.87212400000001
 51
247.745735
  0
ARC
  5
52A
  8
0
 62
     7
 10
153.51150399999989
 20
91.269876999999994
 30
0.0
 40
1.789447
 50
239.649832
 51
243.87041599999989
  0
ARC
  5
52B
  8
0
 62
     7
 10
153.56356599999989
 20
91.374223999999998
 30
0.0
 40
1.9058159999999991
 50
235.79711699999999
 51
239.88426799999999
  0
ARC
  5
52C
  8
0
 62
     7
 10
153.82779500000001
 20
89.452868999999993
 30
0.0
 40
0.6874620000000001
 50
101.581249
 51
175.60715300000001
  0
ARC
  5
52D
  8
0
 62
     7
 10
174.88803200000001
 20
81.776843000000014
 30
0.0
 40
23.788858999999992
 50
159.464921
 51
160.294712
  0
LINE
  5
52E
  8
0
 62
     7
 10
152.3839999999999
 20
87.740899999999996
 30
0.0
 11
152.49199999999999
 21
89.797999999999988
 31
0.0
  0
LINE
  5
52F
  8
0
 62
     7
 10
153.14199999999991
 20
89.505499999999984
 30
0.0
 11
153.05000000000001
 21
87.740899999999996
 31
0.0
  0
ARC
  5
530
  8
0
 62
     7
 10
152.31144900000001
 20
86.852172999999993
 30
0.0
 40
0.6914860000000001
 50
272.50800099999992
 51
355.10630400000002
  0
LINE
  5
531
  8
0
 62
     7
 10
152.33500000000001
 20
86.161299999999997
 30
0.0
 11
152.3839999999999
 21
87.740899999999996
 31
0.0
  0
ARC
  5
532
  8
0
 62
     7
 10
154.30340200000001
 20
94.781205000000014
 30
0.0
 40
5.0050910000000002
 50
171.04865599999991
 51
188.95134400000001
  0
LINE
  5
533
  8
0
 62
     7
 10
150.25700000000001
 20
92.447999999999993
 30
0.0
 11
149.80699999999999
 21
93.226899999999986
 31
0.0
  0
ARC
  5
534
  8
0
 62
     7
 10
-1275.0329999999999
 20
-728.49825199999987
 30
0.0
 40
1644.8099999999999
 50
29.972652
 51
30.003841000000001
  0
ARC
  5
535
  8
0
 62
     7
 10
154.406409
 20
94.781205000000014
 30
0.0
 40
4.7606459999999986
 50
150.652646
 51
209.347354
  0
ARC
  5
536
  8
0
 62
     7
 10
996.54573100000005
 20
-392.52623899999998
 30
0.0
 40
977.72851700000001
 50
149.94743399999999
 51
150.052617
  0
ARC
  5
537
  8
0
 62
     7
 10
154.300049
 20
94.777123000000003
 30
0.0
 40
5.0044699999999986
 50
111.044982
 51
128.94782900000001
  0
ARC
  5
538
  8
0
 62
     7
 10
153.82670499999989
 20
100.10767199999989
 30
0.0
 40
0.6862080000000002
 50
184.21557000000001
 51
255.389274
  0
ARC
  5
539
  8
0
 62
     7
 10
153.72506299999989
 20
97.935407999999995
 30
0.0
 40
2.2059599999999988
 50
120.4331889999999
 51
123.9763949999999
  0
ARC
  5
53A
  8
0
 62
     7
 10
153.546087
 20
98.224932999999993
 30
0.0
 40
1.865683
 50
116.140479
 51
120.197857
  0
ARC
  5
53B
  8
0
 62
     7
 10
153.55171000000001
 20
98.202783999999994
 30
0.0
 40
1.8880499999999989
 50
108.96673
 51
115.997547
  0
ARC
  5
53C
  8
0
 62
     7
 10
153.58570199999991
 20
98.112791000000001
 30
0.0
 40
1.984208
 50
106.4389199999999
 51
109.0503999999999
  0
ARC
  5
53D
  8
0
 62
     7
 10
151.46952099999999
 20
105.353483
 30
0.0
 40
5.5593969999999988
 50
286.23909800000001
 51
286.93559499999998
  0
LINE
  5
53E
  8
0
 62
     7
 10
153.089
 20
100.035
 30
0.0
 11
153.12899999999999
 21
100.0479999999999
 31
0.0
  0
LINE
  5
53F
  8
0
 62
     7
 10
153.12899999999999
 20
100.0479999999999
 30
0.0
 11
153.14199999999991
 21
100.0569999999999
 31
0.0
  0
LINE
  5
540
  8
0
 62
     7
 10
153.298
 20
99.781300000000002
 30
0.0
 11
153.298
 21
99.662800000000004
 31
0.0
  0
ARC
  5
541
  8
0
 62
     7
 10
173.68456
 20
107.3450229999999
 30
0.0
 40
22.507206
 50
199.68166099999991
 51
200.558706
  0
LINE
  5
542
  8
0
 62
     7
 10
152.3839999999999
 20
101.822
 30
0.0
 11
153.05000000000001
 21
101.822
 31
0.0
  0
LINE
  5
543
  8
0
 62
     7
 10
153.0
 20
102.77
 30
0.0
 11
153.05000000000001
 21
101.822
 31
0.0
  0
LINE
  5
544
  8
0
 62
     7
 10
152.49199999999999
 20
99.764700000000005
 30
0.0
 11
152.3839999999999
 21
101.822
 31
0.0
  0
LINE
  5
545
  8
0
 62
     7
 10
153.05000000000001
 20
101.822
 30
0.0
 11
153.14199999999991
 21
100.0569999999999
 31
0.0
  0
ARC
  5
546
  8
0
 62
     7
 10
556.55829800000004
 20
-136.95043399999989
 30
0.0
 40
468.9001189999999
 50
149.944366
 51
150.0543199999999
  0
ARC
  5
547
  8
0
 62
     7
 10
1575.54645
 20
-723.83149600000002
 30
0.0
 40
1644.8099999999999
 50
149.99613899999991
 51
150.02732900000001
  0
ARC
  5
548
  8
0
 62
     7
 10
154.43836799999991
 20
94.647071999999994
 30
0.0
 40
5.4752039999999988
 50
110.82043299999989
 51
178.59799799999999
  0
ARC
  5
549
  8
0
 62
     7
 10
-795.95643200000006
 20
-454.76285000000001
 30
0.0
 40
1093.05034
 50
29.947406000000001
 51
30.041508
  0
ARC
  5
54A
  8
0
 62
     7
 10
154.43706599999999
 20
94.91477900000001
 30
0.0
 40
5.473897
 50
181.40009199999989
 51
249.18894800000001
  0
LINE
  5
54B
  8
0
 62
     7
 10
152.33500000000001
 20
86.161299999999997
 30
0.0
 11
135.63199999999989
 21
86.161299999999997
 31
0.0
  0
LINE
  5
54C
  8
0
 62
     7
 10
135.63199999999989
 20
87.740899999999996
 30
0.0
 11
152.3839999999999
 21
87.740899999999996
 31
0.0
  0
LINE
  5
54D
  8
0
 62
     7
 10
135.63199999999989
 20
101.822
 30
0.0
 11
152.3839999999999
 21
101.822
 31
0.0
  0
LINE
  5
54E
  8
0
 62
     7
 10
149.24799999999999
 20
103.401
 30
0.0
 11
149.25200000000001
 21
103.40599999999991
 31
0.0
  0
ARC
  5
54F
  8
0
 62
     7
 10
148.97681099999991
 20
103.648917
 30
0.0
 40
0.367724
 50
318.558874
 51
349.994775
  0
ARC
  5
550
  8
0
 62
     7
 10
148.23943899999989
 20
103.862425
 30
0.0
 40
1.1339559999999991
 50
345.84027200000003
 51
354.34769399999999
  0
ARC
  5
551
  8
0
 62
     7
 10
165.74886399999991
 20
126.75681899999989
 30
0.0
 40
28.250181999999999
 50
235.30671499999991
 51
235.766043
  0
ARC
  5
552
  8
0
 62
     7
 10
156.99077800000001
 20
114.00282900000001
 30
0.0
 40
12.778893
 50
233.79720499999991
 51
235.04501499999989
  0
ARC
  5
553
  8
0
 62
     7
 10
145.177153
 20
97.898910999999998
 30
0.0
 40
7.193554999999999
 50
53.629265000000011
 51
54.192935999999989
  0
ARC
  5
554
  8
0
 62
     7
 10
149.10331199999999
 20
103.36806
 30
0.0
 40
0.461358
 50
52.244720000000008
 51
55.060352000000002
  0
LINE
  5
555
  8
0
 62
     7
 10
149.36799999999991
 20
103.746
 30
0.0
 11
149.61299999999989
 21
108.43000000000001
 31
0.0
  0
LINE
  5
556
  8
0
 62
     7
 10
152.5979999999999
 20
103.34699999999999
 30
0.0
 11
152.59
 21
103.4289999999999
 31
0.0
  0
LINE
  5
557
  8
0
 62
     7
 10
152.38200000000001
 20
103.387
 30
0.0
 11
152.59
 21
103.4289999999999
 31
0.0
  0
LINE
  5
558
  8
0
 62
     7
 10
149.61299999999989
 20
108.43000000000001
 30
0.0
 11
149.965
 21
108.78100000000001
 31
0.0
  0
LINE
  5
559
  8
0
 62
     7
 10
135.63199999999989
 20
103.401
 30
0.0
 11
152.33500000000001
 21
103.401
 31
0.0
  0
ARC
  5
55A
  8
0
 62
     7
 10
152.312195
 20
102.71081699999991
 30
0.0
 40
0.6907220000000001
 50
4.8794940000000002
 51
87.865774000000002
  0
LINE
  5
55B
  8
0
 62
     7
 10
135.63199999999989
 20
101.822
 30
0.0
 11
135.63199999999989
 21
103.401
 31
0.0
  0
LINE
  5
55C
  8
0
 62
     7
 10
152.3839999999999
 20
101.822
 30
0.0
 11
152.33500000000001
 21
103.401
 31
0.0
  0
LINE
  5
55D
  8
0
 62
     7
 10
156.0929999999999
 20
90.114599999999996
 30
0.0
 11
155.19799999999989
 21
90.114599999999996
 31
0.0
  0
LINE
  5
55E
  8
0
 62
     7
 10
155.19799999999989
 20
90.114599999999996
 30
0.0
 11
154.298
 21
90.114599999999996
 31
0.0
  0
ARC
  5
55F
  8
0
 62
     7
 10
154.297934
 20
94.783303000000004
 30
0.0
 40
5.0019200000000001
 50
291.03233299999999
 51
308.94784600000003
  0
ARC
  5
560
  8
0
 62
     7
 10
154.29318199999989
 20
93.705492000000007
 30
0.0
 40
4.2228750000000002
 50
273.547909
 51
282.81865199999999
  0
ARC
  5
561
  8
0
 62
     7
 10
154.2975909999999
 20
93.728949999999983
 30
0.0
 40
4.2460190000000004
 50
268.82719600000001
 51
273.46893999999992
  0
ARC
  5
562
  8
0
 62
     7
 10
154.297999
 20
93.642308999999997
 30
0.0
 40
4.1594059999999988
 50
264.02177399999999
 51
268.79715599999997
  0
ARC
  5
563
  8
0
 62
     7
 10
151.89795100000001
 20
89.834997999999999
 30
0.0
 40
1.9942479999999989
 50
350.490453
 51
8.6305060000000005
  0
ARC
  5
564
  8
0
 62
     7
 10
154.53798199999989
 20
98.670653000000001
 30
0.0
 40
8.8713929999999994
 50
279.84734600000002
 51
284.439165
  0
ARC
  5
565
  8
0
 62
     7
 10
154.39501299999989
 20
99.465223999999992
 30
0.0
 40
9.6787089999999996
 50
275.66858100000002
 51
279.87677899999989
  0
ARC
  5
566
  8
0
 62
     7
 10
158.22191699999991
 20
88.269806000000003
 30
0.0
 40
3.269293999999999
 50
151.41886599999989
 51
156.22394700000001
  0
ARC
  5
567
  8
0
 62
     7
 10
118.53264900000001
 20
70.133382999999995
 30
0.0
 40
43.109381999999997
 50
27.560548999999991
 51
27.962603999999988
  0
ARC
  5
568
  8
0
 62
     7
 10
157.21654499999991
 20
90.029838999999996
 30
0.0
 40
2.035026999999999
 50
177.4180879999999
 51
192.54373799999991
  0
ARC
  5
569
  8
0
 62
     7
 10
152.62213
 20
89.203410999999988
 30
0.0
 40
2.800762999999999
 50
13.008372
 51
19.187754000000002
  0
ARC
  5
56A
  8
0
 62
     7
 10
-2523.1479999999988
 20
211.56146200000001
 30
0.0
 40
2679.7939999999999
 50
357.36099000000002
 51
357.38945999999999
  0
ARC
  5
56B
  8
0
 62
     7
 10
1038.2190000000001
 20
47.327101999999996
 30
0.0
 40
885.35753999999997
 50
177.35555299999999
 51
177.408759
  0
ARC
  5
56C
  8
0
 62
     7
 10
157.48384999999999
 20
90.890360999999984
 30
0.0
 40
2.0742060000000002
 50
254.8954619999999
 51
269.93449500000003
  0
ARC
  5
56D
  8
0
 62
     7
 10
157.9343439999999
 20
93.009167000000005
 30
0.0
 40
4.2388209999999988
 50
248.489304
 51
256.4797089999999
  0
ARC
  5
56E
  8
0
 62
     7
 10
159.13629900000001
 20
96.396318000000008
 30
0.0
 40
7.8317600000000001
 50
244.86079699999999
 51
249.3946489999999
  0
ARC
  5
56F
  8
0
 62
     7
 10
161.89436000000001
 20
102.56326
 30
0.0
 40
14.586753
 50
242.81462200000001
 51
245.3440249999999
  0
ARC
  5
570
  8
0
 62
     7
 10
160.07512299999999
 20
88.756631999999996
 30
0.0
 40
0.69175
 50
91.925503000000006
 51
175.0635959999999
  0
LINE
  5
571
  8
0
 62
     7
 10
157.48099999999999
 20
88.816199999999995
 30
0.0
 11
157.49299999999991
 21
88.941199999999995
 31
0.0
  0
LINE
  5
572
  8
0
 62
     7
 10
157.49299999999991
 20
88.941199999999995
 30
0.0
 11
157.51900000000001
 21
89.060400000000001
 31
0.0
  0
LINE
  5
573
  8
0
 62
     7
 10
157.51900000000001
 20
89.060400000000001
 30
0.0
 11
157.559
 21
89.169600000000017
 31
0.0
  0
LINE
  5
574
  8
0
 62
     7
 10
157.559
 20
89.169600000000017
 30
0.0
 11
157.6109999999999
 21
89.265100000000004
 31
0.0
  0
LINE
  5
575
  8
0
 62
     7
 10
157.6109999999999
 20
89.265100000000004
 30
0.0
 11
157.67299999999989
 21
89.342600000000004
 31
0.0
  0
LINE
  5
576
  8
0
 62
     7
 10
157.67299999999989
 20
89.342600000000004
 30
0.0
 11
157.74299999999991
 21
89.400400000000005
 31
0.0
  0
LINE
  5
577
  8
0
 62
     7
 10
157.74299999999991
 20
89.400400000000005
 30
0.0
 11
157.81899999999999
 21
89.435900000000004
 31
0.0
  0
LINE
  5
578
  8
0
 62
     7
 10
157.81899999999999
 20
89.435900000000004
 30
0.0
 11
157.898
 21
89.447999999999979
 31
0.0
  0
ARC
  5
579
  8
0
 62
     7
 10
157.90084899999991
 20
94.678437000000017
 30
0.0
 40
5.2304459999999988
 50
263.09868299999988
 51
269.97249499999998
  0
ARC
  5
57A
  8
0
 62
     7
 10
158.28298499999991
 20
98.976477000000003
 30
0.0
 40
9.5442470000000004
 50
260.06131299999993
 51
263.921651
  0
ARC
  5
57B
  8
0
 62
     7
 10
160.07389499999999
 20
109.993076
 30
0.0
 40
20.705076999999989
 50
256.81463300000001
 51
260.44144999999992
  0
LINE
  5
57C
  8
0
 62
     7
 10
157.48099999999999
 20
88.816199999999995
 30
0.0
 11
159.386
 21
88.816199999999995
 31
0.0
  0
ARC
  5
57D
  8
0
 62
     7
 10
163.66447700000001
 20
82.788255000000007
 30
0.0
 40
0.340427
 50
270.74592699999999
 51
331.92416700000001
  0
LINE
  5
57E
  8
0
 62
     7
 10
163.6689999999999
 20
82.447900000000004
 30
0.0
 11
162.96799999999999
 21
82.447900000000004
 31
0.0
  0
ARC
  5
57F
  8
0
 62
     7
 10
162.97969299999991
 20
82.793243000000004
 30
0.0
 40
0.345578
 50
184.89180899999999
 51
268.08948399999991
  0
LINE
  5
580
  8
0
 62
     7
 10
162.90199999999999
 20
84.027399999999986
 30
0.0
 11
163.73500000000001
 21
84.027399999999986
 31
0.0
  0
ARC
  5
581
  8
0
 62
     7
 10
162.73545399999989
 20
85.603880000000004
 30
0.0
 40
1.5852120000000001
 50
263.96833099999992
 51
276.03168899999997
  0
ARC
  5
582
  8
0
 62
     7
 10
163.98356000000001
 20
88.267554000000004
 30
0.0
 40
4.2473869999999998
 50
266.6458439999999
 51
269.74753700000002
  0
LINE
  5
583
  8
0
 62
     7
 10
163.6689999999999
 20
82.447900000000004
 30
0.0
 11
163.73500000000001
 21
84.027399999999986
 31
0.0
  0
LINE
  5
584
  8
0
 62
     7
 10
163.965
 20
82.627999999999986
 30
0.0
 11
163.965
 21
82.653199999999998
 31
0.0
  0
LINE
  5
585
  8
0
 62
     7
 10
163.965
 20
82.653199999999998
 30
0.0
 11
163.965
 21
82.728300000000004
 31
0.0
  0
LINE
  5
586
  8
0
 62
     7
 10
163.965
 20
82.728300000000004
 30
0.0
 11
163.965
 21
82.851600000000005
 31
0.0
  0
LINE
  5
587
  8
0
 62
     7
 10
163.965
 20
82.851600000000005
 30
0.0
 11
163.965
 21
83.020799999999994
 31
0.0
  0
LINE
  5
588
  8
0
 62
     7
 10
163.965
 20
83.020799999999994
 30
0.0
 11
163.965
 21
83.228499999999997
 31
0.0
  0
LINE
  5
589
  8
0
 62
     7
 10
163.965
 20
83.228499999999997
 30
0.0
 11
163.965
 21
83.471100000000007
 31
0.0
  0
LINE
  5
58A
  8
0
 62
     7
 10
163.965
 20
83.471100000000007
 30
0.0
 11
163.965
 21
83.736699999999999
 31
0.0
  0
LINE
  5
58B
  8
0
 62
     7
 10
163.965
 20
83.736699999999999
 30
0.0
 11
163.965
 21
84.020200000000003
 31
0.0
  0
LINE
  5
58C
  8
0
 62
     7
 10
162.90199999999999
 20
84.027399999999986
 30
0.0
 11
162.96799999999999
 21
82.447900000000004
 31
0.0
  0
LINE
  5
58D
  8
0
 62
     7
 10
162.63499999999991
 20
82.763800000000003
 30
0.0
 11
162.5689999999999
 21
84.027399999999986
 31
0.0
  0
LINE
  5
58E
  8
0
 62
     7
 10
161.58600000000001
 20
90.079499999999996
 30
0.0
 11
162.25200000000001
 21
90.079499999999996
 31
0.0
  0
LINE
  5
58F
  8
0
 62
     7
 10
161.65199999999999
 20
89.447999999999979
 30
0.0
 11
161.58600000000001
 21
90.079499999999996
 31
0.0
  0
ARC
  5
590
  8
0
 62
     7
 10
161.34563299999999
 20
89.128794999999997
 30
0.0
 40
0.9522669999999999
 50
4.201651
 51
7.1390629999999993
  0
ARC
  5
591
  8
0
 62
     7
 10
162.104455
 20
89.218568999999988
 30
0.0
 40
0.188243
 50
8.7302979999999994
 51
28.52542399999999
  0
ARC
  5
592
  8
0
 62
     7
 10
162.14752799999999
 20
89.245581999999985
 30
0.0
 40
0.137535
 50
27.207050999999989
 51
45.251415000000001
  0
ARC
  5
593
  8
0
 62
     7
 10
162.116658
 20
89.203675000000004
 30
0.0
 40
0.189181
 50
47.547156999999999
 51
68.006119999999996
  0
ARC
  5
594
  8
0
 62
     7
 10
161.97199399999991
 20
88.877697999999995
 30
0.0
 40
0.545747
 50
66.740360999999993
 51
78.509482999999975
  0
ARC
  5
595
  8
0
 62
     7
 10
161.8454449999999
 20
88.393819999999977
 30
0.0
 40
1.045501
 50
76.995587999999998
 51
85.882614999999987
  0
ARC
  5
596
  8
0
 62
     7
 10
161.668893
 20
86.669726999999995
 30
0.0
 40
2.7783120000000001
 50
84.803875000000005
 51
90.338449999999995
  0
ARC
  5
597
  8
0
 62
     7
 10
161.67272500000001
 20
89.14445400000001
 30
0.0
 40
0.627208
 50
2.898628
 51
16.204643999999998
  0
ARC
  5
598
  8
0
 62
     7
 10
161.95954499999999
 20
89.221620999999985
 30
0.0
 40
0.330301
 50
17.235275000000001
 51
39.131805
  0
ARC
  5
599
  8
0
 62
     7
 10
162.05402599999999
 20
89.289708000000005
 30
0.0
 40
0.214151
 50
40.95505099999999
 51
69.818365
  0
ARC
  5
59A
  8
0
 62
     7
 10
162.03893600000001
 20
89.247518000000014
 30
0.0
 40
0.258957
 50
69.905023
 51
92.573145999999994
  0
ARC
  5
59B
  8
0
 62
     7
 10
162.04383299999989
 20
88.815228000000005
 30
0.0
 40
0.6911830000000001
 50
91.369825000000006
 51
107.84962899999999
  0
ARC
  5
59C
  8
0
 62
     7
 10
161.60913300000001
 20
90.410449999999997
 30
0.0
 40
0.9634350000000002
 50
272.57879600000001
 51
283.37338599999993
  0
LINE
  5
59D
  8
0
 62
     7
 10
163.73500000000001
 20
84.027399999999986
 30
0.0
 11
163.965
 21
88.412400000000005
 31
0.0
  0
LINE
  5
59E
  8
0
 62
     7
 10
163.965
 20
84.020200000000003
 30
0.0
 11
163.965
 21
88.412400000000005
 31
0.0
  0
LINE
  5
59F
  8
0
 62
     7
 10
156.75
 20
90.079499999999996
 30
0.0
 11
161.58600000000001
 21
90.079499999999996
 31
0.0
  0
LINE
  5
5A0
  8
0
 62
     7
 10
161.65199999999999
 20
89.447999999999979
 30
0.0
 11
157.898
 21
89.447999999999979
 31
0.0
  0
ARC
  5
5A1
  8
0
 62
     7
 10
1354.777
 20
-597.54319799999996
 30
0.0
 40
1381.1410000000001
 50
149.95326900000001
 51
150.027736
  0
ARC
  5
5A2
  8
0
 62
     7
 10
159.46186099999991
 20
93.444840999999997
 30
0.0
 40
0.669561
 50
89.981571999999986
 51
108.55257
  0
LINE
  5
5A3
  8
0
 62
     7
 10
159.46199999999999
 20
94.114400000000003
 30
0.0
 11
161.477
 21
94.114400000000003
 31
0.0
  0
LINE
  5
5A4
  8
0
 62
     7
 10
161.4079999999999
 20
94.114400000000003
 30
0.0
 11
161.4079999999999
 21
93.482900000000001
 31
0.0
  0
LINE
  5
5A5
  8
0
 62
     7
 10
159.46199999999999
 20
94.114400000000003
 30
0.0
 11
159.46199999999999
 21
93.482900000000001
 31
0.0
  0
LINE
  5
5A6
  8
0
 62
     7
 10
159.46199999999999
 20
93.482900000000001
 30
0.0
 11
161.4079999999999
 21
93.482900000000001
 31
0.0
  0
ARC
  5
5A7
  8
0
 62
     7
 10
156.99112099999991
 20
83.997182999999993
 30
0.0
 40
9.8022789999999986
 50
75.399385999999993
 51
78.204356000000004
  0
LINE
  5
5A8
  8
0
 62
     7
 10
158.34
 20
97.114400000000003
 30
0.0
 11
158.78999999999991
 21
96.335499999999996
 31
0.0
  0
ARC
  5
5A9
  8
0
 62
     7
 10
793.93311700000004
 20
462.62718600000011
 30
0.0
 40
733.19637399999988
 50
209.97236599999999
 51
210.042348
  0
LINE
  5
5AA
  8
0
 62
     7
 10
159.46199999999999
 20
95.447999999999993
 30
0.0
 11
161.477
 21
95.447999999999993
 31
0.0
  0
ARC
  5
5AB
  8
0
 62
     7
 10
159.46227400000001
 20
96.113855000000001
 30
0.0
 40
0.665848
 50
251.302618
 51
269.98296399999998
  0
LINE
  5
5AC
  8
0
 62
     7
 10
161.4079999999999
 20
96.079800000000006
 30
0.0
 11
161.4079999999999
 21
95.447999999999993
 31
0.0
  0
LINE
  5
5AD
  8
0
 62
     7
 10
161.4079999999999
 20
96.079800000000006
 30
0.0
 11
159.46199999999999
 21
96.079800000000006
 31
0.0
  0
LINE
  5
5AE
  8
0
 62
     7
 10
159.46199999999999
 20
96.079800000000006
 30
0.0
 11
159.46199999999999
 21
95.447999999999993
 31
0.0
  0
ARC
  5
5AF
  8
0
 62
     7
 10
157.25256200000001
 20
104.4595099999999
 30
0.0
 40
8.6660710000000005
 50
281.62888900000002
 51
284.77130599999992
  0
ARC
  5
5B0
  8
0
 62
     7
 10
154.19121100000001
 20
94.781205000000014
 30
0.0
 40
4.7595640000000001
 50
330.64534500000002
 51
29.35465499999999
  0
ARC
  5
5B1
  8
0
 62
     7
 10
154.29330999999999
 20
94.781205000000014
 30
0.0
 40
5.0051019999999991
 50
351.04869500000001
 51
8.9513049999999996
  0
LINE
  5
5B2
  8
0
 62
     7
 10
156.0929999999999
 20
99.447800000000015
 30
0.0
 11
155.19799999999989
 21
99.447800000000015
 31
0.0
  0
LINE
  5
5B3
  8
0
 62
     7
 10
155.19799999999989
 20
99.447800000000015
 30
0.0
 11
154.298
 21
99.447800000000015
 31
0.0
  0
ARC
  5
5B4
  8
0
 62
     7
 10
154.29887600000001
 20
94.780740000000009
 30
0.0
 40
5.0000569999999991
 50
51.048788999999999
 51
68.971031999999994
  0
LINE
  5
5B5
  8
0
 62
     7
 10
154.298
 20
99.781300000000002
 30
0.0
 11
154.298
 21
99.447800000000015
 31
0.0
  0
LINE
  5
5B6
  8
0
 62
     7
 10
155.29799999999989
 20
99.781300000000002
 30
0.0
 11
155.29799999999989
 21
99.447800000000015
 31
0.0
  0
LINE
  5
5B7
  8
0
 62
     7
 10
154.298
 20
99.781300000000002
 30
0.0
 11
155.29799999999989
 21
99.781300000000002
 31
0.0
  0
LINE
  5
5B8
  8
0
 62
     7
 10
154.798
 20
100.4129999999999
 30
0.0
 11
153.798
 21
100.4129999999999
 31
0.0
  0
LINE
  5
5B9
  8
0
 62
     7
 10
153.76599999999991
 20
102.208
 30
0.0
 11
153.798
 21
101.5079999999999
 31
0.0
  0
LINE
  5
5BA
  8
0
 62
     7
 10
153.798
 20
100.4129999999999
 30
0.0
 11
153.798
 21
99.781300000000002
 31
0.0
  0
LINE
  5
5BB
  8
0
 62
     7
 10
154.798
 20
99.781300000000002
 30
0.0
 11
154.798
 21
100.4129999999999
 31
0.0
  0
ARC
  5
5BC
  8
0
 62
     7
 10
154.2436909999999
 20
94.686746999999997
 30
0.0
 40
4.7613529999999988
 50
30.655056999999999
 51
89.34416800000001
  0
ARC
  5
5BD
  8
0
 62
     7
 10
-3071.114
 20
-1765.9589999999989
 30
0.0
 40
3728.326
 50
29.980662999999989
 51
30.008251000000001
  0
ARC
  5
5BE
  8
0
 62
     7
 10
154.18669099999991
 20
94.615677000000005
 30
0.0
 40
5.4748019999999986
 50
15.51180999999999
 51
83.584625000000017
  0
LINE
  5
5BF
  8
0
 62
     7
 10
162.07299999999989
 20
93.482900000000001
 30
0.0
 11
162.40700000000001
 21
93.482900000000001
 31
0.0
  0
ARC
  5
5C0
  8
0
 62
     7
 10
162.24004600000001
 20
97.634632999999994
 30
0.0
 40
1.5636879999999991
 50
263.88499300000001
 51
276.11502699999988
  0
LINE
  5
5C1
  8
0
 62
     7
 10
163.965
 20
94.781000000000006
 30
0.0
 11
163.965
 21
101.15000000000001
 31
0.0
  0
ARC
  5
5C2
  8
0
 62
     7
 10
161.473726
 20
96.269066000000009
 30
0.0
 40
0.8210659999999999
 50
270.23719999999992
 51
290.71128700000003
  0
ARC
  5
5C3
  8
0
 62
     7
 10
161.41501599999989
 20
96.418580000000006
 30
0.0
 40
0.9816829999999999
 50
290.830263
 51
307.97344399999992
  0
ARC
  5
5C4
  8
0
 62
     7
 10
161.20478
 20
96.699451999999994
 30
0.0
 40
1.3324689999999999
 50
307.66852
 51
320.22385600000001
  0
ARC
  5
5C5
  8
0
 62
     7
 10
160.0667029999999
 20
97.681639000000004
 30
0.0
 40
2.835656999999999
 50
319.68376799999999
 51
325.60626699999989
  0
ARC
  5
5C6
  8
0
 62
     7
 10
161.475337
 20
93.302057999999988
 30
0.0
 40
0.8123459999999999
 50
69.177625000000006
 51
89.873887999999994
  0
ARC
  5
5C7
  8
0
 62
     7
 10
161.42539799999989
 20
93.162253000000007
 30
0.0
 40
0.960777
 50
51.838592999999989
 51
69.357699999999994
  0
ARC
  5
5C8
  8
0
 62
     7
 10
161.22577399999989
 20
92.884737999999999
 30
0.0
 40
1.3024039999999999
 50
39.630625000000002
 51
52.476998000000002
  0
ARC
  5
5C9
  8
0
 62
     7
 10
160.14469700000001
 20
91.938018999999997
 30
0.0
 40
2.7391570000000001
 50
34.333094000000003
 51
40.458705000000002
  0
ARC
  5
5CA
  8
0
 62
     7
 10
161.3843169999999
 20
96.139325999999997
 30
0.0
 40
0.6917200000000001
 50
271.95199300000002
 51
355.06675300000001
  0
ARC
  5
5CB
  8
0
 62
     7
 10
161.38530800000001
 20
93.424094999999994
 30
0.0
 40
0.6906760000000001
 50
4.8851539999999991
 51
88.127306000000004
  0
LINE
  5
5CC
  8
0
 62
     7
 10
161.4079999999999
 20
93.482900000000001
 30
0.0
 11
162.07299999999989
 21
93.482900000000001
 31
0.0
  0
ARC
  5
5CD
  8
0
 62
     7
 10
161.74067600000001
 20
99.276867000000024
 30
0.0
 40
3.2143000000000002
 50
264.05713900000001
 51
275.942881
  0
LINE
  5
5CE
  8
0
 62
     7
 10
158.34
 20
92.447999999999993
 30
0.0
 11
157.8899999999999
 21
91.668700000000015
 31
0.0
  0
LINE
  5
5CF
  8
0
 62
     7
 10
157.8899999999999
 20
91.668700000000015
 30
0.0
 11
157.44200000000001
 21
90.893199999999979
 31
0.0
  0
ARC
  5
5D0
  8
0
 62
     7
 10
154.243978
 20
94.875164999999996
 30
0.0
 40
4.760853
 50
270.652447
 51
329.34832799999992
  0
LINE
  5
5D1
  8
0
 62
     7
 10
162.40700000000001
 20
93.482900000000001
 30
0.0
 11
162.90199999999999
 21
84.027399999999986
 31
0.0
  0
LINE
  5
5D2
  8
0
 62
     7
 10
163.965
 20
88.412400000000005
 30
0.0
 11
163.965
 21
94.781000000000006
 31
0.0
  0
LINE
  5
5D3
  8
0
 62
     7
 10
162.5689999999999
 20
84.027399999999986
 30
0.0
 11
162.07299999999989
 21
93.482900000000001
 31
0.0
  0
LINE
  5
5D4
  8
0
 62
     7
 10
161.58600000000001
 20
90.079499999999996
 30
0.0
 11
161.4079999999999
 21
93.482900000000001
 31
0.0
  0
ARC
  5
5D5
  8
0
 62
     7
 10
154.23670200000001
 20
94.864477000000008
 30
0.0
 40
5.4049279999999991
 50
297.71125299999989
 51
345.1901529999999
  0
LINE
  5
5D6
  8
0
 62
     7
 10
154.798
 20
104.78100000000001
 30
0.0
 11
153.798
 21
104.78100000000001
 31
0.0
  0
ARC
  5
5D7
  8
0
 62
     7
 10
157.40312
 20
102.7020899999999
 30
0.0
 40
2.044290999999999
 50
90.082589000000013
 51
107.73505299999999
  0
ARC
  5
5D8
  8
0
 62
     7
 10
157.91102299999989
 20
100.59538499999999
 30
0.0
 40
4.2085559999999989
 50
105.5839039999999
 51
110.223271
  0
ARC
  5
5D9
  8
0
 62
     7
 10
158.512315
 20
98.854418999999993
 30
0.0
 40
6.0501670000000001
 50
109.86726899999989
 51
113.1926399999999
  0
ARC
  5
5DA
  8
0
 62
     7
 10
160.0989359999999
 20
95.032022999999995
 30
0.0
 40
10.188617000000001
 50
112.928602
 51
117.026596
  0
ARC
  5
5DB
  8
0
 62
     7
 10
162.83380099999999
 20
89.379568000000006
 30
0.0
 40
16.467064999999991
 50
116.56628499999999
 51
117.87656699999999
  0
ARC
  5
5DC
  8
0
 62
     7
 10
166.02987399999989
 20
83.102098999999995
 30
0.0
 40
23.510718000000001
 50
117.608602
 51
118.536345
  0
ARC
  5
5DD
  8
0
 62
     7
 10
159.86558099999991
 20
104.8058209999999
 30
0.0
 40
0.6916640000000001
 50
184.93012699999991
 51
268.08077400000002
  0
LINE
  5
5DE
  8
0
 62
     7
 10
158.983
 20
108.43000000000001
 30
0.0
 11
159.17599999999999
 21
104.746
 31
0.0
  0
ARC
  5
5DF
  8
0
 62
     7
 10
157.82491999999991
 20
98.912942000000001
 30
0.0
 40
5.2016019999999994
 50
90.014776999999995
 51
98.216923999999992
  0
ARC
  5
5E0
  8
0
 62
     7
 10
158.51254800000001
 20
92.782418000000007
 30
0.0
 40
11.36915099999999
 50
97.231054000000015
 51
101.0919759999999
  0
ARC
  5
5E1
  8
0
 62
     7
 10
160.5180169999999
 20
81.840018999999998
 30
0.0
 40
22.493380999999999
 50
100.742637
 51
102.72350900000001
  0
ARC
  5
5E2
  8
0
 62
     7
 10
164.408053
 20
63.882387999999992
 30
0.0
 40
40.867130999999993
 50
102.49835400000001
 51
103.6000599999999
  0
LINE
  5
5E3
  8
0
 62
     7
 10
157.8239999999999
 20
104.11499999999999
 30
0.0
 11
157.74399999999989
 21
104.127
 31
0.0
  0
LINE
  5
5E4
  8
0
 62
     7
 10
157.74399999999989
 20
104.127
 30
0.0
 11
157.66599999999991
 21
104.16199999999991
 31
0.0
  0
LINE
  5
5E5
  8
0
 62
     7
 10
157.66599999999991
 20
104.16199999999991
 30
0.0
 11
157.59499999999991
 21
104.22
 31
0.0
  0
LINE
  5
5E6
  8
0
 62
     7
 10
157.59499999999991
 20
104.22
 30
0.0
 11
157.53200000000001
 21
104.2979999999999
 31
0.0
  0
LINE
  5
5E7
  8
0
 62
     7
 10
157.53200000000001
 20
104.2979999999999
 30
0.0
 11
157.4789999999999
 21
104.3929999999999
 31
0.0
  0
LINE
  5
5E8
  8
0
 62
     7
 10
157.4789999999999
 20
104.3929999999999
 30
0.0
 11
157.43899999999999
 21
104.502
 31
0.0
  0
LINE
  5
5E9
  8
0
 62
     7
 10
157.43899999999999
 20
104.502
 30
0.0
 11
157.41200000000001
 21
104.621
 31
0.0
  0
LINE
  5
5EA
  8
0
 62
     7
 10
157.41200000000001
 20
104.621
 30
0.0
 11
157.40000000000001
 21
104.746
 31
0.0
  0
LINE
  5
5EB
  8
0
 62
     7
 10
159.17599999999999
 20
104.746
 30
0.0
 11
157.40000000000001
 21
104.746
 31
0.0
  0
LINE
  5
5EC
  8
0
 62
     7
 10
158.631
 20
108.78100000000001
 30
0.0
 11
154.298
 21
108.78100000000001
 31
0.0
  0
LINE
  5
5ED
  8
0
 62
     7
 10
158.631
 20
108.78100000000001
 30
0.0
 11
158.983
 21
108.43000000000001
 31
0.0
  0
LINE
  5
5EE
  8
0
 62
     7
 10
161.86199999999991
 20
104.11499999999999
 30
0.0
 11
162.08999999999989
 21
104.122
 31
0.0
  0
ARC
  5
5EF
  8
0
 62
     7
 10
162.00272100000001
 20
105.5168449999999
 30
0.0
 40
1.397106999999999
 50
273.58216099999993
 51
280.80695800000001
  0
ARC
  5
5F0
  8
0
 62
     7
 10
162.14848000000001
 20
104.788577
 30
0.0
 40
0.654458
 50
280.22708899999998
 51
290.66135400000002
  0
ARC
  5
5F1
  8
0
 62
     7
 10
162.28698399999999
 20
104.4248199999999
 30
0.0
 40
0.265229
 50
290.39201600000001
 51
307.27400899999992
  0
ARC
  5
5F2
  8
0
 62
     7
 10
162.37386100000001
 20
104.305742
 30
0.0
 40
0.117896
 50
308.72485899999992
 51
334.19278199999991
  0
ARC
  5
5F3
  8
0
 62
     7
 10
162.28348199999999
 20
104.353435
 30
0.0
 40
0.220053
 50
333.25789099999997
 51
351.31808899999999
  0
ARC
  5
5F4
  8
0
 62
     7
 10
161.85069599999991
 20
104.403565
 30
0.0
 40
0.6556370000000001
 50
352.696551
 51
358.76766299999991
  0
LINE
  5
5F5
  8
0
 62
     7
 10
163.73500000000001
 20
105.535
 30
0.0
 11
162.90199999999999
 21
105.535
 31
0.0
  0
LINE
  5
5F6
  8
0
 62
     7
 10
162.5689999999999
 20
105.535
 30
0.0
 11
162.90199999999999
 21
105.535
 31
0.0
  0
LINE
  5
5F7
  8
0
 62
     7
 10
163.73500000000001
 20
105.535
 30
0.0
 11
163.965
 21
105.542
 31
0.0
  0
ARC
  5
5F8
  8
0
 62
     7
 10
162.1285969999999
 20
106.63722300000001
 30
0.0
 40
3.171676999999999
 50
263.97698100000002
 51
276.02303899999998
  0
ARC
  5
5F9
  8
0
 62
     7
 10
161.89847900000001
 20
104.413865
 30
0.0
 40
0.610718
 50
343.75767400000001
 51
357.45139599999987
  0
ARC
  5
5FA
  8
0
 62
     7
 10
162.158781
 20
104.34657900000001
 30
0.0
 40
0.342084
 50
321.24972100000002
 51
342.38319899999999
  0
ARC
  5
5FB
  8
0
 62
     7
 10
162.26203699999999
 20
104.27470699999991
 30
0.0
 40
0.21674
 50
290.33923599999991
 51
318.98122499999999
  0
ARC
  5
5FC
  8
0
 62
     7
 10
162.24845400000001
 20
104.3204459999999
 30
0.0
 40
0.264368
 50
267.54240199999992
 51
289.65391499999993
  0
ARC
  5
5FD
  8
0
 62
     7
 10
162.25703200000001
 20
104.762569
 30
0.0
 40
0.706528
 50
252.23281800000001
 51
268.38484999999991
  0
ARC
  5
5FE
  8
0
 62
     7
 10
161.815729
 20
103.1183179999999
 30
0.0
 40
0.997297
 50
76.919643999999991
 51
87.343941000000015
  0
LINE
  5
5FF
  8
0
 62
     7
 10
161.79599999999999
 20
103.4829999999999
 30
0.0
 11
161.86199999999991
 21
104.11499999999999
 31
0.0
  0
ARC
  5
600
  8
0
 62
     7
 10
163.66478499999999
 20
106.77466099999999
 30
0.0
 40
0.339916
 50
28.024906000000001
 51
89.305000000000007
  0
LINE
  5
601
  8
0
 62
     7
 10
162.96799999999999
 20
107.11499999999999
 30
0.0
 11
163.6689999999999
 21
107.11499999999999
 31
0.0
  0
ARC
  5
602
  8
0
 62
     7
 10
162.979196
 20
106.7696889999999
 30
0.0
 40
0.345039
 50
91.831036999999995
 51
175.18766999999991
  0
LINE
  5
603
  8
0
 62
     7
 10
163.73500000000001
 20
105.535
 30
0.0
 11
163.6689999999999
 21
107.11499999999999
 31
0.0
  0
LINE
  5
604
  8
0
 62
     7
 10
163.965
 20
105.542
 30
0.0
 11
163.965
 21
105.824
 31
0.0
  0
LINE
  5
605
  8
0
 62
     7
 10
163.965
 20
105.824
 30
0.0
 11
163.965
 21
106.09099999999999
 31
0.0
  0
LINE
  5
606
  8
0
 62
     7
 10
163.965
 20
106.09099999999999
 30
0.0
 11
163.965
 21
106.33199999999999
 31
0.0
  0
LINE
  5
607
  8
0
 62
     7
 10
163.965
 20
106.33199999999999
 30
0.0
 11
163.965
 21
106.5409999999999
 31
0.0
  0
LINE
  5
608
  8
0
 62
     7
 10
163.965
 20
106.5409999999999
 30
0.0
 11
163.965
 21
106.709
 31
0.0
  0
LINE
  5
609
  8
0
 62
     7
 10
163.965
 20
106.709
 30
0.0
 11
163.965
 21
106.834
 31
0.0
  0
LINE
  5
60A
  8
0
 62
     7
 10
163.965
 20
106.834
 30
0.0
 11
163.965
 21
106.90899999999991
 31
0.0
  0
LINE
  5
60B
  8
0
 62
     7
 10
163.965
 20
106.90899999999991
 30
0.0
 11
163.965
 21
106.9339999999999
 31
0.0
  0
LINE
  5
60C
  8
0
 62
     7
 10
162.96799999999999
 20
107.11499999999999
 30
0.0
 11
162.90199999999999
 21
105.535
 31
0.0
  0
LINE
  5
60D
  8
0
 62
     7
 10
162.5689999999999
 20
105.535
 30
0.0
 11
162.63499999999991
 21
106.79899999999989
 31
0.0
  0
LINE
  5
60E
  8
0
 62
     7
 10
161.79599999999999
 20
103.4829999999999
 30
0.0
 11
154.798
 21
103.4829999999999
 31
0.0
  0
LINE
  5
60F
  8
0
 62
     7
 10
157.8239999999999
 20
104.11499999999999
 30
0.0
 11
161.86199999999991
 21
104.11499999999999
 31
0.0
  0
LINE
  5
610
  8
0
 62
     7
 10
163.965
 20
101.15000000000001
 30
0.0
 11
163.73500000000001
 21
105.535
 31
0.0
  0
LINE
  5
611
  8
0
 62
     7
 10
162.90199999999999
 20
105.535
 30
0.0
 11
162.40700000000001
 21
96.079800000000006
 31
0.0
  0
LINE
  5
612
  8
0
 62
     7
 10
162.07299999999989
 20
96.079800000000006
 30
0.0
 11
162.5689999999999
 21
105.535
 31
0.0
  0
LINE
  5
613
  8
0
 62
     7
 10
163.965
 20
101.15000000000001
 30
0.0
 11
163.965
 21
105.542
 31
0.0
  0
LINE
  5
614
  8
0
 62
     7
 10
161.4079999999999
 20
96.079800000000006
 30
0.0
 11
161.79599999999999
 21
103.4829999999999
 31
0.0
  0
LINE
  5
615
  8
0
 62
     7
 10
153.798
 20
104.78100000000001
 30
0.0
 11
153.798
 21
100.4129999999999
 31
0.0
  0
LINE
  5
616
  8
0
 62
     7
 10
154.798
 20
100.4129999999999
 30
0.0
 11
154.798
 21
104.78100000000001
 31
0.0
  0
ARC
  5
617
  8
0
 62
     7
 10
154.35240099999999
 20
94.687244999999976
 30
0.0
 40
4.760853
 50
90.652426999999975
 51
149.348308
  0
ARC
  5
618
  8
0
 62
     7
 10
154.352698
 20
94.875681
 30
0.0
 40
4.7613709999999987
 50
210.65520099999989
 51
269.34406399999989
  0
LINE
  5
619
  8
0
 62
     7
 10
154.298
 20
90.114599999999996
 30
0.0
 11
153.39799999999991
 21
90.114599999999996
 31
0.0
  0
LINE
  5
61A
  8
0
 62
     7
 10
153.39799999999991
 20
90.114599999999996
 30
0.0
 11
152.94799999999989
 21
90.114599999999996
 31
0.0
  0
LINE
  5
61B
  8
0
 62
     7
 10
152.94799999999989
 20
90.114599999999996
 30
0.0
 11
152.5029999999999
 21
90.114599999999996
 31
0.0
  0
LINE
  5
61C
  8
0
 62
     7
 10
154.298
 20
99.447800000000015
 30
0.0
 11
153.39799999999991
 21
99.447800000000015
 31
0.0
  0
LINE
  5
61D
  8
0
 62
     7
 10
153.39799999999991
 20
99.447800000000015
 30
0.0
 11
152.94799999999989
 21
99.447800000000015
 31
0.0
  0
LINE
  5
61E
  8
0
 62
     7
 10
152.94799999999989
 20
99.447800000000015
 30
0.0
 11
152.5029999999999
 21
99.447800000000015
 31
0.0
  0
LINE
  5
61F
  8
0
 62
     7
 10
153.298
 20
99.781300000000002
 30
0.0
 11
154.298
 21
99.781300000000002
 31
0.0
  0
ARC
  5
620
  8
0
 62
     7
 10
152.13135500000001
 20
87.425843
 30
0.0
 40
1.636484
 50
340.38787400000001
 51
357.48557199999999
  0
ARC
  5
621
  8
0
 62
     7
 10
152.3011939999999
 20
87.366981999999993
 30
0.0
 40
1.456742
 50
330.75868300000002
 51
340.32652000000002
  0
ARC
  5
622
  8
0
 62
     7
 10
152.41978099999989
 20
87.30425799999999
 30
0.0
 40
1.322630999999999
 50
320.10282000000001
 51
330.62016499999987
  0
ARC
  5
623
  8
0
 62
     7
 10
152.59964500000001
 20
87.164167000000006
 30
0.0
 40
1.0948119999999999
 50
307.06342699999988
 51
319.68991799999998
  0
ARC
  5
624
  8
0
 62
     7
 10
152.713142
 20
87.025701999999995
 30
0.0
 40
0.9159450000000001
 50
291.60298999999992
 51
306.61837200000002
  0
ARC
  5
625
  8
0
 62
     7
 10
152.754805
 20
86.933181999999974
 30
0.0
 40
0.8145979999999999
 50
274.75288599999999
 51
291.27428800000001
  0
ARC
  5
626
  8
0
 62
     7
 10
152.753388
 20
86.991748999999999
 30
0.0
 40
0.8730870000000001
 50
259.1978749999999
 51
274.52710999999999
  0
ARC
  5
627
  8
0
 62
     7
 10
153.39797999999999
 20
84.079161999999997
 30
0.0
 40
3.2955299999999998
 50
83.583652999999998
 51
96.416328000000007
  0
LINE
  5
628
  8
0
 62
     7
 10
152.59
 20
103.4289999999999
 30
0.0
 11
152.821
 21
103.441
 31
0.0
  0
ARC
  5
629
  8
0
 62
     7
 10
152.756157
 20
102.633768
 30
0.0
 40
0.8098220000000002
 50
68.775242000000006
 51
85.437252999999998
  0
ARC
  5
62A
  8
0
 62
     7
 10
152.75568100000001
 20
102.618943
 30
0.0
 40
0.8238290000000001
 50
60.888878999999989
 51
69.117668999999992
  0
ARC
  5
62B
  8
0
 62
     7
 10
152.67648500000001
 20
102.484887
 30
0.0
 40
0.9794879999999999
 50
53.597658999999993
 51
60.656511000000002
  0
ARC
  5
62C
  8
0
 62
     7
 10
152.63372200000001
 20
102.4347029999999
 30
0.0
 40
1.0452669999999991
 50
40.141989000000002
 51
53.343483999999997
  0
ARC
  5
62D
  8
0
 62
     7
 10
152.47469399999989
 20
102.295559
 30
0.0
 40
1.2565459999999991
 50
29.227194999999998
 51
40.317332
  0
ARC
  5
62E
  8
0
 62
     7
 10
152.29072500000001
 20
102.190449
 30
0.0
 40
1.4684179999999989
 50
19.774066999999999
 51
29.301383999999999
  0
ARC
  5
62F
  8
0
 62
     7
 10
152.17369899999991
 20
102.1503869999999
 30
0.0
 40
1.592098
 50
10.91778699999999
 51
19.705988000000001
  0
ARC
  5
630
  8
0
 62
     7
 10
152.15015399999999
 20
102.1376069999999
 30
0.0
 40
1.617658
 50
2.5068220000000001
 51
11.204287000000001
  0
ARC
  5
631
  8
0
 62
     7
 10
153.39797999999999
 20
105.4766179999999
 30
0.0
 40
3.2889409999999999
 50
263.57076499999999
 51
276.4292549999999
  0
ARC
  5
632
  8
0
 62
     7
 10
153.5035729999999
 20
86.189485000000005
 30
0.0
 40
3.3356559999999988
 50
83.783198999999996
 51
96.216780999999997
  0
ARC
  5
633
  8
0
 62
     7
 10
153.48545799999999
 20
102.93620300000001
 30
0.0
 40
2.8993459999999991
 50
263.203776
 51
276.19440299999991
  0
LINE
  5
634
  8
0
 62
     7
 10
158.983
 20
108.43000000000001
 30
0.0
 11
149.61299999999989
 21
108.43000000000001
 31
0.0
  0
LINE
  5
635
  8
0
 62
     7
 10
154.298
 20
108.78100000000001
 30
0.0
 11
149.965
 21
108.78100000000001
 31
0.0
  0
LINE
  5
636
  8
0
 62
     7
 10
159.386
 20
88.816199999999995
 30
0.0
 11
158.983
 21
81.133199999999988
 31
0.0
  0
LINE
  5
637
  8
0
 62
     7
 10
149.61299999999989
 20
81.133199999999988
 30
0.0
 11
149.52699999999999
 21
82.781300000000002
 31
0.0
  0
LINE
  5
638
  8
0
 62
     7
 10
59.515999999999998
 20
81.001599999999996
 30
0.0
 11
58.998699999999992
 21
81.001599999999996
 31
0.0
  0
LINE
  5
639
  8
0
 62
     7
 10
58.998699999999992
 20
81.001599999999996
 30
0.0
 11
59.515999999999998
 21
81.001599999999996
 31
0.0
  0
LINE
  5
63A
  8
0
 62
     7
 10
61.217500000000001
 20
80.317400000000006
 30
0.0
 11
61.291600000000003
 21
80.317400000000006
 31
0.0
  0
LINE
  5
63B
  8
0
 62
     7
 10
61.291600000000003
 20
80.317400000000006
 30
0.0
 11
61.291600000000003
 21
80.554100000000005
 31
0.0
  0
LINE
  5
63C
  8
0
 62
     7
 10
61.291600000000003
 20
80.554100000000005
 30
0.0
 11
61.525300000000001
 21
80.317400000000006
 31
0.0
  0
LINE
  5
63D
  8
0
 62
     7
 10
61.525300000000001
 20
80.317400000000006
 30
0.0
 11
61.599699999999999
 21
80.317400000000006
 31
0.0
  0
LINE
  5
63E
  8
0
 62
     7
 10
61.599699999999999
 20
80.317400000000006
 30
0.0
 11
61.599699999999999
 21
80.638800000000003
 31
0.0
  0
LINE
  5
63F
  8
0
 62
     7
 10
61.599699999999999
 20
80.638800000000003
 30
0.0
 11
61.525300000000001
 21
80.638800000000003
 31
0.0
  0
LINE
  5
640
  8
0
 62
     7
 10
61.525300000000001
 20
80.638800000000003
 30
0.0
 11
61.525300000000001
 21
80.401499999999999
 31
0.0
  0
LINE
  5
641
  8
0
 62
     7
 10
61.525300000000001
 20
80.401499999999999
 30
0.0
 11
61.291600000000003
 21
80.638800000000003
 31
0.0
  0
LINE
  5
642
  8
0
 62
     7
 10
61.291600000000003
 20
80.638800000000003
 30
0.0
 11
61.217500000000001
 21
80.638800000000003
 31
0.0
  0
LINE
  5
643
  8
0
 62
     7
 10
61.217500000000001
 20
80.638800000000003
 30
0.0
 11
61.217500000000001
 21
80.317400000000006
 31
0.0
  0
LINE
  5
644
  8
0
 62
     7
 10
60.949300000000001
 20
80.317400000000006
 30
0.0
 11
61.023699999999998
 21
80.317400000000006
 31
0.0
  0
LINE
  5
645
  8
0
 62
     7
 10
61.023699999999998
 20
80.317400000000006
 30
0.0
 11
61.023699999999998
 21
80.638800000000003
 31
0.0
  0
LINE
  5
646
  8
0
 62
     7
 10
61.023699999999998
 20
80.638800000000003
 30
0.0
 11
60.949300000000001
 21
80.638800000000003
 31
0.0
  0
LINE
  5
647
  8
0
 62
     7
 10
60.949300000000001
 20
80.638800000000003
 30
0.0
 11
60.949300000000001
 21
80.317400000000006
 31
0.0
  0
LINE
  5
648
  8
0
 62
     7
 10
60.686900000000001
 20
80.391499999999994
 30
0.0
 11
60.485799999999998
 21
80.391499999999994
 31
0.0
  0
LINE
  5
649
  8
0
 62
     7
 10
60.485799999999998
 20
80.391499999999994
 30
0.0
 11
60.485799999999998
 21
80.564400000000006
 31
0.0
  0
LINE
  5
64A
  8
0
 62
     7
 10
60.485799999999998
 20
80.564400000000006
 30
0.0
 11
60.686900000000001
 21
80.564400000000006
 31
0.0
  0
LINE
  5
64B
  8
0
 62
     7
 10
60.686900000000001
 20
80.564400000000006
 30
0.0
 11
60.686900000000001
 21
80.391499999999994
 31
0.0
  0
LINE
  5
64C
  8
0
 62
     7
 10
135.63199999999989
 20
103.80500000000001
 30
0.0
 11
135.63199999999989
 21
102.13799999999991
 31
0.0
  0
LINE
  5
64D
  8
0
 62
     7
 10
135.63199999999989
 20
86.185100000000006
 30
0.0
 11
135.63199999999989
 21
87.764399999999995
 31
0.0
  0
LINE
  5
64E
  8
0
 62
     7
 10
135.63199999999989
 20
87.764399999999995
 30
0.0
 11
135.63199999999989
 21
92.530000000000001
 31
0.0
  0
LINE
  5
64F
  8
0
 62
     7
 10
135.63199999999989
 20
93.181500000000014
 30
0.0
 11
135.63199999999989
 21
102.13799999999991
 31
0.0
  0
LINE
  5
650
  8
_________2
 62
     7
 10
205.30099999999999
 20
127.411
 30
0.0
 11
183.55000000000001
 21
127.411
 31
0.0
  0
LINE
  5
651
  8
_________2
 62
     7
 10
100.2999999999999
 20
-4.0910799999999998
 30
0.0
 11
100.2999999999999
 21
-21.071400000000001
 31
0.0
  0
LINE
  5
652
  8
_________2
 62
     7
 10
100.2999999999999
 20
275.93000000000001
 30
0.0
 11
100.2999999999999
 21
258.911
 31
0.0
  0
LINE
  5
653
  8
_________2
 62
     7
 10
17.049499999999998
 20
127.411
 30
0.0
 11
-4.70052
 21
127.411
 31
0.0
  0
LINE
  5
654
  8
_________2
 62
     7
 10
76.741
 20
29.8047
 30
0.0
 11
74.554699999999997
 21
29.8047
 31
0.0
  0
LINE
  5
655
  8
_________2
 62
     7
 10
77.233699999999999
 20
29.8047
 30
0.0
 11
76.981499999999997
 21
29.8047
 31
0.0
  0
LINE
  5
656
  8
_________2
 62
     7
 10
77.726299999999995
 20
29.8047
 30
0.0
 11
80.651200000000003
 21
29.8047
 31
0.0
  0
LINE
  5
657
  8
_________2
 62
     7
 10
77.233699999999999
 20
29.8047
 30
0.0
 11
77.485500000000002
 21
29.8047
 31
0.0
  0
LINE
  5
658
  8
_________2
 62
     7
 10
70.837100000000007
 20
29.8047
 30
0.0
 11
68.650499999999994
 21
29.8047
 31
0.0
  0
LINE
  5
659
  8
_________2
 62
     7
 10
71.329400000000007
 20
29.8047
 30
0.0
 11
71.077600000000004
 21
29.8047
 31
0.0
  0
LINE
  5
65A
  8
_________2
 62
     7
 10
71.329400000000007
 20
30.2974
 30
0.0
 11
71.329400000000007
 21
32.484400000000001
 31
0.0
  0
LINE
  5
65B
  8
_________2
 62
     7
 10
71.329400000000007
 20
29.8047
 30
0.0
 11
71.329400000000007
 21
30.056899999999992
 31
0.0
  0
LINE
  5
65C
  8
_________2
 62
     7
 10
71.822100000000006
 20
29.8047
 30
0.0
 11
74.009
 21
29.8047
 31
0.0
  0
LINE
  5
65D
  8
_________2
 62
     7
 10
71.329400000000007
 20
29.8047
 30
0.0
 11
71.581599999999995
 21
29.8047
 31
0.0
  0
LINE
  5
65E
  8
_________2
 62
     7
 10
71.329400000000007
 20
29.312799999999999
 30
0.0
 11
71.329400000000007
 21
27.125800000000002
 31
0.0
  0
LINE
  5
65F
  8
_________2
 62
     7
 10
71.329400000000007
 20
29.8047
 30
0.0
 11
71.329400000000007
 21
29.5532
 31
0.0
  0
LINE
  5
660
  8
_________2
 62
     7
 10
75.040499999999994
 20
28.5852
 30
0.0
 11
80.218500000000006
 21
27.720400000000001
 31
0.0
  0
LINE
  5
661
  8
_________2
 62
     7
 10
75.040499999999994
 20
31.0243
 30
0.0
 11
80.218500000000006
 21
31.889700000000001
 31
0.0
  0
LINE
  5
662
  8
_________2
 62
     7
 10
80.218500000000006
 20
27.720400000000001
 30
0.0
 11
80.218500000000006
 21
31.889700000000001
 31
0.0
  0
LINE
  5
663
  8
_________2
 62
     7
 10
75.040499999999994
 20
28.5852
 30
0.0
 11
75.040499999999994
 21
31.0243
 31
0.0
  0
ARC
  5
664
  8
_________2
 62
     7
 10
71.28285600000001
 20
29.757811
 30
0.0
 40
1.2673589999999999
 50
2.122214
 51
87.893958999999995
  0
ARC
  5
665
  8
_________2
 62
     7
 10
71.375959999999992
 20
29.758213000000001
 30
0.0
 40
1.2669559999999991
 50
92.104701000000006
 51
177.8952689999999
  0
ARC
  5
666
  8
_________2
 62
     7
 10
71.376357999999996
 20
29.851671
 30
0.0
 40
1.2673680000000001
 50
182.12203600000001
 51
267.877993
  0
ARC
  5
667
  8
_________2
 62
     7
 10
71.282531999999989
 20
29.851998999999989
 30
0.0
 40
1.267695999999999
 50
272.12015300000002
 51
357.863674
  0
ARC
  5
668
  8
_________2
 62
     7
 10
71.329430000000002
 20
29.804742999999998
 30
0.0
 40
2.0849849999999992
 50
0.00001
 51
89.999980000000008
  0
ARC
  5
669
  8
_________2
 62
     7
 10
71.329603000000006
 20
29.804915000000001
 30
0.0
 40
2.084813
 50
90.004733999999999
 51
180.00474399999999
  0
ARC
  5
66A
  8
_________2
 62
     7
 10
71.409106000000008
 20
29.884775999999999
 30
0.0
 40
2.1657950000000001
 50
182.11776599999999
 51
267.89173399999999
  0
ARC
  5
66B
  8
_________2
 62
     7
 10
71.249459000000002
 20
29.885429999999989
 30
0.0
 40
2.1664590000000001
 50
272.11546800000002
 51
357.86560400000002
  0
TEXT
  5
66C
  8
_________2
 62
     7
 10
104.605
 20
1.6794899999999999
 30
0.0
 40
3.0923400000000001
  1
図番
 41
0.5
  0
LINE
  5
66D
  8
_________2
 62
     7
 10
103.55
 20
5.9087199999999989
 30
0.0
 11
183.55099999999999
 21
5.9087199999999989
 31
0.0
  0
TEXT
  5
66E
  8
_________2
 62
     7
 10
104.605
 20
11.679299999999991
 30
0.0
 40
3.0923400000000001
  1
品番
 41
0.5
  0
TEXT
  5
66F
  8
_________2
 62
     7
 10
104.605
 20
31.818100000000001
 30
0.0
 40
3.0923400000000001
  1
名称
 41
0.5
  0
TEXT
  5
670
  8
_________2
 62
     7
 10
91.845058333333341
 20
26.821999999999989
 30
0.0
 40
3.6545800000000002
  1
mm
 41
0.5
 72
     1
 11
93.367800000000003
 21
26.821999999999989
 31
0.0
  0
TEXT
  5
671
  8
_________2
 62
     7
 10
85.643199999999993
 20
31.818100000000001
 30
0.0
 40
3.0923400000000001
  1
単位
 41
0.5
  0
TEXT
  5
672
  8
_________2
 62
     7
 10
85.643199999999993
 20
19.410799999999991
 30
0.0
 40
3.0923400000000001
  1
尺度
 41
0.5
  0
TEXT
  5
673
  8
_________2
 62
     7
 10
90.548758666666686
 20
13.2179
 30
0.0
 40
3.6545800000000002
  1
1 ： 3
 41
0.5
 72
     1
 11
93.959699999999998
 21
13.2179
 31
0.0
  0
TEXT
  5
674
  8
_________2
 62
     7
 10
129.08630249999999
 20
9.1078600000000005
 30
0.0
 40
3.9357000000000002
  1
CET3575＋CET9805
 41
0.5
 72
     1
 11
143.55000000000001
 21
9.1078600000000005
 31
0.0
  0
TEXT
  5
675
  8
_________2
 62
     7
 10
136.00657499999991
 20
-0.8926299999999999
 30
0.0
 40
3.9357000000000002
  1
CET3575C
 41
0.5
 72
     1
 11
143.55000000000001
 21
-0.8926299999999999
 31
0.0
  0
TEXT
  5
676
  8
_________2
 62
     7
 10
24.5868
 20
0.707283
 30
0.0
 40
3.9357000000000002
  1
（社）日本水道協会認証品
 41
0.5
  0
TEXT
  5
677
  8
_________2
 62
     7
 10
109.179
 20
24.2257
 30
0.0
 40
3.9357000000000002
  1
C1 埋込型止水栓（カバー部＋埋込部）
 41
0.5
  0
TEXT
  5
678
  8
_________2
 62
     7
 10
39.425300333333333
 20
13.603
 30
0.0
 40
3.6545800000000002
  1
早川
 41
0.5
 72
     1
 11
41.313499999999998
 21
13.603
 31
0.0
  0
TEXT
  5
679
  8
_________2
 62
     7
 10
20.851000333333332
 20
13.603
 30
0.0
 40
3.6545800000000002
  1
西田
 41
0.5
 72
     1
 11
22.73919999999999
 21
13.603
 31
0.0
  0
TEXT
  5
67A
  8
_________2
 62
     7
 10
67.785399999999996
 20
13.2179
 30
0.0
 40
3.6545800000000002
  1
15.01.21
 41
0.5
  0
TEXT
  5
67B
  8
_________2
 62
     7
 10
66.593100000000007
 20
19.410799999999991
 30
0.0
 40
3.0923400000000001
  1
日付
 41
0.5
  0
TEXT
  5
67C
  8
_________2
 62
     7
 10
29.639399999999998
 20
19.410799999999991
 30
0.0
 40
3.0923400000000001
  1
検図
 41
0.5
  0
TEXT
  5
67D
  8
_________2
 62
     7
 10
18.021100000000001
 20
5.21143
 30
0.0
 40
3.0923400000000001
  1
備考
 41
0.5
  0
TEXT
  5
67E
  8
_________2
 62
     7
 10
18.021100000000001
 20
19.410799999999991
 30
0.0
 40
3.0923400000000001
  1
製図
 41
0.5
  0
TEXT
  5
67F
  8
_________2
 62
     7
 10
23.788465333333338
 20
27.936800000000002
 30
0.0
 40
4.4979399999999989
  1
セラトレーディング株式会社
 41
0.5
 72
     1
 11
41.180500000000002
 21
27.936800000000002
 31
0.0
  0
LINE
  5
680
  8
_________2
 62
     7
 10
183.55099999999999
 20
-4.0910799999999998
 30
0.0
 11
17.049499999999998
 21
-4.0910799999999998
 31
0.0
  0
LINE
  5
681
  8
_________2
 62
     7
 10
17.049499999999998
 20
-4.0910799999999998
 30
0.0
 11
17.049499999999998
 21
258.911
 31
0.0
  0
LINE
  5
682
  8
_________2
 62
     7
 10
17.049499999999998
 20
258.911
 30
0.0
 11
183.55099999999999
 21
258.911
 31
0.0
  0
LINE
  5
683
  8
_________2
 62
     7
 10
183.55099999999999
 20
258.911
 30
0.0
 11
183.55099999999999
 21
-4.0910799999999998
 31
0.0
  0
LINE
  5
684
  8
_________2
 62
     7
 10
65.549599999999998
 20
9.4089600000000004
 30
0.0
 11
65.549599999999998
 21
35.908799999999999
 31
0.0
  0
LINE
  5
685
  8
_________2
 62
     7
 10
84.549700000000016
 20
9.4089600000000004
 30
0.0
 11
84.549700000000016
 21
35.908799999999999
 31
0.0
  0
LINE
  5
686
  8
_________2
 62
     7
 10
103.55
 20
-4.0910799999999998
 30
0.0
 11
103.55
 21
35.908799999999999
 31
0.0
  0
LINE
  5
687
  8
_________2
 62
     7
 10
28.549299999999992
 20
9.4089600000000004
 30
0.0
 11
28.549299999999992
 21
23.409199999999998
 31
0.0
  0
LINE
  5
688
  8
_________2
 62
     7
 10
17.049499999999998
 20
9.4089600000000004
 30
0.0
 11
103.55
 21
9.4089600000000004
 31
0.0
  0
LINE
  5
689
  8
_________2
 62
     7
 10
17.049499999999998
 20
23.409199999999998
 30
0.0
 11
103.55
 21
23.409199999999998
 31
0.0
  0
LINE
  5
68A
  8
_________2
 62
     7
 10
103.55
 20
15.9085
 30
0.0
 11
183.55099999999999
 21
15.9085
 31
0.0
  0
LINE
  5
68B
  8
_________2
 62
     7
 10
17.049499999999998
 20
35.908799999999999
 30
0.0
 11
183.55099999999999
 21
35.908799999999999
 31
0.0
  0
ENDSEC
  0
EOF
