  0
SECTION
  2
HEADER
  9
$ACADVER
  1
AC1009
  9
$INSBASE
 10
0.0
 20
0.0
 30
0.0
  9
$EXTMIN
 10
-4.70052
 20
-21.071400000000001
 30
0.0
  9
$EXTMAX
 10
205.30099999999999
 20
275.93000000000001
 30
0.0
  9
$LIMMIN
 10
0.0
 20
0.0
  9
$LIMMAX
 10
12.0
 20
9.0
  9
$ORTHOMODE
 70
     0
  9
$REGENMODE
 70
     1
  9
$FILLMODE
 70
     1
  9
$QTEXTMODE
 70
     0
  9
$MIRRTEXT
 70
     1
  9
$DRAGMODE
 70
     2
  9
$LTSCALE
 40
1.0
  9
$OSMODE
 70
    37
  9
$ATTMODE
 70
     1
  9
$TEXTSIZE
 40
0.0
  9
$TRACEWID
 40
0.05
  9
$TEXTSTYLE
  7
STANDARD
  9
$CLAYER
  8
0
  9
$CELTYPE
  6
CONTINUOUS
  9
$CECOLOR
 62
   256
  9
$DIMSCALE
 40
1.0
  9
$DIMASZ
 40
0.18
  9
$DIMEXO
 40
0.0625
  9
$DIMDLI
 40
0.38
  9
$DIMRND
 40
0.0
  9
$DIMDLE
 40
0.0
  9
$DIMEXE
 40
0.18
  9
$DIMTP
 40
0.0
  9
$DIMTM
 40
0.0
  9
$DIMTXT
 40
0.18
  9
$DIMCEN
 40
0.09
  9
$DIMTSZ
 40
0.0
  9
$DIMTOL
 70
     0
  9
$DIMLIM
 70
     0
  9
$DIMTIH
 70
     1
  9
$DIMTOH
 70
     1
  9
$DIMSE1
 70
     0
  9
$DIMSE2
 70
     0
  9
$DIMTAD
 70
     0
  9
$DIMZIN
 70
     0
  9
$DIMBLK
  1

  9
$DIMASO
 70
     1
  9
$DIMSHO
 70
     1
  9
$DIMPOST
  1

  9
$DIMAPOST
  1

  9
$DIMALT
 70
     0
  9
$DIMALTD
 70
     2
  9
$DIMALTF
 40
25.399999999999999
  9
$DIMLFAC
 40
1.0
  9
$DIMTOFL
 70
     0
  9
$DIMTVP
 40
0.0
  9
$DIMTIX
 70
     0
  9
$DIMSOXD
 70
     0
  9
$DIMSAH
 70
     0
  9
$DIMBLK1
  1

  9
$DIMBLK2
  1

  9
$DIMSTYLE
  2
STANDARD
  9
$DIMCLRD
 70
     0
  9
$DIMCLRE
 70
     0
  9
$DIMCLRT
 70
     0
  9
$DIMTFAC
 40
1.0
  9
$DIMGAP
 40
0.09
  9
$LUNITS
 70
     2
  9
$LUPREC
 70
     4
  9
$SKETCHINC
 40
0.1
  9
$FILLETRAD
 40
0.0
  9
$AUNITS
 70
     0
  9
$AUPREC
 70
     0
  9
$MENU
  1
.
  9
$ELEVATION
 40
0.0
  9
$PELEVATION
 40
0.0
  9
$THICKNESS
 40
0.0
  9
$LIMCHECK
 70
     0
  9
$BLIPMODE
 70
     0
  9
$CHAMFERA
 40
0.0
  9
$CHAMFERB
 40
0.0
  9
$SKPOLY
 70
     0
  9
$TDCREATE
 40
2444972.375
  9
$TDUPDATE
 40
2458555.2502992712
  9
$TDINDWG
 40
0.0000321875
  9
$TDUSRTIMER
 40
0.0000321875
  9
$USRTIMER
 70
     1
  9
$ANGBASE
 50
0.0
  9
$ANGDIR
 70
     0
  9
$PDMODE
 70
     0
  9
$PDSIZE
 40
0.0
  9
$PLINEWID
 40
0.0
  9
$COORDS
 70
     1
  9
$SPLFRAME
 70
     0
  9
$SPLINETYPE
 70
     6
  9
$SPLINESEGS
 70
     8
  9
$ATTDIA
 70
     1
  9
$ATTREQ
 70
     1
  9
$HANDLING
 70
     1
  9
$HANDSEED
  5
767
  9
$SURFTAB1
 70
     6
  9
$SURFTAB2
 70
     6
  9
$SURFTYPE
 70
     6
  9
$SURFU
 70
     6
  9
$SURFV
 70
     6
  9
$UCSNAME
  2

  9
$UCSORG
 10
0.0
 20
0.0
 30
0.0
  9
$UCSXDIR
 10
1.0
 20
0.0
 30
0.0
  9
$UCSYDIR
 10
0.0
 20
1.0
 30
0.0
  9
$PUCSNAME
  2

  9
$PUCSORG
 10
0.0
 20
0.0
 30
0.0
  9
$PUCSXDIR
 10
1.0
 20
0.0
 30
0.0
  9
$PUCSYDIR
 10
0.0
 20
1.0
 30
0.0
  9
$USERI1
 70
     0
  9
$USERI2
 70
     0
  9
$USERI3
 70
     0
  9
$USERI4
 70
     0
  9
$USERI5
 70
     0
  9
$USERR1
 40
0.0
  9
$USERR2
 40
0.0
  9
$USERR3
 40
0.0
  9
$USERR4
 40
0.0
  9
$USERR5
 40
0.0
  9
$WORLDVIEW
 70
     1
  9
$SHADEDGE
 70
     3
  9
$SHADEDIF
 70
    70
  9
$TILEMODE
 70
     1
  9
$MAXACTVP
 70
    48
  9
$PLIMCHECK
 70
     0
  9
$PEXTMIN
 10
1.0000000000000000E+020
 20
1.0000000000000000E+020
 30
1.0000000000000000E+020
  9
$PEXTMAX
 10
-1.0000000000000000E+020
 20
-1.0000000000000000E+020
 30
-1.0000000000000000E+020
  9
$PLIMMIN
 10
0.0
 20
0.0
  9
$PLIMMAX
 10
12.0
 20
9.0
  9
$UNITMODE
 70
     0
  9
$VISRETAIN
 70
     1
  9
$PLINEGEN
 70
     0
  9
$PSLTSCALE
 70
     1
  0
ENDSEC
  0
SECTION
  2
TABLES
  0
TABLE
  2
VPORT
 70
     1
  0
VPORT
  2
*ACTIVE
 70
     0
 10
0.0
 20
0.0
 11
1.0
 21
1.0
 12
190.8815905717185
 22
127.4293
 13
0.0
 23
0.0
 14
1.0
 24
1.0
 15
0.0
 25
0.0
 16
0.0
 26
0.0
 36
1.0
 17
0.0
 27
0.0
 37
0.0
 40
280.94834154544247
 41
2.298642533936651
 42
50.0
 43
0.0
 44
0.0
 50
0.0
 51
0.0
 71
     0
 72
   100
 73
     1
 74
     1
 75
     0
 76
     0
 77
     0
 78
     0
  0
ENDTAB
  0
TABLE
  2
LTYPE
 70
     2
  0
LTYPE
  2
CONTINUOUS
 70
     0
  3
Solid line
 72
    65
 73
     0
 40
0.0
  0
LTYPE
  2
AIGENLINE001
 70
     0
  3
generate AI->DXF Converter
 72
    65
 73
     4
 40
5.8561449999999988
 49
3.5278
 49
-0.776115
 49
0.776115
 49
-0.776115
  0
ENDTAB
  0
TABLE
  2
LAYER
 70
     2
  0
LAYER
  2
0
 70
     0
 62
     7
  6
CONTINUOUS
  0
LAYER
  2
_________2
 70
     0
 62
     7
  6
CONTINUOUS
  0
ENDTAB
  0
TABLE
  2
STYLE
 70
     1
  0
STYLE
  2
STANDARD
 70
     0
 40
0.0
 41
0.0
 50
0.0
 71
     0
 42
0.0
  3
TXT
  4
EXTFONT.SHX
  0
ENDTAB
  0
TABLE
  2
VIEW
 70
     0
  0
ENDTAB
  0
TABLE
  2
UCS
 70
     0
  0
ENDTAB
  0
TABLE
  2
APPID
 70
     3
  0
APPID
  2
ACAD
 70
     0
  0
APPID
  2
ACAD_NAV_VCDISPLAY
 70
     0
  0
APPID
  2
ACAD_MLEADERVER
 70
     0
  0
ENDTAB
  0
TABLE
  2
DIMSTYLE
 70
     1
  0
DIMSTYLE
  2
STANDARD
 70
     0
  3

  4

  5

  6

  7

 40
1.0
 41
0.18
 42
0.0625
 43
0.38
 44
0.18
 45
0.0
 46
0.0
 47
0.0
 48
0.0
140
0.18
141
0.09
142
0.0
143
25.399999999999999
144
1.0
145
0.0
146
1.0
147
0.09
 71
     0
 72
     0
 73
     1
 74
     1
 75
     0
 76
     0
 77
     0
 78
     0
170
     0
171
     2
172
     0
173
     0
174
     0
175
     0
176
     0
177
     0
178
     0
  0
ENDTAB
  0
ENDSEC
  0
SECTION
  2
BLOCKS
  0
BLOCK
  8
0
  2
$MODEL_SPACE
 70
     0
 10
0.0
 20
0.0
 30
0.0
  3
$MODEL_SPACE
  1

  0
ENDBLK
  5
1A
  8
0
  0
BLOCK
 67
     1
  8
0
  2
$PAPER_SPACE
 70
     0
 10
0.0
 20
0.0
 30
0.0
  3
$PAPER_SPACE
  1

  0
ENDBLK
  5
17
 67
     1
  8
0
  0
ENDSEC
  0
SECTION
  2
ENTITIES
  0
TEXT
  5
22
  8
0
 62
     7
 10
171.453228
 20
105.167
 30
0.0
 40
3.0923400000000001
  1
Rc 1/2
 41
0.5
 72
     2
 11
179.08099999999999
 21
105.167
 31
0.0
  0
TEXT
  5
23
  8
0
 62
     7
 10
147.3035505
 20
120.994
 30
0.0
 40
3.0923400000000001
  1
89.5～109.5
 41
0.5
 72
     1
 11
153.51400000000001
 21
120.994
 31
0.0
  0
TEXT
  5
24
  8
0
 62
     7
 10
86.424555000000026
 20
80.246099999999998
 30
0.0
 40
3.0923400000000001
  1
10%%d
 41
0.5
 72
     2
 11
89.259200000000007
 21
80.246099999999998
 31
0.0
  0
TEXT
  5
25
  8
0
 62
     7
 10
172.39287999999999
 20
112.64400000000001
 30
0.0
 40
3.0923400000000001
  1
14.5
 41
0.5
 72
     2
 11
176.51599999999999
 21
112.64400000000001
 31
0.0
  0
TEXT
  5
26
  8
0
 62
     7
 10
147.334653
 20
112.64400000000001
 30
0.0
 40
3.0923400000000001
  1
75～95
 41
0.5
 72
     1
 11
151.09700000000001
 21
112.64400000000001
 31
0.0
  0
TEXT
  5
27
  8
0
 62
     7
 10
175.815
 20
96.646172500000006
 30
0.0
 40
3.0923400000000001
  1
30
 50
90.0
 41
0.5
 72
     1
 11
175.815
 21
97.805800000000005
 31
0.0
  0
TEXT
  5
28
  8
0
 62
     7
 10
134.10437250000001
 20
75.355400000000003
 30
0.0
 40
3.0923400000000001
  1
20
 41
0.5
 72
     1
 11
135.26400000000001
 21
75.355400000000003
 31
0.0
  0
TEXT
  5
29
  8
0
 62
     7
 10
102.16528750000001
 20
60.241
 30
0.0
 40
3.0923400000000001
  1
207
 41
0.5
 72
     1
 11
104.098
 21
60.241
 31
0.0
  0
TEXT
  5
2A
  8
0
 62
     7
 10
106.9079825
 20
68.354900000000001
 30
0.0
 40
3.0923400000000001
  1
180
 41
0.5
 72
     1
 11
108.583
 21
68.354900000000001
 31
0.0
  0
TEXT
  5
2B
  8
0
 62
     7
 10
62.8994
 20
96.609319999999997
 30
0.0
 40
3.0923400000000001
  1
31
 50
90.0
 41
0.5
 72
     1
 11
62.8994
 21
97.640100000000004
 31
0.0
  0
TEXT
  5
2C
  8
0
 62
     7
 10
26.6997
 20
91.646272499999995
 30
0.0
 40
3.0923400000000001
  1
60
 50
90.0
 41
0.5
 72
     1
 11
26.6997
 21
92.805899999999994
 31
0.0
  0
TEXT
  5
2D
  8
0
 62
     7
 10
43.459625000000003
 20
112.64400000000001
 30
0.0
 40
3.0923400000000001
  1
54
 41
0.5
 72
     1
 11
44.748100000000001
 21
112.64400000000001
 31
0.0
  0
LINE
  5
2E
  8
0
 62
     7
 10
179.08099999999999
 20
104.467
 30
0.0
 11
170.58699999999999
 21
104.467
 31
0.0
  0
LINE
  5
2F
  8
0
 62
     7
 10
166.88200000000001
 20
102.276
 30
0.0
 11
165.565
 21
100.40600000000001
 31
0.0
  0
LINE
  5
30
  8
0
 62
     7
 10
165.565
 20
100.40600000000001
 30
0.0
 11
167.64099999999999
 21
101.367
 31
0.0
  0
LINE
  5
31
  8
0
 62
     7
 10
167.64099999999999
 20
101.367
 30
0.0
 11
166.88200000000001
 21
102.276
 31
0.0
  0
LINE
  5
32
  8
0
 62
     7
 10
165.56100000000001
 20
100.411
 30
0.0
 11
170.58699999999999
 21
104.467
 31
0.0
  0
LINE
  5
33
  8
0
 62
     7
 10
140.80799999999999
 20
119.693
 30
0.0
 11
138.59700000000001
 21
120.286
 31
0.0
  0
LINE
  5
34
  8
0
 62
     7
 10
138.59700000000001
 20
120.286
 30
0.0
 11
140.80799999999999
 21
120.878
 31
0.0
  0
LINE
  5
35
  8
0
 62
     7
 10
140.80799999999999
 20
120.878
 30
0.0
 11
140.80799999999999
 21
119.693
 31
0.0
  0
LINE
  5
36
  8
0
 62
     7
 10
166.22
 20
119.693
 30
0.0
 11
168.43100000000001
 21
120.286
 31
0.0
  0
LINE
  5
37
  8
0
 62
     7
 10
168.43100000000001
 20
120.286
 30
0.0
 11
166.22
 21
120.878
 31
0.0
  0
LINE
  5
38
  8
0
 62
     7
 10
166.22
 20
120.878
 30
0.0
 11
166.22
 21
119.693
 31
0.0
  0
LINE
  5
39
  8
0
 62
     7
 10
138.59700000000001
 20
120.279
 30
0.0
 11
168.43100000000001
 21
120.279
 31
0.0
  0
LINE
  5
3A
  8
0
 62
     7
 10
74.547300000000007
 20
81.269299999999987
 30
0.0
 11
76.342200000000005
 21
79.848500000000001
 31
0.0
  0
LINE
  5
3B
  8
0
 62
     7
 10
76.342200000000005
 20
79.848500000000001
 30
0.0
 11
74.077399999999997
 21
80.181700000000006
 31
0.0
  0
LINE
  5
3C
  8
0
 62
     7
 10
74.077399999999997
 20
80.181700000000006
 30
0.0
 11
74.547300000000007
 21
81.269299999999987
 31
0.0
  0
ARC
  5
3D
  8
0
 62
     7
 10
82.985209999999995
 20
-86.456245999999993
 30
0.0
 40
166.06102300000001
 50
88.475973999999994
 51
91.524006999999983
  0
ARC
  5
3E
  8
0
 62
     7
 10
78.597967000000011
 20
87.916755000000009
 30
0.0
 40
8.3707720000000005
 50
229.73800399999999
 51
269.79938199999998
  0
LINE
  5
3F
  8
0
 62
     7
 10
170.642
 20
112.529
 30
0.0
 11
168.43100000000001
 21
111.937
 31
0.0
  0
LINE
  5
40
  8
0
 62
     7
 10
168.43100000000001
 20
111.937
 30
0.0
 11
170.642
 21
111.34399999999999
 31
0.0
  0
LINE
  5
41
  8
0
 62
     7
 10
170.642
 20
111.34399999999999
 30
0.0
 11
170.642
 21
112.529
 31
0.0
  0
LINE
  5
42
  8
0
 62
     7
 10
140.80799999999999
 20
112.529
 30
0.0
 11
138.59700000000001
 21
111.937
 31
0.0
  0
LINE
  5
43
  8
0
 62
     7
 10
138.59700000000001
 20
111.937
 30
0.0
 11
140.80799999999999
 21
111.34399999999999
 31
0.0
  0
LINE
  5
44
  8
0
 62
     7
 10
140.80799999999999
 20
111.34399999999999
 30
0.0
 11
140.80799999999999
 21
112.529
 31
0.0
  0
LINE
  5
45
  8
0
 62
     7
 10
161.386
 20
111.35899999999999
 30
0.0
 11
163.59700000000001
 21
111.95099999999999
 31
0.0
  0
LINE
  5
46
  8
0
 62
     7
 10
163.59700000000001
 20
111.95099999999999
 30
0.0
 11
161.386
 21
112.544
 31
0.0
  0
LINE
  5
47
  8
0
 62
     7
 10
161.386
 20
112.544
 30
0.0
 11
161.386
 21
111.35899999999999
 31
0.0
  0
LINE
  5
48
  8
0
 62
     7
 10
170.06399999999999
 20
92.805599999999984
 30
0.0
 11
177.215
 21
92.805599999999984
 31
0.0
  0
LINE
  5
49
  8
0
 62
     7
 10
139.297
 20
102.806
 30
0.0
 11
177.215
 21
102.806
 31
0.0
  0
LINE
  5
4A
  8
0
 62
     7
 10
138.5979999999999
 20
111.944
 30
0.0
 11
176.51599999999999
 21
111.944
 31
0.0
  0
LINE
  5
4B
  8
0
 62
     7
 10
134.142
 20
74.890299999999996
 30
0.0
 11
131.93100000000001
 21
74.297700000000006
 31
0.0
  0
LINE
  5
4C
  8
0
 62
     7
 10
131.93100000000001
 20
74.297700000000006
 30
0.0
 11
134.142
 21
73.705200000000005
 31
0.0
  0
LINE
  5
4D
  8
0
 62
     7
 10
134.142
 20
73.705200000000005
 30
0.0
 11
134.142
 21
74.890299999999996
 31
0.0
  0
LINE
  5
4E
  8
0
 62
     7
 10
136.386
 20
73.719700000000003
 30
0.0
 11
138.59700000000001
 21
74.312200000000004
 31
0.0
  0
LINE
  5
4F
  8
0
 62
     7
 10
138.59700000000001
 20
74.312200000000004
 30
0.0
 11
136.386
 21
74.904799999999994
 31
0.0
  0
LINE
  5
50
  8
0
 62
     7
 10
136.386
 20
74.904799999999994
 30
0.0
 11
136.386
 21
73.719700000000003
 31
0.0
  0
LINE
  5
51
  8
0
 62
     7
 10
131.93100000000001
 20
74.305300000000003
 30
0.0
 11
138.59700000000001
 21
74.305300000000003
 31
0.0
  0
LINE
  5
52
  8
0
 62
     7
 10
80.779700000000005
 20
80.138599999999997
 30
0.0
 11
78.568700000000007
 21
79.546000000000006
 31
0.0
  0
LINE
  5
53
  8
0
 62
     7
 10
78.568700000000007
 20
79.546000000000006
 30
0.0
 11
80.779700000000005
 21
78.953500000000005
 31
0.0
  0
LINE
  5
54
  8
0
 62
     7
 10
80.779700000000005
 20
78.953500000000005
 30
0.0
 11
80.779700000000005
 21
80.138599999999997
 31
0.0
  0
LINE
  5
55
  8
0
 62
     7
 10
71.808599999999998
 20
60.119
 30
0.0
 11
69.5976
 21
59.526499999999999
 31
0.0
  0
LINE
  5
56
  8
0
 62
     7
 10
69.5976
 20
59.526499999999999
 30
0.0
 11
71.808599999999998
 21
58.933900000000001
 31
0.0
  0
LINE
  5
57
  8
0
 62
     7
 10
71.808599999999998
 20
58.933900000000001
 30
0.0
 11
71.808599999999998
 21
60.119
 31
0.0
  0
LINE
  5
58
  8
0
 62
     7
 10
136.386
 20
58.940800000000003
 30
0.0
 11
138.59700000000001
 21
59.533299999999997
 31
0.0
  0
LINE
  5
59
  8
0
 62
     7
 10
138.59700000000001
 20
59.533299999999997
 30
0.0
 11
136.386
 21
60.125900000000001
 31
0.0
  0
LINE
  5
5A
  8
0
 62
     7
 10
136.386
 20
60.125900000000001
 30
0.0
 11
136.386
 21
58.940800000000003
 31
0.0
  0
LINE
  5
5B
  8
0
 62
     7
 10
69.5976
 20
59.526499999999999
 30
0.0
 11
138.59700000000001
 21
59.526499999999999
 31
0.0
  0
LINE
  5
5C
  8
0
 62
     7
 10
80.779700000000005
 20
68.225399999999993
 30
0.0
 11
78.568700000000007
 21
67.632800000000003
 31
0.0
  0
LINE
  5
5D
  8
0
 62
     7
 10
78.568700000000007
 20
67.632800000000003
 30
0.0
 11
80.779700000000005
 21
67.040300000000002
 31
0.0
  0
LINE
  5
5E
  8
0
 62
     7
 10
80.779700000000005
 20
67.040300000000002
 30
0.0
 11
80.779700000000005
 21
68.225399999999993
 31
0.0
  0
LINE
  5
5F
  8
0
 62
     7
 10
136.386
 20
67.054699999999997
 30
0.0
 11
138.59700000000001
 21
67.647300000000001
 31
0.0
  0
LINE
  5
60
  8
0
 62
     7
 10
138.59700000000001
 20
67.647300000000001
 30
0.0
 11
136.386
 21
68.239800000000002
 31
0.0
  0
LINE
  5
61
  8
0
 62
     7
 10
136.386
 20
68.239800000000002
 30
0.0
 11
136.386
 21
67.054699999999997
 31
0.0
  0
LINE
  5
62
  8
0
 62
     7
 10
78.569299999999998
 20
67.6404
 30
0.0
 11
138.59700000000001
 21
67.6404
 31
0.0
  0
LINE
  5
63
  8
0
 62
     7
 10
63.014499999999991
 20
94.685900000000004
 30
0.0
 11
63.606999999999999
 21
92.474900000000005
 31
0.0
  0
LINE
  5
64
  8
0
 62
     7
 10
63.606999999999999
 20
92.474900000000005
 30
0.0
 11
64.199600000000004
 21
94.685900000000004
 31
0.0
  0
LINE
  5
65
  8
0
 62
     7
 10
64.199600000000004
 20
94.685900000000004
 30
0.0
 11
63.014499999999991
 21
94.685900000000004
 31
0.0
  0
LINE
  5
66
  8
0
 62
     7
 10
64.185100000000006
 20
100.595
 30
0.0
 11
63.59259999999999
 21
102.806
 31
0.0
  0
LINE
  5
67
  8
0
 62
     7
 10
63.59259999999999
 20
102.806
 30
0.0
 11
63.0
 21
100.595
 31
0.0
  0
LINE
  5
68
  8
0
 62
     7
 10
63.0
 20
100.595
 30
0.0
 11
64.185100000000006
 21
100.595
 31
0.0
  0
LINE
  5
69
  8
0
 62
     7
 10
63.599400000000003
 20
92.4756
 30
0.0
 11
63.599400000000003
 21
102.80500000000001
 31
0.0
  0
LINE
  5
6A
  8
0
 62
     7
 10
76.397400000000005
 20
92.474900000000005
 30
0.0
 11
62.892499999999998
 21
92.474900000000005
 31
0.0
  0
LINE
  5
6B
  8
0
 62
     7
 10
68.744600000000005
 20
102.806
 30
0.0
 11
62.892499999999998
 21
102.806
 31
0.0
  0
LINE
  5
6C
  8
0
 62
     7
 10
26.814699999999998
 20
85.016900000000007
 30
0.0
 11
27.407299999999999
 21
82.805800000000005
 31
0.0
  0
LINE
  5
6D
  8
0
 62
     7
 10
27.407299999999999
 20
82.805800000000005
 30
0.0
 11
27.9998
 21
85.016900000000007
 31
0.0
  0
LINE
  5
6E
  8
0
 62
     7
 10
27.9998
 20
85.016900000000007
 30
0.0
 11
26.814699999999998
 21
85.016900000000007
 31
0.0
  0
LINE
  5
6F
  8
0
 62
     7
 10
27.985399999999998
 20
100.595
 30
0.0
 11
27.392800000000001
 21
102.806
 31
0.0
  0
LINE
  5
70
  8
0
 62
     7
 10
27.392800000000001
 20
102.806
 30
0.0
 11
26.8003
 21
100.595
 31
0.0
  0
LINE
  5
71
  8
0
 62
     7
 10
26.8003
 20
100.595
 30
0.0
 11
27.985399999999998
 21
100.595
 31
0.0
  0
LINE
  5
72
  8
0
 62
     7
 10
27.399699999999999
 20
82.806499999999986
 30
0.0
 11
27.399699999999999
 21
102.80500000000001
 31
0.0
  0
LINE
  5
73
  8
0
 62
     7
 10
41.597700000000003
 20
82.805800000000005
 30
0.0
 11
26.692799999999998
 21
82.805800000000005
 31
0.0
  0
LINE
  5
74
  8
0
 62
     7
 10
34.964500000000001
 20
102.806
 30
0.0
 11
26.692799999999998
 21
102.806
 31
0.0
  0
LINE
  5
75
  8
0
 62
     7
 10
51.536900000000003
 20
111.35899999999999
 30
0.0
 11
53.747999999999998
 21
111.952
 31
0.0
  0
LINE
  5
76
  8
0
 62
     7
 10
53.747999999999998
 20
111.952
 30
0.0
 11
51.536900000000003
 21
112.544
 31
0.0
  0
LINE
  5
77
  8
0
 62
     7
 10
51.536900000000003
 20
112.544
 30
0.0
 11
51.536900000000003
 21
111.35899999999999
 31
0.0
  0
LINE
  5
78
  8
0
 62
     7
 10
37.959299999999999
 20
112.53
 30
0.0
 11
35.7483
 21
111.937
 31
0.0
  0
LINE
  5
79
  8
0
 62
     7
 10
35.7483
 20
111.937
 30
0.0
 11
37.959299999999999
 21
111.345
 31
0.0
  0
LINE
  5
7A
  8
0
 62
     7
 10
37.959299999999999
 20
111.345
 30
0.0
 11
37.959299999999999
 21
112.53
 31
0.0
  0
LINE
  5
7B
  8
0
 62
     7
 10
53.747300000000003
 20
111.944
 30
0.0
 11
35.748899999999999
 21
111.944
 31
0.0
  0
LINE
  5
7C
  8
0
  6
AIGENLINE001
 62
     7
 10
78.081699999999998
 20
89.713300000000004
 30
0.0
 11
78.974299999999985
 21
94.775499999999994
 31
0.0
  0
LINE
  5
7D
  8
0
  6
AIGENLINE001
 62
     7
 10
54.748100000000001
 20
234.17500000000001
 30
0.0
 11
34.747799999999998
 21
234.17500000000001
 31
0.0
  0
LINE
  5
7E
  8
0
  6
AIGENLINE001
 62
     7
 10
44.747900000000001
 20
80.227500000000006
 30
0.0
 11
44.747900000000001
 21
105.13200000000001
 31
0.0
  0
LINE
  5
7F
  8
0
  6
AIGENLINE001
 62
     7
 10
53.081299999999999
 20
240.72499999999999
 30
0.0
 11
53.081299999999999
 21
235.62700000000001
 31
0.0
  0
LINE
  5
80
  8
0
  6
AIGENLINE001
 62
     7
 10
36.414499999999997
 20
240.72499999999999
 30
0.0
 11
36.414499999999997
 21
235.62700000000001
 31
0.0
  0
LINE
  5
81
  8
0
  6
AIGENLINE001
 62
     7
 10
44.747900000000001
 20
241.155
 30
0.0
 11
44.747900000000001
 21
138.24100000000001
 31
0.0
  0
LINE
  5
82
  8
0
  6
AIGENLINE001
 62
     7
 10
169.447
 20
88.405799999999999
 30
0.0
 11
164.34999999999999
 21
88.405799999999999
 31
0.0
  0
LINE
  5
83
  8
0
  6
AIGENLINE001
 62
     7
 10
163.59700000000001
 20
101.07299999999999
 30
0.0
 11
163.59700000000001
 21
93.568700000000007
 31
0.0
  0
LINE
  5
84
  8
0
  6
AIGENLINE001
 62
     7
 10
169.364
 20
92.805599999999984
 30
0.0
 11
139.04400000000001
 21
92.805599999999984
 31
0.0
  0
LINE
  5
85
  8
0
 62
     7
 10
43.774199999999993
 20
86.656400000000005
 30
0.0
 11
43.257099999999987
 21
86.656400000000005
 31
0.0
  0
LINE
  5
86
  8
0
 62
     7
 10
43.257099999999987
 20
86.656400000000005
 30
0.0
 11
43.774199999999993
 21
86.656400000000005
 31
0.0
  0
LINE
  5
87
  8
0
 62
     7
 10
45.475499999999997
 20
85.972200000000001
 30
0.0
 11
45.549799999999991
 21
85.972200000000001
 31
0.0
  0
LINE
  5
88
  8
0
 62
     7
 10
45.549799999999991
 20
85.972200000000001
 30
0.0
 11
45.549799999999991
 21
86.209599999999995
 31
0.0
  0
LINE
  5
89
  8
0
 62
     7
 10
45.549799999999991
 20
86.209599999999995
 30
0.0
 11
45.783499999999989
 21
85.972200000000001
 31
0.0
  0
LINE
  5
8A
  8
0
 62
     7
 10
45.783499999999989
 20
85.972200000000001
 30
0.0
 11
45.857999999999997
 21
85.972200000000001
 31
0.0
  0
LINE
  5
8B
  8
0
 62
     7
 10
45.857999999999997
 20
85.972200000000001
 30
0.0
 11
45.857999999999997
 21
86.293999999999997
 31
0.0
  0
LINE
  5
8C
  8
0
 62
     7
 10
45.857999999999997
 20
86.293999999999997
 30
0.0
 11
45.783499999999989
 21
86.293999999999997
 31
0.0
  0
LINE
  5
8D
  8
0
 62
     7
 10
45.783499999999989
 20
86.293999999999997
 30
0.0
 11
45.783499999999989
 21
86.056600000000003
 31
0.0
  0
LINE
  5
8E
  8
0
 62
     7
 10
45.783499999999989
 20
86.056600000000003
 30
0.0
 11
45.549799999999991
 21
86.293999999999997
 31
0.0
  0
LINE
  5
8F
  8
0
 62
     7
 10
45.549799999999991
 20
86.293999999999997
 30
0.0
 11
45.475499999999997
 21
86.293999999999997
 31
0.0
  0
LINE
  5
90
  8
0
 62
     7
 10
45.475499999999997
 20
86.293999999999997
 30
0.0
 11
45.475499999999997
 21
85.972200000000001
 31
0.0
  0
LINE
  5
91
  8
0
 62
     7
 10
45.207500000000003
 20
85.972200000000001
 30
0.0
 11
45.2819
 21
85.972200000000001
 31
0.0
  0
LINE
  5
92
  8
0
 62
     7
 10
45.2819
 20
85.972200000000001
 30
0.0
 11
45.2819
 21
86.293999999999997
 31
0.0
  0
LINE
  5
93
  8
0
 62
     7
 10
45.2819
 20
86.293999999999997
 30
0.0
 11
45.207500000000003
 21
86.293999999999997
 31
0.0
  0
LINE
  5
94
  8
0
 62
     7
 10
45.207500000000003
 20
86.293999999999997
 30
0.0
 11
45.207500000000003
 21
85.972200000000001
 31
0.0
  0
LINE
  5
95
  8
0
 62
     7
 10
44.945300000000003
 20
86.046599999999998
 30
0.0
 11
44.7438
 21
86.046599999999998
 31
0.0
  0
LINE
  5
96
  8
0
 62
     7
 10
44.7438
 20
86.046599999999998
 30
0.0
 11
44.7438
 21
86.219599999999986
 31
0.0
  0
LINE
  5
97
  8
0
 62
     7
 10
44.7438
 20
86.219599999999986
 30
0.0
 11
44.945300000000003
 21
86.219599999999986
 31
0.0
  0
LINE
  5
98
  8
0
 62
     7
 10
44.945300000000003
 20
86.219599999999986
 30
0.0
 11
44.945300000000003
 21
86.046599999999998
 31
0.0
  0
ARC
  5
99
  8
0
 62
     7
 10
44.954757999999998
 20
86.037028000000007
 30
0.0
 40
0.064863
 50
272.183875
 51
358.13181300000002
  0
LINE
  5
9A
  8
0
 62
     7
 10
45.01959999999999
 20
86.034899999999979
 30
0.0
 11
44.9572
 21
85.972200000000001
 31
0.0
  0
ARC
  5
9B
  8
0
 62
     7
 10
46.110440999999987
 20
86.037261999999998
 30
0.0
 40
0.065113
 50
182.06669099999999
 51
267.45916999999997
  0
LINE
  5
9C
  8
0
 62
     7
 10
46.107599999999991
 20
85.972200000000001
 30
0.0
 11
46.045400000000001
 21
86.034899999999979
 31
0.0
  0
LINE
  5
9D
  8
0
 62
     7
 10
168.43100000000001
 20
97.610900000000015
 30
0.0
 11
168.43100000000001
 21
120.97199999999999
 31
0.0
  0
LINE
  5
9E
  8
0
 62
     7
 10
69.5976
 20
58.8264
 30
0.0
 11
69.5976
 21
97.456500000000005
 31
0.0
  0
LINE
  5
9F
  8
0
 62
     7
 10
138.59700000000001
 20
103.506
 30
0.0
 11
138.59700000000001
 21
120.97199999999999
 31
0.0
  0
LINE
  5
A0
  8
0
 62
     7
 10
175.923
 20
95.01700000000001
 30
0.0
 11
176.51499999999999
 21
92.805599999999984
 31
0.0
  0
LINE
  5
A1
  8
0
 62
     7
 10
176.51499999999999
 20
92.805599999999984
 30
0.0
 11
177.108
 21
95.01700000000001
 31
0.0
  0
LINE
  5
A2
  8
0
 62
     7
 10
177.108
 20
95.01700000000001
 30
0.0
 11
175.923
 21
95.01700000000001
 31
0.0
  0
LINE
  5
A3
  8
0
 62
     7
 10
177.108
 20
100.59399999999999
 30
0.0
 11
176.51499999999999
 21
102.806
 31
0.0
  0
LINE
  5
A4
  8
0
 62
     7
 10
176.51499999999999
 20
102.806
 30
0.0
 11
175.923
 21
100.59399999999999
 31
0.0
  0
LINE
  5
A5
  8
0
 62
     7
 10
175.923
 20
100.59399999999999
 30
0.0
 11
177.108
 21
100.59399999999999
 31
0.0
  0
LINE
  5
A6
  8
0
 62
     7
 10
176.51499999999999
 20
92.805599999999984
 30
0.0
 11
176.51499999999999
 21
102.806
 31
0.0
  0
LINE
  5
A7
  8
0
 62
     7
 10
163.59700000000001
 20
101.773
 30
0.0
 11
163.59700000000001
 21
112.651
 31
0.0
  0
LINE
  5
A8
  8
0
 62
     7
 10
77.889099999999999
 20
88.620500000000007
 30
0.0
 11
76.227199999999996
 21
79.196399999999997
 31
0.0
  0
LINE
  5
A9
  8
0
 62
     7
 10
131.93100000000001
 20
82.105800000000002
 30
0.0
 11
131.93100000000001
 21
73.597700000000003
 31
0.0
  0
LINE
  5
AA
  8
0
 62
     7
 10
138.59700000000001
 20
82.105800000000002
 30
0.0
 11
138.59700000000001
 21
58.833300000000001
 31
0.0
  0
LINE
  5
AB
  8
0
 62
     7
 10
78.568700000000007
 20
91.608099999999993
 30
0.0
 11
78.568700000000007
 21
66.9328
 31
0.0
  0
LINE
  5
AC
  8
0
 62
     7
 10
53.747999999999998
 20
112.652
 30
0.0
 11
53.747999999999998
 21
103.616
 31
0.0
  0
LINE
  5
AD
  8
0
 62
     7
 10
35.7483
 20
112.652
 30
0.0
 11
35.7483
 21
103.616
 31
0.0
  0
LINE
  5
AE
  8
0
 62
     7
 10
44.9452
 20
86.046599999999998
 30
0.0
 11
44.7438
 21
86.046599999999998
 31
0.0
  0
LINE
  5
AF
  8
0
 62
     7
 10
44.7438
 20
86.046599999999998
 30
0.0
 11
44.7438
 21
86.219599999999986
 31
0.0
  0
LINE
  5
B0
  8
0
 62
     7
 10
44.7438
 20
86.219599999999986
 30
0.0
 11
44.9452
 21
86.219599999999986
 31
0.0
  0
LINE
  5
B1
  8
0
 62
     7
 10
44.9452
 20
86.219599999999986
 30
0.0
 11
44.9452
 21
86.046599999999998
 31
0.0
  0
LINE
  5
B2
  8
0
 62
     7
 10
44.9572
 20
86.293999999999997
 30
0.0
 11
44.669600000000003
 21
86.293999999999997
 31
0.0
  0
LINE
  5
B3
  8
0
 62
     7
 10
44.669600000000003
 20
86.293999999999997
 30
0.0
 11
44.669600000000003
 21
85.9726
 31
0.0
  0
LINE
  5
B4
  8
0
 62
     7
 10
44.669600000000003
 20
85.9726
 30
0.0
 11
44.9572
 21
85.9726
 31
0.0
  0
ARC
  5
B5
  8
0
 62
     7
 10
44.954940999999998
 20
86.037202000000008
 30
0.0
 40
0.064686
 50
272.02788600000002
 51
357.97212300000001
  0
LINE
  5
B6
  8
0
 62
     7
 10
45.01959999999999
 20
86.034899999999979
 30
0.0
 11
45.01959999999999
 21
86.2316
 31
0.0
  0
ARC
  5
B7
  8
0
 62
     7
 10
44.954866999999993
 20
86.229266999999993
 30
0.0
 40
0.064763
 50
2.0910029999999988
 51
87.908986999999996
  0
LINE
  5
B8
  8
0
 62
     7
 10
44.67349999999999
 20
87.638999999999996
 30
0.0
 11
44.360699999999987
 21
87.638999999999996
 31
0.0
  0
ARC
  5
B9
  8
0
 62
     7
 10
44.375935999999989
 20
87.225118999999978
 30
0.0
 40
0.414121
 50
92.107282000000012
 51
177.84314499999999
  0
LINE
  5
BA
  8
0
 62
     7
 10
43.962099999999992
 20
87.240700000000004
 30
0.0
 11
43.962099999999992
 21
86.519999999999996
 31
0.0
  0
ARC
  5
BB
  8
0
 62
     7
 10
44.027970000000003
 20
86.522464999999997
 30
0.0
 40
0.065909
 50
182.15524099999999
 51
268.000272
  0
LINE
  5
BC
  8
0
 62
     7
 10
44.025699999999993
 20
86.456599999999995
 30
0.0
 11
44.67349999999999
 21
86.456599999999995
 31
0.0
  0
ARC
  5
BD
  8
0
 62
     7
 10
44.671248999999989
 20
86.522441000000001
 30
0.0
 40
0.065884
 50
271.979624
 51
357.86490300000003
  0
LINE
  5
BE
  8
0
 62
     7
 10
44.737099999999991
 20
86.519999999999996
 30
0.0
 11
44.737099999999991
 21
86.592999999999989
 31
0.0
  0
ARC
  5
BF
  8
0
 62
     7
 10
44.670969999999997
 20
86.590647000000004
 30
0.0
 40
0.06616
 50
2.0578899999999991
 51
87.787036999999984
  0
LINE
  5
C0
  8
0
 62
     7
 10
44.67349999999999
 20
86.656800000000004
 30
0.0
 11
44.157600000000002
 21
86.656800000000004
 31
0.0
  0
LINE
  5
C1
  8
0
 62
     7
 10
44.157600000000002
 20
86.656800000000004
 30
0.0
 11
44.157600000000002
 21
86.947500000000005
 31
0.0
  0
LINE
  5
C2
  8
0
 62
     7
 10
44.157600000000002
 20
86.947500000000005
 30
0.0
 11
44.610300000000002
 21
86.947500000000005
 31
0.0
  0
ARC
  5
C3
  8
0
 62
     7
 10
44.607897999999992
 20
87.013681999999989
 30
0.0
 40
0.066201
 50
272.08489400000002
 51
357.60457100000002
  0
LINE
  5
C4
  8
0
 62
     7
 10
44.673999999999999
 20
87.010900000000007
 30
0.0
 11
44.673999999999999
 21
87.084299999999985
 31
0.0
  0
ARC
  5
C5
  8
0
 62
     7
 10
44.608271999999992
 20
87.081905000000006
 30
0.0
 40
0.065813
 50
2.0820270000000001
 51
88.228507999999991
  0
LINE
  5
C6
  8
0
 62
     7
 10
44.610300000000002
 20
87.147699999999986
 30
0.0
 11
44.157600000000002
 21
87.147699999999986
 31
0.0
  0
LINE
  5
C7
  8
0
 62
     7
 10
44.157600000000002
 20
87.147699999999986
 30
0.0
 11
44.157600000000002
 21
87.438800000000001
 31
0.0
  0
LINE
  5
C8
  8
0
 62
     7
 10
44.157600000000002
 20
87.438800000000001
 30
0.0
 11
44.67349999999999
 21
87.438800000000001
 31
0.0
  0
ARC
  5
C9
  8
0
 62
     7
 10
44.671248999999989
 20
87.504643000000002
 30
0.0
 40
0.065884
 50
271.979624
 51
357.86490300000003
  0
LINE
  5
CA
  8
0
 62
     7
 10
44.737099999999991
 20
87.502200000000002
 30
0.0
 11
44.737099999999991
 21
87.575599999999994
 31
0.0
  0
ARC
  5
CB
  8
0
 62
     7
 10
44.671323999999991
 20
87.573191000000008
 30
0.0
 40
0.065806
 50
2.071575999999999
 51
88.083898000000005
  0
LINE
  5
CC
  8
0
 62
     7
 10
43.774199999999993
 20
87.638999999999996
 30
0.0
 11
43.459799999999987
 21
87.638999999999996
 31
0.0
  0
ARC
  5
CD
  8
0
 62
     7
 10
43.475036999999993
 20
87.225118999999978
 30
0.0
 40
0.414121
 50
92.107282000000012
 51
177.84314499999999
  0
LINE
  5
CE
  8
0
 62
     7
 10
43.061199999999992
 20
87.240700000000004
 30
0.0
 11
43.061199999999992
 21
86.519999999999996
 31
0.0
  0
ARC
  5
CF
  8
0
 62
     7
 10
43.127077999999997
 20
86.522476999999995
 30
0.0
 40
0.065916
 50
182.165648
 51
268.144927
  0
LINE
  5
D0
  8
0
 62
     7
 10
43.12489999999999
 20
86.456599999999995
 30
0.0
 11
43.774199999999993
 21
86.456599999999995
 31
0.0
  0
ARC
  5
D1
  8
0
 62
     7
 10
43.771909000000001
 20
86.522254000000004
 30
0.0
 40
0.065697
 50
271.97846500000003
 51
358.021545
  0
LINE
  5
D2
  8
0
 62
     7
 10
43.837600000000002
 20
86.519999999999996
 30
0.0
 11
43.837600000000002
 21
86.592999999999989
 31
0.0
  0
ARC
  5
D3
  8
0
 62
     7
 10
43.771455000000003
 20
86.590658999999988
 30
0.0
 40
0.066154
 50
2.0475369999999988
 51
87.641907999999987
  0
LINE
  5
D4
  8
0
 62
     7
 10
43.774199999999993
 20
86.656800000000004
 30
0.0
 11
43.256900000000002
 21
86.656800000000004
 31
0.0
  0
LINE
  5
D5
  8
0
 62
     7
 10
43.256900000000002
 20
86.656800000000004
 30
0.0
 11
43.256900000000002
 21
87.438800000000001
 31
0.0
  0
LINE
  5
D6
  8
0
 62
     7
 10
43.256900000000002
 20
87.438800000000001
 30
0.0
 11
43.774199999999993
 21
87.438800000000001
 31
0.0
  0
ARC
  5
D7
  8
0
 62
     7
 10
43.771909000000001
 20
87.504456999999974
 30
0.0
 40
0.065697
 50
271.97846500000003
 51
358.021545
  0
LINE
  5
D8
  8
0
 62
     7
 10
43.837600000000002
 20
87.502200000000002
 30
0.0
 11
43.837600000000002
 21
87.575599999999994
 31
0.0
  0
ARC
  5
D9
  8
0
 62
     7
 10
43.771809999999988
 20
87.573203000000007
 30
0.0
 40
0.065799
 50
2.0611369999999991
 51
87.938853000000009
  0
LINE
  5
DA
  8
0
 62
     7
 10
43.880600000000001
 20
86.161299999999997
 30
0.0
 11
43.680999999999997
 21
86.161299999999997
 31
0.0
  0
LINE
  5
DB
  8
0
 62
     7
 10
43.680999999999997
 20
86.161299999999997
 30
0.0
 11
43.680999999999997
 21
86.219599999999986
 31
0.0
  0
LINE
  5
DC
  8
0
 62
     7
 10
43.680999999999997
 20
86.219599999999986
 30
0.0
 11
43.880600000000001
 21
86.219599999999986
 31
0.0
  0
LINE
  5
DD
  8
0
 62
     7
 10
43.880600000000001
 20
86.219599999999986
 30
0.0
 11
43.880600000000001
 21
86.161299999999997
 31
0.0
  0
LINE
  5
DE
  8
0
 62
     7
 10
43.892699999999991
 20
86.293999999999997
 30
0.0
 11
43.6066
 21
86.293999999999997
 31
0.0
  0
LINE
  5
DF
  8
0
 62
     7
 10
43.6066
 20
86.293999999999997
 30
0.0
 11
43.6066
 21
85.9726
 31
0.0
  0
LINE
  5
E0
  8
0
 62
     7
 10
43.6066
 20
85.9726
 30
0.0
 11
43.680999999999997
 21
85.9726
 31
0.0
  0
LINE
  5
E1
  8
0
 62
     7
 10
43.680999999999997
 20
85.9726
 30
0.0
 11
43.680999999999997
 21
86.087299999999985
 31
0.0
  0
LINE
  5
E2
  8
0
 62
     7
 10
43.680999999999997
 20
86.087299999999985
 30
0.0
 11
43.880600000000001
 21
86.087299999999985
 31
0.0
  0
LINE
  5
E3
  8
0
 62
     7
 10
43.880600000000001
 20
86.087299999999985
 30
0.0
 11
43.880600000000001
 21
85.9726
 31
0.0
  0
LINE
  5
E4
  8
0
 62
     7
 10
43.880600000000001
 20
85.9726
 30
0.0
 11
43.954999999999998
 21
85.9726
 31
0.0
  0
LINE
  5
E5
  8
0
 62
     7
 10
43.954999999999998
 20
85.9726
 30
0.0
 11
43.954999999999998
 21
86.080399999999997
 31
0.0
  0
ARC
  5
E6
  8
0
 62
     7
 10
43.906401000000002
 20
86.079837999999995
 30
0.0
 40
0.048648
 50
0.648825
 51
68.741474999999994
  0
LINE
  5
E7
  8
0
 62
     7
 10
43.923999999999999
 20
86.125200000000007
 30
0.0
 11
43.922499999999992
 21
86.127200000000016
 31
0.0
  0
LINE
  5
E8
  8
0
 62
     7
 10
43.922499999999992
 20
86.127200000000016
 30
0.0
 11
43.923900000000003
 21
86.128999999999991
 31
0.0
  0
ARC
  5
E9
  8
0
 62
     7
 10
43.907164000000002
 20
86.174329999999998
 30
0.0
 40
0.048342
 50
290.21383500000002
 51
7.9144750000000004
  0
LINE
  5
EA
  8
0
 62
     7
 10
43.954999999999998
 20
86.180999999999997
 30
0.0
 11
43.954999999999998
 21
86.2316
 31
0.0
  0
ARC
  5
EB
  8
0
 62
     7
 10
43.890326000000002
 20
86.229266999999993
 30
0.0
 40
0.064763
 50
2.0910029999999988
 51
87.908986999999996
  0
LINE
  5
EC
  8
0
 62
     7
 10
43.080300000000001
 20
86.219599999999986
 30
0.0
 11
43.227800000000002
 21
86.219599999999986
 31
0.0
  0
LINE
  5
ED
  8
0
 62
     7
 10
43.227800000000002
 20
86.219599999999986
 30
0.0
 11
43.227800000000002
 21
85.9726
 31
0.0
  0
LINE
  5
EE
  8
0
 62
     7
 10
43.227800000000002
 20
85.9726
 30
0.0
 11
43.302199999999992
 21
85.9726
 31
0.0
  0
LINE
  5
EF
  8
0
 62
     7
 10
43.302199999999992
 20
85.9726
 30
0.0
 11
43.302199999999992
 21
86.219599999999986
 31
0.0
  0
LINE
  5
F0
  8
0
 62
     7
 10
43.302199999999992
 20
86.219599999999986
 30
0.0
 11
43.44959999999999
 21
86.219599999999986
 31
0.0
  0
LINE
  5
F1
  8
0
 62
     7
 10
43.44959999999999
 20
86.219599999999986
 30
0.0
 11
43.44959999999999
 21
86.293999999999997
 31
0.0
  0
LINE
  5
F2
  8
0
 62
     7
 10
43.44959999999999
 20
86.293999999999997
 30
0.0
 11
43.080300000000001
 21
86.293999999999997
 31
0.0
  0
LINE
  5
F3
  8
0
 62
     7
 10
43.080300000000001
 20
86.293999999999997
 30
0.0
 11
43.080300000000001
 21
86.219599999999986
 31
0.0
  0
LINE
  5
F4
  8
0
 62
     7
 10
44.245600000000003
 20
86.113499999999988
 30
0.0
 11
44.308999999999997
 21
86.233400000000003
 31
0.0
  0
LINE
  5
F5
  8
0
 62
     7
 10
44.308999999999997
 20
86.233400000000003
 30
0.0
 11
44.372199999999992
 21
86.113499999999988
 31
0.0
  0
LINE
  5
F6
  8
0
 62
     7
 10
44.372199999999992
 20
86.113499999999988
 30
0.0
 11
44.245600000000003
 21
86.113499999999988
 31
0.0
  0
LINE
  5
F7
  8
0
 62
     7
 10
44.27109999999999
 20
86.293999999999997
 30
0.0
 11
44.084600000000002
 21
85.9726
 31
0.0
  0
LINE
  5
F8
  8
0
 62
     7
 10
44.084600000000002
 20
85.9726
 30
0.0
 11
44.171199999999992
 21
85.9726
 31
0.0
  0
LINE
  5
F9
  8
0
 62
     7
 10
44.171199999999992
 20
85.9726
 30
0.0
 11
44.206499999999998
 21
86.039399999999986
 31
0.0
  0
LINE
  5
FA
  8
0
 62
     7
 10
44.206499999999998
 20
86.039399999999986
 30
0.0
 11
44.41149999999999
 21
86.039399999999986
 31
0.0
  0
LINE
  5
FB
  8
0
 62
     7
 10
44.41149999999999
 20
86.039399999999986
 30
0.0
 11
44.4467
 21
85.9726
 31
0.0
  0
LINE
  5
FC
  8
0
 62
     7
 10
44.4467
 20
85.9726
 30
0.0
 11
44.533099999999997
 21
85.9726
 31
0.0
  0
LINE
  5
FD
  8
0
 62
     7
 10
44.533099999999997
 20
85.9726
 30
0.0
 11
44.346899999999991
 21
86.293999999999997
 31
0.0
  0
LINE
  5
FE
  8
0
 62
     7
 10
44.346899999999991
 20
86.293999999999997
 30
0.0
 11
44.27109999999999
 21
86.293999999999997
 31
0.0
  0
LINE
  5
FF
  8
0
 62
     7
 10
46.371099999999991
 20
87.638999999999996
 30
0.0
 11
45.989699999999999
 21
87.638999999999996
 31
0.0
  0
ARC
  5
100
  8
0
 62
     7
 10
46.004972999999993
 20
87.225463000000005
 30
0.0
 40
0.413778
 50
92.110961000000017
 51
177.88901000000001
  0
LINE
  5
101
  8
0
 62
     7
 10
45.591500000000003
 20
87.240700000000004
 30
0.0
 11
45.591500000000003
 21
86.519999999999996
 31
0.0
  0
ARC
  5
102
  8
0
 62
     7
 10
45.657226999999999
 20
86.522339999999986
 30
0.0
 40
0.065793
 50
182.050713
 51
267.79340999999999
  0
LINE
  5
103
  8
0
 62
     7
 10
45.654699999999998
 20
86.456599999999995
 30
0.0
 11
45.72359999999999
 21
86.456599999999995
 31
0.0
  0
ARC
  5
104
  8
0
 62
     7
 10
45.721251000000002
 20
86.522331999999992
 30
0.0
 40
0.065778
 50
272.043722
 51
357.95628800000009
  0
LINE
  5
105
  8
0
 62
     7
 10
45.786999999999999
 20
86.519999999999996
 30
0.0
 11
45.786999999999999
 21
86.947500000000005
 31
0.0
  0
LINE
  5
106
  8
0
 62
     7
 10
45.786999999999999
 20
86.947500000000005
 30
0.0
 11
46.238799999999991
 21
86.947500000000005
 31
0.0
  0
LINE
  5
107
  8
0
 62
     7
 10
46.238799999999991
 20
86.947500000000005
 30
0.0
 11
46.238799999999991
 21
86.519999999999996
 31
0.0
  0
ARC
  5
108
  8
0
 62
     7
 10
46.304575999999997
 20
86.522364999999994
 30
0.0
 40
0.065806
 50
182.07157900000001
 51
268.083935
  0
LINE
  5
109
  8
0
 62
     7
 10
46.302399999999992
 20
86.456599999999995
 30
0.0
 11
46.371099999999991
 21
86.456599999999995
 31
0.0
  0
ARC
  5
10A
  8
0
 62
     7
 10
46.368831999999991
 20
86.522260000000003
 30
0.0
 40
0.065704
 50
271.98347799999999
 51
358.01653199999998
  0
LINE
  5
10B
  8
0
 62
     7
 10
46.4345
 20
86.519999999999996
 30
0.0
 11
46.4345
 21
87.575599999999994
 31
0.0
  0
ARC
  5
10C
  8
0
 62
     7
 10
46.368740000000003
 20
87.573203000000007
 30
0.0
 40
0.065799
 50
2.0611369999999991
 51
87.938853000000009
  0
LINE
  5
10D
  8
0
 62
     7
 10
45.465000000000003
 20
87.638999999999996
 30
0.0
 11
45.278999999999989
 21
87.638999999999996
 31
0.0
  0
ARC
  5
10E
  8
0
 62
     7
 10
45.294226999999999
 20
87.225123999999994
 30
0.0
 40
0.4141160000000001
 50
92.106618000000026
 51
177.84380999999999
  0
LINE
  5
10F
  8
0
 62
     7
 10
44.880400000000002
 20
87.240700000000004
 30
0.0
 11
44.880400000000002
 21
86.519999999999996
 31
0.0
  0
ARC
  5
110
  8
0
 62
     7
 10
44.946259999999988
 20
86.522452000000015
 30
0.0
 40
0.065903
 50
182.144847
 51
267.85518300000001
  0
LINE
  5
111
  8
0
 62
     7
 10
44.943800000000003
 20
86.456599999999995
 30
0.0
 11
45.012500000000003
 21
86.456599999999995
 31
0.0
  0
ARC
  5
112
  8
0
 62
     7
 10
45.010178000000003
 20
86.522331999999992
 30
0.0
 40
0.065778
 50
272.043722
 51
357.95628800000009
  0
LINE
  5
113
  8
0
 62
     7
 10
45.07589999999999
 20
86.519999999999996
 30
0.0
 11
45.07589999999999
 21
87.438800000000001
 31
0.0
  0
LINE
  5
114
  8
0
 62
     7
 10
45.07589999999999
 20
87.438800000000001
 30
0.0
 11
45.465000000000003
 21
87.438800000000001
 31
0.0
  0
ARC
  5
115
  8
0
 62
     7
 10
45.462774000000003
 20
87.504277000000016
 30
0.0
 40
0.065518
 50
271.98238199999997
 51
358.17353500000002
  0
LINE
  5
116
  8
0
 62
     7
 10
45.528300000000002
 20
87.502200000000002
 30
0.0
 11
45.528300000000002
 21
87.575599999999994
 31
0.0
  0
ARC
  5
117
  8
0
 62
     7
 10
45.462507000000002
 20
87.573216000000002
 30
0.0
 40
0.065793
 50
2.0507110000000002
 51
87.793372999999988
  0
LINE
  5
118
  8
0
 62
     7
 10
45.783499999999989
 20
86.057000000000002
 30
0.0
 11
45.549599999999998
 21
86.293999999999997
 31
0.0
  0
LINE
  5
119
  8
0
 62
     7
 10
45.549599999999998
 20
86.293999999999997
 30
0.0
 11
45.475499999999997
 21
86.293999999999997
 31
0.0
  0
LINE
  5
11A
  8
0
 62
     7
 10
45.475499999999997
 20
86.293999999999997
 30
0.0
 11
45.475499999999997
 21
85.9726
 31
0.0
  0
LINE
  5
11B
  8
0
 62
     7
 10
45.475499999999997
 20
85.9726
 30
0.0
 11
45.549599999999998
 21
85.9726
 31
0.0
  0
LINE
  5
11C
  8
0
 62
     7
 10
45.549599999999998
 20
85.9726
 30
0.0
 11
45.549599999999998
 21
86.209599999999995
 31
0.0
  0
LINE
  5
11D
  8
0
 62
     7
 10
45.549599999999998
 20
86.209599999999995
 30
0.0
 11
45.783499999999989
 21
85.9726
 31
0.0
  0
LINE
  5
11E
  8
0
 62
     7
 10
45.783499999999989
 20
85.9726
 30
0.0
 11
45.857999999999997
 21
85.9726
 31
0.0
  0
LINE
  5
11F
  8
0
 62
     7
 10
45.857999999999997
 20
85.9726
 30
0.0
 11
45.857999999999997
 21
86.293999999999997
 31
0.0
  0
LINE
  5
120
  8
0
 62
     7
 10
45.857999999999997
 20
86.293999999999997
 30
0.0
 11
45.783499999999989
 21
86.293999999999997
 31
0.0
  0
LINE
  5
121
  8
0
 62
     7
 10
45.783499999999989
 20
86.293999999999997
 30
0.0
 11
45.783499999999989
 21
86.057000000000002
 31
0.0
  0
LINE
  5
122
  8
0
 62
     7
 10
45.207500000000003
 20
85.9726
 30
0.0
 11
45.2819
 21
85.9726
 31
0.0
  0
LINE
  5
123
  8
0
 62
     7
 10
45.2819
 20
85.9726
 30
0.0
 11
45.2819
 21
86.293999999999997
 31
0.0
  0
LINE
  5
124
  8
0
 62
     7
 10
45.2819
 20
86.293999999999997
 30
0.0
 11
45.207500000000003
 21
86.293999999999997
 31
0.0
  0
LINE
  5
125
  8
0
 62
     7
 10
45.207500000000003
 20
86.293999999999997
 30
0.0
 11
45.207500000000003
 21
85.9726
 31
0.0
  0
LINE
  5
126
  8
0
 62
     7
 10
46.395400000000002
 20
86.219599999999986
 30
0.0
 11
46.395400000000002
 21
86.293999999999997
 31
0.0
  0
LINE
  5
127
  8
0
 62
     7
 10
46.395400000000002
 20
86.293999999999997
 30
0.0
 11
46.107599999999991
 21
86.293999999999997
 31
0.0
  0
ARC
  5
128
  8
0
 62
     7
 10
46.109918999999998
 20
86.229443999999987
 30
0.0
 40
0.064586
 50
92.097968000000009
 51
178.060496
  0
LINE
  5
129
  8
0
 62
     7
 10
46.045400000000001
 20
86.2316
 30
0.0
 11
46.045400000000001
 21
86.034899999999979
 31
0.0
  0
ARC
  5
12A
  8
0
 62
     7
 10
46.110053999999991
 20
86.037233999999984
 30
0.0
 40
0.064725
 50
182.05443299999999
 51
267.787102
  0
LINE
  5
12B
  8
0
 62
     7
 10
46.107599999999991
 20
85.9726
 30
0.0
 11
46.395400000000002
 21
85.9726
 31
0.0
  0
LINE
  5
12C
  8
0
 62
     7
 10
46.395400000000002
 20
85.9726
 30
0.0
 11
46.395400000000002
 21
86.134500000000003
 31
0.0
  0
LINE
  5
12D
  8
0
 62
     7
 10
46.395400000000002
 20
86.134500000000003
 30
0.0
 11
46.320999999999998
 21
86.134500000000003
 31
0.0
  0
LINE
  5
12E
  8
0
 62
     7
 10
46.320999999999998
 20
86.134500000000003
 30
0.0
 11
46.320999999999998
 21
86.046599999999998
 31
0.0
  0
LINE
  5
12F
  8
0
 62
     7
 10
46.320999999999998
 20
86.046599999999998
 30
0.0
 11
46.119799999999991
 21
86.046599999999998
 31
0.0
  0
LINE
  5
130
  8
0
 62
     7
 10
46.119799999999991
 20
86.046599999999998
 30
0.0
 11
46.119799999999991
 21
86.219599999999986
 31
0.0
  0
LINE
  5
131
  8
0
 62
     7
 10
46.119799999999991
 20
86.219599999999986
 30
0.0
 11
46.395400000000002
 21
86.219599999999986
 31
0.0
  0
LINE
  5
132
  8
0
 62
     7
 10
46.238799999999991
 20
87.147699999999986
 30
0.0
 11
45.786999999999999
 21
87.147699999999986
 31
0.0
  0
LINE
  5
133
  8
0
 62
     7
 10
45.786999999999999
 20
87.147699999999986
 30
0.0
 11
45.786999999999999
 21
87.438800000000001
 31
0.0
  0
LINE
  5
134
  8
0
 62
     7
 10
45.786999999999999
 20
87.438800000000001
 30
0.0
 11
46.238799999999991
 21
87.438800000000001
 31
0.0
  0
LINE
  5
135
  8
0
 62
     7
 10
46.238799999999991
 20
87.438800000000001
 30
0.0
 11
46.238799999999991
 21
87.147699999999986
 31
0.0
  0
ARC
  5
136
  8
0
 62
     7
 10
47.103367999999989
 20
86.804069999999996
 30
0.0
 40
0.644582
 50
0.165411
 51
32.988785
  0
ARC
  5
137
  8
0
 62
     7
 10
46.796973999999999
 20
86.634524999999996
 30
0.0
 40
0.9941959999999998
 50
31.570179
 51
45.181545
  0
ARC
  5
138
  8
0
 62
     7
 10
46.447124000000002
 20
86.299094999999994
 30
0.0
 40
1.478774
 50
44.726990000000001
 51
55.032383999999993
  0
ARC
  5
139
  8
0
 62
     7
 10
46.022759000000001
 20
85.714978000000016
 30
0.0
 40
2.2006919999999992
 50
54.694127999999999
 51
63.851076000000013
  0
ARC
  5
13A
  8
0
 62
     7
 10
45.472428000000001
 20
84.637167000000005
 30
0.0
 40
3.4107769999999991
 50
63.531773999999992
 51
74.831842000000009
  0
ARC
  5
13B
  8
0
 62
     7
 10
44.907195999999999
 20
82.774998999999994
 30
0.0
 40
5.3562820000000002
 50
74.208202999999983
 51
86.019990000000007
  0
ARC
  5
13C
  8
0
 62
     7
 10
44.751723999999989
 20
81.455400999999995
 30
0.0
 40
6.6837910000000003
 50
85.475583999999984
 51
90.032433999999995
  0
ARC
  5
13D
  8
0
 62
     7
 10
44.747120000000002
 20
81.680334000000002
 30
0.0
 40
6.4588570000000001
 50
89.992726000000005
 51
102.200481
  0
ARC
  5
13E
  8
0
 62
     7
 10
44.354455999999999
 20
83.688073000000003
 30
0.0
 40
4.4136680000000004
 50
102.72631699999999
 51
112.322112
  0
ARC
  5
13F
  8
0
 62
     7
 10
43.702302000000003
 20
85.330050999999997
 30
0.0
 40
2.647116
 50
112.76284200000001
 51
125.046037
  0
ARC
  5
140
  8
0
 62
     7
 10
43.021574999999991
 20
86.339605000000006
 30
0.0
 40
1.429881999999999
 50
125.944278
 51
141.30646100000001
  0
ARC
  5
141
  8
0
 62
     7
 10
42.546115
 20
86.740611999999999
 30
0.0
 40
0.8082470000000001
 50
142.42302599999999
 51
165.55506099999999
  0
ARC
  5
142
  8
0
 62
     7
 10
42.360326000000001
 20
86.805375999999995
 30
0.0
 40
0.6123950000000001
 50
167.086995
 51
179.948038
  0
ARC
  5
143
  8
0
 62
     7
 10
42.393062999999991
 20
86.807793000000004
 30
0.0
 40
0.645135
 50
180.16542899999999
 51
212.972521
  0
ARC
  5
144
  8
0
 62
     7
 10
42.699573000000001
 20
86.977441999999996
 30
0.0
 40
0.9949059999999999
 50
211.56200800000011
 51
225.16572600000001
  0
ARC
  5
145
  8
0
 62
     7
 10
43.049340000000001
 20
87.312931000000006
 30
0.0
 40
1.4794689999999999
 50
224.72045900000001
 51
235.02175600000001
  0
ARC
  5
146
  8
0
 62
     7
 10
43.472808000000001
 20
87.895584999999997
 30
0.0
 40
2.199675
 50
234.68415100000001
 51
243.84543099999999
  0
ARC
  5
147
  8
0
 62
     7
 10
44.023586000000002
 20
88.974337000000006
 30
0.0
 40
3.4108040000000002
 50
243.52835999999999
 51
254.828307
  0
ARC
  5
148
  8
0
 62
     7
 10
44.588495000000002
 20
90.835498999999984
 30
0.0
 40
5.355256999999999
 50
254.20636300000001
 51
266.02079199999997
  0
ARC
  5
149
  8
0
 62
     7
 10
44.744149999999991
 20
92.157080000000008
 30
0.0
 40
6.684755
 50
265.47593000000001
 51
270.03249099999999
  0
ARC
  5
14A
  8
0
 62
     7
 10
44.748761000000002
 20
91.929981999999995
 30
0.0
 40
6.4576560000000001
 50
269.99271599999997
 51
282.202091
  0
ARC
  5
14B
  8
0
 62
     7
 10
45.141967000000001
 20
89.921078000000009
 30
0.0
 40
4.4112130000000001
 50
282.72528199999999
 51
292.3266680000001
  0
ARC
  5
14C
  8
0
 62
     7
 10
45.793244999999999
 20
88.281666999999999
 30
0.0
 40
2.64737
 50
292.76681200000002
 51
305.049961
  0
ARC
  5
14D
  8
0
 62
     7
 10
46.474302000000002
 20
87.271788000000001
 30
0.0
 40
1.429681999999999
 50
305.94830899999999
 51
321.31553600000001
  0
ARC
  5
14E
  8
0
 62
     7
 10
46.949593999999998
 20
86.871115999999986
 30
0.0
 40
0.808389
 50
322.42782899999997
 51
345.56273199999998
  0
ARC
  5
14F
  8
0
 62
     7
 10
47.135471999999993
 20
86.806454000000016
 30
0.0
 40
0.612475
 50
347.085621
 51
359.951075
  0
LINE
  5
150
  8
0
 62
     7
 10
49.8474
 20
92.277100000000004
 30
0.0
 11
49.958500000000001
 21
92.407000000000025
 31
0.0
  0
LINE
  5
151
  8
0
 62
     7
 10
49.958500000000001
 20
92.407000000000025
 30
0.0
 11
49.958500000000001
 21
92.542699999999996
 31
0.0
  0
LINE
  5
152
  8
0
 62
     7
 10
49.958500000000001
 20
92.542699999999996
 30
0.0
 11
49.915100000000002
 21
92.609899999999996
 31
0.0
  0
LINE
  5
153
  8
0
 62
     7
 10
39.576999999999998
 20
92.605400000000003
 30
0.0
 11
39.537399999999998
 21
92.542699999999996
 31
0.0
  0
LINE
  5
154
  8
0
 62
     7
 10
39.537399999999998
 20
92.542699999999996
 30
0.0
 11
39.537399999999998
 21
92.407000000000025
 31
0.0
  0
LINE
  5
155
  8
0
 62
     7
 10
39.537399999999998
 20
92.407000000000025
 30
0.0
 11
39.646099999999997
 21
92.278800000000004
 31
0.0
  0
LINE
  5
156
  8
0
 62
     7
 10
39.356499999999997
 20
92.622000000000014
 30
0.0
 11
39.371299999999998
 21
92.700500000000005
 31
0.0
  0
LINE
  5
157
  8
0
 62
     7
 10
39.371299999999998
 20
92.700500000000005
 30
0.0
 11
39.491599999999998
 21
92.838700000000003
 31
0.0
  0
LINE
  5
158
  8
0
 62
     7
 10
39.491599999999998
 20
92.838700000000003
 30
0.0
 11
39.72890000000001
 21
92.972700000000003
 31
0.0
  0
LINE
  5
159
  8
0
 62
     7
 10
39.72890000000001
 20
92.972700000000003
 30
0.0
 11
40.078599999999987
 21
93.098799999999983
 31
0.0
  0
LINE
  5
15A
  8
0
 62
     7
 10
40.078599999999987
 20
93.098799999999983
 30
0.0
 11
40.532699999999998
 21
93.214200000000005
 31
0.0
  0
LINE
  5
15B
  8
0
 62
     7
 10
40.532699999999998
 20
93.214200000000005
 30
0.0
 11
41.080599999999997
 21
93.316900000000004
 31
0.0
  0
LINE
  5
15C
  8
0
 62
     7
 10
41.080599999999997
 20
93.316900000000004
 30
0.0
 11
41.710700000000003
 21
93.403999999999996
 31
0.0
  0
LINE
  5
15D
  8
0
 62
     7
 10
41.710700000000003
 20
93.403999999999996
 30
0.0
 11
42.408499999999997
 21
93.473999999999975
 31
0.0
  0
LINE
  5
15E
  8
0
 62
     7
 10
42.408499999999997
 20
93.473999999999975
 30
0.0
 11
43.158700000000003
 21
93.525299999999987
 31
0.0
  0
LINE
  5
15F
  8
0
 62
     7
 10
43.158700000000003
 20
93.525299999999987
 30
0.0
 11
43.944400000000002
 21
93.556299999999993
 31
0.0
  0
LINE
  5
160
  8
0
 62
     7
 10
43.944400000000002
 20
93.556299999999993
 30
0.0
 11
44.747900000000001
 21
93.566599999999994
 31
0.0
  0
LINE
  5
161
  8
0
 62
     7
 10
44.747900000000001
 20
93.566599999999994
 30
0.0
 11
45.551499999999997
 21
93.556299999999993
 31
0.0
  0
LINE
  5
162
  8
0
 62
     7
 10
45.551499999999997
 20
93.556299999999993
 30
0.0
 11
46.337200000000003
 21
93.525299999999987
 31
0.0
  0
LINE
  5
163
  8
0
 62
     7
 10
46.337200000000003
 20
93.525299999999987
 30
0.0
 11
47.087299999999999
 21
93.473999999999975
 31
0.0
  0
LINE
  5
164
  8
0
 62
     7
 10
47.087299999999999
 20
93.473999999999975
 30
0.0
 11
47.785200000000003
 21
93.403999999999996
 31
0.0
  0
LINE
  5
165
  8
0
 62
     7
 10
47.785200000000003
 20
93.403999999999996
 30
0.0
 11
48.415100000000002
 21
93.316900000000004
 31
0.0
  0
LINE
  5
166
  8
0
 62
     7
 10
48.415100000000002
 20
93.316900000000004
 30
0.0
 11
48.963200000000001
 21
93.214200000000005
 31
0.0
  0
LINE
  5
167
  8
0
 62
     7
 10
48.963200000000001
 20
93.214200000000005
 30
0.0
 11
49.41729999999999
 21
93.098799999999983
 31
0.0
  0
LINE
  5
168
  8
0
 62
     7
 10
49.41729999999999
 20
93.098799999999983
 30
0.0
 11
49.766800000000003
 21
92.972700000000003
 31
0.0
  0
LINE
  5
169
  8
0
 62
     7
 10
49.766800000000003
 20
92.972700000000003
 30
0.0
 11
50.004300000000001
 21
92.838700000000003
 31
0.0
  0
LINE
  5
16A
  8
0
 62
     7
 10
50.004300000000001
 20
92.838700000000003
 30
0.0
 11
50.124400000000001
 21
92.700500000000005
 31
0.0
  0
LINE
  5
16B
  8
0
 62
     7
 10
50.124400000000001
 20
92.700500000000005
 30
0.0
 11
50.139200000000002
 21
92.622000000000014
 31
0.0
  0
ARC
  5
16C
  8
0
 62
     7
 10
39.359189000000001
 20
96.372624999999999
 30
0.0
 40
0.240844
 50
220.914041
 51
225.29295300000001
  0
ARC
  5
16D
  8
0
 62
     7
 10
39.186415999999987
 20
96.221919999999997
 30
0.0
 40
0.011603
 50
121.89605299999999
 51
217.28852699999999
  0
LINE
  5
16E
  8
0
 62
     7
 10
50.320900000000002
 20
96.234899999999996
 30
0.0
 11
50.305900000000001
 21
96.201499999999996
 31
0.0
  0
ARC
  5
16F
  8
0
 62
     7
 10
58.357483999999992
 20
95.571263000000002
 30
0.0
 40
8.2848559999999996
 50
175.24338900000001
 51
176.919692
  0
ARC
  5
170
  8
0
 62
     7
 10
51.918475000000001
 20
96.090766000000016
 30
0.0
 40
1.825016999999999
 50
166.50400200000001
 51
174.73392999999999
  0
ARC
  5
171
  8
0
 62
     7
 10
51.539386
 20
96.162211999999997
 30
0.0
 40
1.439846999999999
 50
145.88705400000001
 51
165.74803700000001
  0
ARC
  5
172
  8
0
 62
     7
 10
51.679883000000011
 20
96.113224999999986
 30
0.0
 40
1.584104
 50
133.44172800000001
 51
147.27014
  0
ARC
  5
173
  8
0
 62
     7
 10
51.292068
 20
96.488510000000005
 30
0.0
 40
1.045215999999999
 50
126.11886199999999
 51
132.15178700000001
  0
ARC
  5
174
  8
0
 62
     7
 10
51.306128000000001
 20
96.466906000000009
 30
0.0
 40
1.070956
 50
121.277294
 51
126.045207
  0
ARC
  5
175
  8
0
 62
     7
 10
51.942174000000001
 20
95.403552000000005
 30
0.0
 40
2.310006
 50
114.916923
 51
121.06727600000001
  0
ARC
  5
176
  8
0
 62
     7
 10
41.650973
 20
124.811457
 30
0.0
 40
28.831157999999999
 50
289.12902500000001
 51
290.01706899999999
  0
ARC
  5
177
  8
0
 62
     7
 10
48.68345399999999
 20
105.379401
 30
0.0
 40
8.1658789999999986
 50
290.32535899999999
 51
292.35458299999999
  0
ARC
  5
178
  8
0
 62
     7
 10
49.073124
 20
104.427437
 30
0.0
 40
7.1372509999999991
 50
292.36808300000001
 51
294.207943
  0
ARC
  5
179
  8
0
 62
     7
 10
45.360222999999991
 20
112.650666
 30
0.0
 40
16.159835999999999
 50
294.25925000000001
 51
296.733879
  0
ARC
  5
17A
  8
0
 62
     7
 10
42.757874000000001
 20
109.69145899999999
 30
0.0
 40
12.895476
 50
252.384016
 51
253.63534999999999
  0
ARC
  5
17B
  8
0
 62
     7
 10
40.181649
 20
101.07170499999999
 30
0.0
 40
3.8993159999999998
 50
254.27076299999999
 51
257.72612900000001
  0
ARC
  5
17C
  8
0
 62
     7
 10
40.363634999999988
 20
101.965903
 30
0.0
 40
4.8117779999999986
 50
257.87219900000002
 51
264.4394759999999
  0
ARC
  5
17D
  8
0
 62
     7
 10
40.676451
 20
104.58716200000001
 30
0.0
 40
7.4512349999999996
 50
263.99847599999998
 51
269.31557600000002
  0
ARC
  5
17E
  8
0
 62
     7
 10
40.837284999999987
 20
112.42051499999999
 30
0.0
 40
15.286098000000001
 50
269.06350600000002
 51
270.37035500000002
  0
ARC
  5
17F
  8
0
 62
     7
 10
40.767276000000003
 20
118.829905
 30
0.0
 40
21.695824999999999
 50
270.44582600000001
 51
272.85025899999999
  0
ARC
  5
180
  8
0
 62
     7
 10
32.371728000000012
 20
319.73945500000002
 30
0.0
 40
222.78009
 50
272.43741899999998
 51
272.69280800000001
  0
ARC
  5
181
  8
0
 62
     7
 10
45.67657899999999
 20
26.486597
 30
0.0
 40
70.775705000000002
 50
91.455433000000014
 51
92.29843799999999
  0
LINE
  5
182
  8
0
 62
     7
 10
40.6312
 20
92.639200000000002
 30
0.0
 11
40.6312
 21
92.638499999999993
 31
0.0
  0
LINE
  5
183
  8
0
 62
     7
 10
40.6312
 20
92.638499999999993
 30
0.0
 11
40.696800000000003
 21
92.512100000000004
 31
0.0
  0
LINE
  5
184
  8
0
 62
     7
 10
40.696800000000003
 20
92.512100000000004
 30
0.0
 11
40.889800000000001
 21
92.389799999999994
 31
0.0
  0
LINE
  5
185
  8
0
 62
     7
 10
40.889800000000001
 20
92.389799999999994
 30
0.0
 11
41.204300000000003
 21
92.275400000000005
 31
0.0
  0
LINE
  5
186
  8
0
 62
     7
 10
41.204300000000003
 20
92.275400000000005
 30
0.0
 11
41.630299999999998
 21
92.172000000000011
 31
0.0
  0
LINE
  5
187
  8
0
 62
     7
 10
41.630299999999998
 20
92.172000000000011
 30
0.0
 11
42.154499999999992
 21
92.083899999999986
 31
0.0
  0
LINE
  5
188
  8
0
 62
     7
 10
42.154499999999992
 20
92.083899999999986
 30
0.0
 11
42.760100000000001
 21
92.012900000000002
 31
0.0
  0
LINE
  5
189
  8
0
 62
     7
 10
42.760100000000001
 20
92.012900000000002
 30
0.0
 11
43.428600000000003
 21
91.961899999999986
 31
0.0
  0
LINE
  5
18A
  8
0
 62
     7
 10
43.428600000000003
 20
91.961899999999986
 30
0.0
 11
44.138299999999987
 21
91.932299999999984
 31
0.0
  0
LINE
  5
18B
  8
0
 62
     7
 10
44.138299999999987
 20
91.932299999999984
 30
0.0
 11
44.867499999999993
 21
91.924700000000001
 31
0.0
  0
LINE
  5
18C
  8
0
 62
     7
 10
44.867499999999993
 20
91.924700000000001
 30
0.0
 11
45.592899999999993
 21
91.939499999999995
 31
0.0
  0
LINE
  5
18D
  8
0
 62
     7
 10
45.592899999999993
 20
91.939499999999995
 30
0.0
 11
46.291499999999999
 21
91.976399999999984
 31
0.0
  0
LINE
  5
18E
  8
0
 62
     7
 10
46.291499999999999
 20
91.976399999999984
 30
0.0
 11
46.941600000000001
 21
92.034199999999984
 31
0.0
  0
LINE
  5
18F
  8
0
 62
     7
 10
46.941600000000001
 20
92.034199999999984
 30
0.0
 11
47.522799999999989
 21
92.111099999999993
 31
0.0
  0
LINE
  5
190
  8
0
 62
     7
 10
47.870800000000003
 20
92.173400000000001
 30
0.0
 11
48.295499999999997
 21
92.276399999999995
 31
0.0
  0
LINE
  5
191
  8
0
 62
     7
 10
48.295499999999997
 20
92.276399999999995
 30
0.0
 11
48.608899999999998
 21
92.391199999999984
 31
0.0
  0
LINE
  5
192
  8
0
 62
     7
 10
48.608899999999998
 20
92.391199999999984
 30
0.0
 11
48.80040000000001
 21
92.513499999999993
 31
0.0
  0
LINE
  5
193
  8
0
 62
     7
 10
48.80040000000001
 20
92.513499999999993
 30
0.0
 11
48.864199999999997
 21
92.629199999999983
 31
0.0
  0
LINE
  5
194
  8
0
 62
     7
 10
49.000399999999999
 20
92.564099999999996
 30
0.0
 11
49.026400000000002
 21
92.439400000000006
 31
0.0
  0
LINE
  5
195
  8
0
 62
     7
 10
49.026400000000002
 20
92.439400000000006
 30
0.0
 11
48.930700000000002
 21
92.314699999999988
 31
0.0
  0
LINE
  5
196
  8
0
 62
     7
 10
48.930700000000002
 20
92.314699999999988
 30
0.0
 11
48.714799999999997
 21
92.194400000000002
 31
0.0
  0
LINE
  5
197
  8
0
 62
     7
 10
48.714799999999997
 20
92.194400000000002
 30
0.0
 11
48.385100000000001
 21
92.082099999999997
 31
0.0
  0
LINE
  5
198
  8
0
 62
     7
 10
48.385100000000001
 20
92.082099999999997
 30
0.0
 11
47.951199999999993
 21
91.981200000000015
 31
0.0
  0
LINE
  5
199
  8
0
 62
     7
 10
40.642599999999987
 20
92.262699999999995
 30
0.0
 11
40.49649999999999
 21
92.384299999999996
 31
0.0
  0
LINE
  5
19A
  8
0
 62
     7
 10
40.49649999999999
 20
92.384299999999996
 30
0.0
 11
40.4694
 21
92.510400000000004
 31
0.0
  0
LINE
  5
19B
  8
0
 62
     7
 10
40.4694
 20
92.510400000000004
 30
0.0
 11
40.56519999999999
 21
92.635099999999994
 31
0.0
  0
LINE
  5
19C
  8
0
 62
     7
 10
40.56519999999999
 20
92.635099999999994
 30
0.0
 11
40.781100000000002
 21
92.755600000000001
 31
0.0
  0
LINE
  5
19D
  8
0
 62
     7
 10
40.781100000000002
 20
92.755600000000001
 30
0.0
 11
41.110799999999998
 21
92.867999999999995
 31
0.0
  0
LINE
  5
19E
  8
0
 62
     7
 10
41.110799999999998
 20
92.867999999999995
 30
0.0
 11
41.544699999999992
 21
92.968599999999995
 31
0.0
  0
LINE
  5
19F
  8
0
 62
     7
 10
40.291899999999991
 20
92.584100000000007
 30
0.0
 11
40.2746
 21
92.560000000000002
 31
0.0
  0
LINE
  5
1A0
  8
0
 62
     7
 10
40.2746
 20
92.560000000000002
 30
0.0
 11
40.255000000000003
 21
92.431099999999986
 31
0.0
  0
LINE
  5
1A1
  8
0
 62
     7
 10
40.255000000000003
 20
92.431099999999986
 30
0.0
 11
40.357999999999997
 21
92.302999999999983
 31
0.0
  0
LINE
  5
1A2
  8
0
 62
     7
 10
40.357999999999997
 20
92.302999999999983
 30
0.0
 11
40.390000000000001
 21
92.280199999999994
 31
0.0
  0
LINE
  5
1A3
  8
0
 62
     7
 10
47.977200000000003
 20
91.930899999999994
 30
0.0
 11
48.448999999999991
 21
92.030500000000004
 31
0.0
  0
LINE
  5
1A4
  8
0
 62
     7
 10
48.448999999999991
 20
92.030500000000004
 30
0.0
 11
48.819899999999997
 21
92.142399999999995
 31
0.0
  0
LINE
  5
1A5
  8
0
 62
     7
 10
48.819899999999997
 20
92.142399999999995
 30
0.0
 11
49.079700000000003
 21
92.263300000000001
 31
0.0
  0
LINE
  5
1A6
  8
0
 62
     7
 10
49.079700000000003
 20
92.263300000000001
 30
0.0
 11
49.221299999999999
 21
92.389799999999994
 31
0.0
  0
LINE
  5
1A7
  8
0
 62
     7
 10
49.221299999999999
 20
92.389799999999994
 30
0.0
 11
49.240699999999997
 21
92.518999999999991
 31
0.0
  0
LINE
  5
1A8
  8
0
 62
     7
 10
49.240699999999997
 20
92.518999999999991
 30
0.0
 11
49.146700000000003
 21
92.639899999999983
 31
0.0
  0
LINE
  5
1A9
  8
0
 62
     7
 10
37.051000000000002
 20
86.509699999999995
 30
0.0
 11
36.254899999999999
 21
86.5792
 31
0.0
  0
ARC
  5
1AA
  8
0
 62
     7
 10
36.414576000000011
 20
88.405614999999983
 30
0.0
 40
1.8333489999999999
 50
106.339237
 51
196.342029
  0
ARC
  5
1AB
  8
0
 62
     7
 10
36.450786999999998
 20
88.449821000000014
 30
0.0
 40
1.8808109999999989
 50
197.32395399999999
 51
264.02069499999999
  0
ARC
  5
1AC
  8
0
 62
     7
 10
36.455034000000012
 20
88.386382999999995
 30
0.0
 40
0.8655419999999999
 50
111.628454
 51
197.42901800000001
  0
ARC
  5
1AD
  8
0
 62
     7
 10
36.434055999999998
 20
88.446629999999999
 30
0.0
 40
0.865923
 50
201.65193300000001
 51
287.40555899999998
  0
ARC
  5
1AE
  8
0
 62
     7
 10
36.426212
 20
88.379707999999994
 30
0.0
 40
0.8048819999999999
 50
289.36382099999997
 51
294.899204
  0
LINE
  5
1AF
  8
0
 62
     7
 10
52.44469999999999
 20
86.509699999999995
 30
0.0
 11
53.241000000000007
 21
86.5792
 31
0.0
  0
ARC
  5
1B0
  8
0
 62
     7
 10
53.065733000000002
 20
88.448243999999974
 30
0.0
 40
0.865999
 50
247.246498
 51
333.00306
  0
ARC
  5
1B1
  8
0
 62
     7
 10
53.038815999999997
 20
88.39003000000001
 30
0.0
 40
0.8659309999999999
 50
337.24751099999997
 51
63.017754000000011
  0
ARC
  5
1B2
  8
0
 62
     7
 10
53.108646999999991
 20
88.470531999999992
 30
0.0
 40
0.762942
 50
64.948522999999994
 51
70.788452000000007
  0
ARC
  5
1B3
  8
0
 62
     7
 10
53.005305999999997
 20
88.469307999999998
 30
0.0
 40
1.904706999999999
 50
277.10860700000001
 51
2.8903449999999991
  0
ARC
  5
1B4
  8
0
 62
     7
 10
53.037345000000002
 20
88.369702000000004
 30
0.0
 40
1.880450999999999
 50
5.9720969999999989
 51
72.683273
  0
LINE
  5
1B5
  8
0
 62
     7
 10
51.995899999999999
 20
86.470399999999998
 30
0.0
 11
52.44469999999999
 21
86.509699999999995
 31
0.0
  0
ARC
  5
1B6
  8
0
 62
     7
 10
53.080083000000002
 20
88.40085400000001
 30
0.0
 40
1.995091999999999
 50
241.38051100000001
 51
251.42868300000001
  0
ARC
  5
1B7
  8
0
 62
     7
 10
36.418682000000011
 20
88.395026000000016
 30
0.0
 40
1.9885939999999991
 50
288.541293
 51
298.62695300000001
  0
LINE
  5
1B8
  8
0
 62
     7
 10
37.4998
 20
86.470399999999998
 30
0.0
 11
37.051000000000002
 21
86.509699999999995
 31
0.0
  0
LINE
  5
1B9
  8
0
 62
     7
 10
35.747900000000001
 20
95.993700000000004
 30
0.0
 11
35.747900000000001
 21
91.805800000000005
 31
0.0
  0
ARC
  5
1BA
  8
0
 62
     7
 10
44.747937999999991
 20
91.805828000000005
 30
0.0
 40
9.0000229999999988
 50
179.99996999999999
 51
270.00002000000001
  0
ARC
  5
1BB
  8
0
 62
     7
 10
44.747937999999991
 20
91.805831000000012
 30
0.0
 40
9.0000260000000001
 50
270.00002000000001
 51
359.99999000000003
  0
LINE
  5
1BC
  8
0
 62
     7
 10
53.747999999999998
 20
95.993700000000004
 30
0.0
 11
53.747999999999998
 21
91.805800000000005
 31
0.0
  0
LINE
  5
1BD
  8
0
 62
     7
 10
35.747900000000001
 20
98.882099999999994
 30
0.0
 11
35.747900000000001
 21
98.813900000000004
 31
0.0
  0
LINE
  5
1BE
  8
0
 62
     7
 10
35.747900000000001
 20
98.813900000000004
 30
0.0
 11
35.747900000000001
 21
98.354299999999995
 31
0.0
  0
LINE
  5
1BF
  8
0
 62
     7
 10
35.747900000000001
 20
98.354299999999995
 30
0.0
 11
35.747900000000001
 21
97.644999999999996
 31
0.0
  0
LINE
  5
1C0
  8
0
 62
     7
 10
35.747900000000001
 20
97.644999999999996
 30
0.0
 11
35.747900000000001
 21
96.709999999999994
 31
0.0
  0
LINE
  5
1C1
  8
0
 62
     7
 10
35.747900000000001
 20
96.709999999999994
 30
0.0
 11
35.747900000000001
 21
95.993700000000004
 31
0.0
  0
LINE
  5
1C2
  8
0
 62
     7
 10
53.747999999999998
 20
98.882099999999994
 30
0.0
 11
53.747999999999998
 21
98.813900000000004
 31
0.0
  0
LINE
  5
1C3
  8
0
 62
     7
 10
53.747999999999998
 20
98.813900000000004
 30
0.0
 11
53.747999999999998
 21
98.354299999999995
 31
0.0
  0
LINE
  5
1C4
  8
0
 62
     7
 10
53.747999999999998
 20
98.354299999999995
 30
0.0
 11
53.747999999999998
 21
97.644999999999996
 31
0.0
  0
LINE
  5
1C5
  8
0
 62
     7
 10
53.747999999999998
 20
97.644999999999996
 30
0.0
 11
53.747999999999998
 21
96.709999999999994
 31
0.0
  0
LINE
  5
1C6
  8
0
 62
     7
 10
53.747999999999998
 20
96.709999999999994
 30
0.0
 11
53.747999999999998
 21
95.993700000000004
 31
0.0
  0
ARC
  5
1C7
  8
0
 62
     7
 10
51.985661999999998
 20
96.143454000000006
 30
0.0
 40
1.680715999999999
 50
161.433459
 51
178.022346
  0
ARC
  5
1C8
  8
0
 62
     7
 10
51.984828999999998
 20
96.139031000000017
 30
0.0
 40
1.6813409999999991
 50
144.71374800000001
 51
161.28152700000001
  0
ARC
  5
1C9
  8
0
 62
     7
 10
51.960075000000003
 20
96.151789000000008
 30
0.0
 40
1.6537689999999989
 50
127.75792
 51
144.579151
  0
ARC
  5
1CA
  8
0
 62
     7
 10
51.964018000000003
 20
96.142469999999975
 30
0.0
 40
1.6635529999999989
 50
110.95999
 51
127.66874300000001
  0
ARC
  5
1CB
  8
0
 62
     7
 10
31.703938999999998
 20
95.331443000000007
 30
0.0
 40
7.5362070000000001
 50
6.6292429999999989
 51
8.4262070000000016
  0
ARC
  5
1CC
  8
0
 62
     7
 10
37.376815999999998
 20
96.156192000000004
 30
0.0
 40
1.803777999999999
 50
8.9164119999999993
 51
16.835243999999999
  0
ARC
  5
1CD
  8
0
 62
     7
 10
37.690269999999998
 20
96.230218999999991
 30
0.0
 40
1.4824520000000001
 50
17.605488000000001
 51
36.399892999999999
  0
ARC
  5
1CE
  8
0
 62
     7
 10
37.396667999999998
 20
96.069893999999991
 30
0.0
 40
1.8144739999999999
 50
34.972965000000002
 51
43.169750999999991
  0
ARC
  5
1CF
  8
0
 62
     7
 10
37.888454000000003
 20
96.517772999999991
 30
0.0
 40
1.1494189999999991
 50
43.658786000000013
 51
54.935397000000002
  0
ARC
  5
1D0
  8
0
 62
     7
 10
37.933708000000003
 20
96.575587999999996
 30
0.0
 40
1.076104999999999
 50
55.139092000000012
 51
59.950456000000003
  0
ARC
  5
1D1
  8
0
 62
     7
 10
37.134312000000001
 20
95.184031999999988
 30
0.0
 40
2.6809270000000001
 50
60.054501000000002
 51
64.033271999999997
  0
LINE
  5
1D2
  8
0
 62
     7
 10
44.747900000000001
 20
93.299999999999997
 30
0.0
 11
45.490900000000003
 21
93.289599999999993
 31
0.0
  0
LINE
  5
1D3
  8
0
 62
     7
 10
45.490900000000003
 20
93.289599999999993
 30
0.0
 11
46.215699999999998
 21
93.259299999999996
 31
0.0
  0
LINE
  5
1D4
  8
0
 62
     7
 10
46.215699999999998
 20
93.259299999999996
 30
0.0
 11
46.904400000000003
 21
93.209699999999998
 31
0.0
  0
LINE
  5
1D5
  8
0
 62
     7
 10
46.904400000000003
 20
93.209699999999998
 30
0.0
 11
47.539900000000003
 21
93.142200000000003
 31
0.0
  0
LINE
  5
1D6
  8
0
 62
     7
 10
47.539900000000003
 20
93.142200000000003
 30
0.0
 11
48.1066
 21
93.058099999999996
 31
0.0
  0
LINE
  5
1D7
  8
0
 62
     7
 10
48.1066
 20
93.058099999999996
 30
0.0
 11
48.590800000000002
 21
92.959599999999995
 31
0.0
  0
LINE
  5
1D8
  8
0
 62
     7
 10
48.590800000000002
 20
92.959599999999995
 30
0.0
 11
48.9803
 21
92.849400000000003
 31
0.0
  0
LINE
  5
1D9
  8
0
 62
     7
 10
48.9803
 20
92.849400000000003
 30
0.0
 11
49.265500000000003
 21
92.729799999999997
 31
0.0
  0
LINE
  5
1DA
  8
0
 62
     7
 10
49.265500000000003
 20
92.729799999999997
 30
0.0
 11
49.439500000000002
 21
92.604100000000003
 31
0.0
  0
LINE
  5
1DB
  8
0
 62
     7
 10
49.439500000000002
 20
92.604100000000003
 30
0.0
 11
49.497900000000001
 21
92.474900000000005
 31
0.0
  0
LINE
  5
1DC
  8
0
 62
     7
 10
49.497900000000001
 20
92.474900000000005
 30
0.0
 11
49.439500000000002
 21
92.346000000000004
 31
0.0
  0
LINE
  5
1DD
  8
0
 62
     7
 10
49.439500000000002
 20
92.346000000000004
 30
0.0
 11
49.265500000000003
 21
92.219899999999996
 31
0.0
  0
LINE
  5
1DE
  8
0
 62
     7
 10
49.265500000000003
 20
92.219899999999996
 30
0.0
 11
48.9803
 21
92.100399999999993
 31
0.0
  0
LINE
  5
1DF
  8
0
 62
     7
 10
48.9803
 20
92.100399999999993
 30
0.0
 11
48.590800000000002
 21
91.990099999999984
 31
0.0
  0
LINE
  5
1E0
  8
0
 62
     7
 10
48.590800000000002
 20
91.990099999999984
 30
0.0
 11
48.1066
 21
91.891599999999997
 31
0.0
  0
LINE
  5
1E1
  8
0
 62
     7
 10
48.1066
 20
91.891599999999997
 30
0.0
 11
47.539900000000003
 21
91.807599999999994
 31
0.0
  0
LINE
  5
1E2
  8
0
 62
     7
 10
47.539900000000003
 20
91.807599999999994
 30
0.0
 11
46.904400000000003
 21
91.739999999999995
 31
0.0
  0
LINE
  5
1E3
  8
0
 62
     7
 10
46.904400000000003
 20
91.739999999999995
 30
0.0
 11
46.215699999999998
 21
91.690399999999997
 31
0.0
  0
LINE
  5
1E4
  8
0
 62
     7
 10
46.215699999999998
 20
91.690399999999997
 30
0.0
 11
45.490900000000003
 21
91.660099999999986
 31
0.0
  0
LINE
  5
1E5
  8
0
 62
     7
 10
45.490900000000003
 20
91.660099999999986
 30
0.0
 11
44.747900000000001
 21
91.650099999999995
 31
0.0
  0
LINE
  5
1E6
  8
0
 62
     7
 10
44.747900000000001
 20
91.650099999999995
 30
0.0
 11
44.004800000000003
 21
91.660099999999986
 31
0.0
  0
LINE
  5
1E7
  8
0
 62
     7
 10
44.004800000000003
 20
91.660099999999986
 30
0.0
 11
43.28009999999999
 21
91.690399999999997
 31
0.0
  0
LINE
  5
1E8
  8
0
 62
     7
 10
43.28009999999999
 20
91.690399999999997
 30
0.0
 11
42.591500000000003
 21
91.739999999999995
 31
0.0
  0
LINE
  5
1E9
  8
0
 62
     7
 10
42.591500000000003
 20
91.739999999999995
 30
0.0
 11
41.956000000000003
 21
91.807599999999994
 31
0.0
  0
LINE
  5
1EA
  8
0
 62
     7
 10
41.956000000000003
 20
91.807599999999994
 30
0.0
 11
41.389099999999999
 21
91.891599999999997
 31
0.0
  0
LINE
  5
1EB
  8
0
 62
     7
 10
41.389099999999999
 20
91.891599999999997
 30
0.0
 11
40.905099999999997
 21
91.990099999999984
 31
0.0
  0
LINE
  5
1EC
  8
0
 62
     7
 10
40.905099999999997
 20
91.990099999999984
 30
0.0
 11
40.515599999999999
 21
92.100399999999993
 31
0.0
  0
LINE
  5
1ED
  8
0
 62
     7
 10
40.515599999999999
 20
92.100399999999993
 30
0.0
 11
40.230400000000003
 21
92.219899999999996
 31
0.0
  0
LINE
  5
1EE
  8
0
 62
     7
 10
40.230400000000003
 20
92.219899999999996
 30
0.0
 11
40.056399999999989
 21
92.346000000000004
 31
0.0
  0
LINE
  5
1EF
  8
0
 62
     7
 10
40.056399999999989
 20
92.346000000000004
 30
0.0
 11
39.997999999999998
 21
92.474900000000005
 31
0.0
  0
LINE
  5
1F0
  8
0
 62
     7
 10
39.997999999999998
 20
92.474900000000005
 30
0.0
 11
40.056399999999989
 21
92.604100000000003
 31
0.0
  0
LINE
  5
1F1
  8
0
 62
     7
 10
40.056399999999989
 20
92.604100000000003
 30
0.0
 11
40.230400000000003
 21
92.729799999999997
 31
0.0
  0
LINE
  5
1F2
  8
0
 62
     7
 10
40.230400000000003
 20
92.729799999999997
 30
0.0
 11
40.515599999999999
 21
92.849400000000003
 31
0.0
  0
LINE
  5
1F3
  8
0
 62
     7
 10
40.515599999999999
 20
92.849400000000003
 30
0.0
 11
40.905099999999997
 21
92.959599999999995
 31
0.0
  0
LINE
  5
1F4
  8
0
 62
     7
 10
40.905099999999997
 20
92.959599999999995
 30
0.0
 11
41.389099999999999
 21
93.058099999999996
 31
0.0
  0
LINE
  5
1F5
  8
0
 62
     7
 10
41.389099999999999
 20
93.058099999999996
 30
0.0
 11
41.956000000000003
 21
93.142200000000003
 31
0.0
  0
LINE
  5
1F6
  8
0
 62
     7
 10
41.956000000000003
 20
93.142200000000003
 30
0.0
 11
42.591500000000003
 21
93.209699999999998
 31
0.0
  0
LINE
  5
1F7
  8
0
 62
     7
 10
42.591500000000003
 20
93.209699999999998
 30
0.0
 11
43.28009999999999
 21
93.259299999999996
 31
0.0
  0
LINE
  5
1F8
  8
0
 62
     7
 10
43.28009999999999
 20
93.259299999999996
 30
0.0
 11
44.004800000000003
 21
93.289599999999993
 31
0.0
  0
LINE
  5
1F9
  8
0
 62
     7
 10
44.004800000000003
 20
93.289599999999993
 30
0.0
 11
44.747900000000001
 21
93.299999999999997
 31
0.0
  0
LINE
  5
1FA
  8
0
 62
     7
 10
49.915100000000002
 20
92.609899999999996
 30
0.0
 11
49.842100000000002
 21
92.6768
 31
0.0
  0
LINE
  5
1FB
  8
0
 62
     7
 10
49.842100000000002
 20
92.6768
 30
0.0
 11
49.611899999999999
 21
92.806600000000003
 31
0.0
  0
LINE
  5
1FC
  8
0
 62
     7
 10
49.611899999999999
 20
92.806600000000003
 30
0.0
 11
49.273099999999999
 21
92.928600000000003
 31
0.0
  0
LINE
  5
1FD
  8
0
 62
     7
 10
49.273099999999999
 20
92.928600000000003
 30
0.0
 11
48.833199999999998
 21
93.040599999999984
 31
0.0
  0
LINE
  5
1FE
  8
0
 62
     7
 10
48.833199999999998
 20
93.040599999999984
 30
0.0
 11
48.301900000000003
 21
93.140100000000004
 31
0.0
  0
LINE
  5
1FF
  8
0
 62
     7
 10
48.301900000000003
 20
93.140100000000004
 30
0.0
 11
47.691400000000002
 21
93.224500000000006
 31
0.0
  0
LINE
  5
200
  8
0
 62
     7
 10
47.691400000000002
 20
93.224500000000006
 30
0.0
 11
47.015000000000001
 21
93.292400000000001
 31
0.0
  0
LINE
  5
201
  8
0
 62
     7
 10
47.015000000000001
 20
93.292400000000001
 30
0.0
 11
46.2881
 21
93.341999999999999
 31
0.0
  0
LINE
  5
202
  8
0
 62
     7
 10
46.2881
 20
93.341999999999999
 30
0.0
 11
45.526699999999991
 21
93.372299999999996
 31
0.0
  0
LINE
  5
203
  8
0
 62
     7
 10
45.526699999999991
 20
93.372299999999996
 30
0.0
 11
44.747900000000001
 21
93.382300000000015
 31
0.0
  0
LINE
  5
204
  8
0
 62
     7
 10
39.646099999999997
 20
92.278800000000004
 30
0.0
 11
39.653599999999997
 21
92.272999999999996
 31
0.0
  0
LINE
  5
205
  8
0
 62
     7
 10
39.653599999999997
 20
92.272999999999996
 30
0.0
 11
39.884
 21
92.143500000000003
 31
0.0
  0
LINE
  5
206
  8
0
 62
     7
 10
39.884
 20
92.143500000000003
 30
0.0
 11
40.222799999999999
 21
92.021100000000004
 31
0.0
  0
LINE
  5
207
  8
0
 62
     7
 10
40.222799999999999
 20
92.021100000000004
 30
0.0
 11
40.662700000000001
 21
91.909199999999998
 31
0.0
  0
LINE
  5
208
  8
0
 62
     7
 10
40.662700000000001
 20
91.909199999999998
 30
0.0
 11
41.193999999999988
 21
91.809600000000003
 31
0.0
  0
LINE
  5
209
  8
0
 62
     7
 10
41.193999999999988
 20
91.809600000000003
 30
0.0
 11
41.804399999999987
 21
91.725200000000001
 31
0.0
  0
LINE
  5
20A
  8
0
 62
     7
 10
41.804399999999987
 20
91.725200000000001
 30
0.0
 11
42.480899999999998
 21
91.657300000000006
 31
0.0
  0
LINE
  5
20B
  8
0
 62
     7
 10
42.480899999999998
 20
91.657300000000006
 30
0.0
 11
43.207799999999999
 21
91.607699999999994
 31
0.0
  0
LINE
  5
20C
  8
0
 62
     7
 10
43.207799999999999
 20
91.607699999999994
 30
0.0
 11
43.969200000000001
 21
91.577799999999996
 31
0.0
  0
LINE
  5
20D
  8
0
 62
     7
 10
43.969200000000001
 20
91.577799999999996
 30
0.0
 11
44.747900000000001
 21
91.567800000000005
 31
0.0
  0
LINE
  5
20E
  8
0
 62
     7
 10
44.747900000000001
 20
91.567800000000005
 30
0.0
 11
45.526699999999991
 21
91.577799999999996
 31
0.0
  0
LINE
  5
20F
  8
0
 62
     7
 10
45.526699999999991
 20
91.577799999999996
 30
0.0
 11
46.2881
 21
91.607699999999994
 31
0.0
  0
LINE
  5
210
  8
0
 62
     7
 10
46.2881
 20
91.607699999999994
 30
0.0
 11
47.015000000000001
 21
91.657300000000006
 31
0.0
  0
LINE
  5
211
  8
0
 62
     7
 10
47.015000000000001
 20
91.657300000000006
 30
0.0
 11
47.691400000000002
 21
91.725200000000001
 31
0.0
  0
LINE
  5
212
  8
0
 62
     7
 10
47.691400000000002
 20
91.725200000000001
 30
0.0
 11
48.301900000000003
 21
91.809600000000003
 31
0.0
  0
LINE
  5
213
  8
0
 62
     7
 10
48.301900000000003
 20
91.809600000000003
 30
0.0
 11
48.833199999999998
 21
91.909199999999998
 31
0.0
  0
LINE
  5
214
  8
0
 62
     7
 10
48.833199999999998
 20
91.909199999999998
 30
0.0
 11
49.273099999999999
 21
92.021100000000004
 31
0.0
  0
LINE
  5
215
  8
0
 62
     7
 10
49.273099999999999
 20
92.021100000000004
 30
0.0
 11
49.611899999999999
 21
92.143500000000003
 31
0.0
  0
LINE
  5
216
  8
0
 62
     7
 10
49.611899999999999
 20
92.143500000000003
 30
0.0
 11
49.842100000000002
 21
92.272999999999996
 31
0.0
  0
LINE
  5
217
  8
0
 62
     7
 10
49.842100000000002
 20
92.272999999999996
 30
0.0
 11
49.8474
 21
92.277100000000004
 31
0.0
  0
LINE
  5
218
  8
0
 62
     7
 10
44.747900000000001
 20
93.382300000000015
 30
0.0
 11
43.969200000000001
 21
93.372299999999996
 31
0.0
  0
LINE
  5
219
  8
0
 62
     7
 10
43.969200000000001
 20
93.372299999999996
 30
0.0
 11
43.207799999999999
 21
93.341999999999999
 31
0.0
  0
LINE
  5
21A
  8
0
 62
     7
 10
43.207799999999999
 20
93.341999999999999
 30
0.0
 11
42.480899999999998
 21
93.292400000000001
 31
0.0
  0
LINE
  5
21B
  8
0
 62
     7
 10
42.480899999999998
 20
93.292400000000001
 30
0.0
 11
41.804399999999987
 21
93.224500000000006
 31
0.0
  0
LINE
  5
21C
  8
0
 62
     7
 10
41.804399999999987
 20
93.224500000000006
 30
0.0
 11
41.193999999999988
 21
93.140100000000004
 31
0.0
  0
LINE
  5
21D
  8
0
 62
     7
 10
41.193999999999988
 20
93.140100000000004
 30
0.0
 11
40.662700000000001
 21
93.040599999999984
 31
0.0
  0
LINE
  5
21E
  8
0
 62
     7
 10
40.662700000000001
 20
93.040599999999984
 30
0.0
 11
40.222799999999999
 21
92.928600000000003
 31
0.0
  0
LINE
  5
21F
  8
0
 62
     7
 10
40.222799999999999
 20
92.928600000000003
 30
0.0
 11
39.884
 21
92.806600000000003
 31
0.0
  0
LINE
  5
220
  8
0
 62
     7
 10
39.884
 20
92.806600000000003
 30
0.0
 11
39.653599999999997
 21
92.6768
 31
0.0
  0
LINE
  5
221
  8
0
 62
     7
 10
39.653599999999997
 20
92.6768
 30
0.0
 11
39.576999999999998
 21
92.605400000000003
 31
0.0
  0
LINE
  5
222
  8
0
 62
     7
 10
39.360100000000003
 20
92.595100000000002
 30
0.0
 11
39.356499999999997
 21
92.622000000000014
 31
0.0
  0
ARC
  5
223
  8
0
 62
     7
 10
41.145346000000004
 20
98.436870999999996
 30
0.0
 40
2.977584999999999
 50
231.58374499999999
 51
234.378289
  0
ARC
  5
224
  8
0
 62
     7
 10
39.816251999999999
 20
96.772518000000005
 30
0.0
 40
0.8477069999999999
 50
222.349952
 51
232.06962899999999
  0
ARC
  5
225
  8
0
 62
     7
 10
49.987687000000001
 20
96.468477000000021
 30
0.0
 40
0.41544
 50
312.281453
 51
320.00306699999999
  0
ARC
  5
226
  8
0
 62
     7
 10
49.187910999999993
 20
97.335761000000005
 30
0.0
 40
1.5951869999999999
 50
304.20253600000001
 51
312.57699700000001
  0
ARC
  5
227
  8
0
 62
     7
 10
45.248235999999999
 20
81.004384999999999
 30
0.0
 40
14.473974999999999
 50
89.199016000000015
 51
91.980830000000026
  0
ARC
  5
228
  8
0
 62
     7
 10
44.261791999999993
 20
82.430424999999985
 30
0.0
 40
13.048346
 50
87.864806999999999
 51
90.958192000000011
  0
ARC
  5
229
  8
0
 62
     7
 10
47.981763999999998
 20
98.99212
 30
0.0
 40
3.6436949999999988
 50
300.022582
 51
305.24794800000001
  0
ARC
  5
22A
  8
0
 62
     7
 10
48.084968000000003
 20
98.800666000000007
 30
0.0
 40
3.426296999999999
 50
293.10505000000001
 51
300.13019600000001
  0
ARC
  5
22B
  8
0
 62
     7
 10
48.129716999999999
 20
98.704429000000005
 30
0.0
 40
3.3202219999999998
 50
284.50506799999999
 51
293.04647899999998
  0
ARC
  5
22C
  8
0
 62
     7
 10
48.067110999999997
 20
98.916797000000003
 30
0.0
 40
3.5415089999999991
 50
280.12459699999999
 51
284.62509799999998
  0
ARC
  5
22D
  8
0
 62
     7
 10
47.928280999999998
 20
99.683754000000008
 30
0.0
 40
4.3209269999999993
 50
276.19543700000003
 51
280.14906500000001
  0
ARC
  5
22E
  8
0
 62
     7
 10
47.831485999999991
 20
100.66795399999999
 30
0.0
 40
5.3098349999999988
 50
269.09668699999997
 51
276.087692
  0
ARC
  5
22F
  8
0
 62
     7
 10
47.832059999999991
 20
105.996663
 30
0.0
 40
10.638218
 50
267.65002700000002
 51
269.54606000000001
  0
ARC
  5
230
  8
0
 62
     7
 10
48.035442000000003
 20
110.663901
 30
0.0
 40
15.309875
 50
266.21767199999999
 51
267.60572300000001
  0
ARC
  5
231
  8
0
 62
     7
 10
51.756346999999991
 20
169.23431099999999
 30
0.0
 40
73.998318000000012
 50
265.73647199999999
 51
266.33449200000001
  0
ARC
  5
232
  8
0
 62
     7
 10
44.943387000000001
 20
75.211399
 30
0.0
 40
20.271850000000001
 50
86.290278000000015
 51
88.571220999999994
  0
ARC
  5
233
  8
0
 62
     7
 10
37.726317000000002
 20
96.070481000000001
 30
0.0
 40
1.685829
 50
358.16341799999998
 51
15.347825
  0
ARC
  5
234
  8
0
 62
     7
 10
37.791839000000003
 20
96.088274999999996
 30
0.0
 40
1.6179339999999991
 50
15.354289
 51
33.010579999999997
  0
ARC
  5
235
  8
0
 62
     7
 10
37.833018000000003
 20
96.109728000000004
 30
0.0
 40
1.571720999999999
 50
33.172602000000012
 51
51.095460999999993
  0
ARC
  5
236
  8
0
 62
     7
 10
37.873680999999998
 20
96.152030000000011
 30
0.0
 40
1.513272999999999
 50
51.287684999999989
 51
69.766672999999983
  0
ARC
  5
237
  8
0
 62
     7
 10
44.277149999999999
 20
81.423653999999999
 30
0.0
 40
14.055206999999999
 50
90.945836999999983
 51
94.257059999999996
  0
ARC
  5
238
  8
0
 62
     7
 10
51.405273999999991
 20
-29.114581000000001
 30
0.0
 40
124.822423
 50
93.753526000000008
 51
94.108746999999994
  0
ARC
  5
239
  8
0
 62
     7
 10
41.208364000000003
 20
115.284319
 30
0.0
 40
19.936729
 50
272.58148699999998
 51
273.60449699999998
  0
ARC
  5
23A
  8
0
 62
     7
 10
41.682336999999997
 20
105.109076
 30
0.0
 40
9.750475999999999
 50
270.346993
 51
272.49217599999997
  0
ARC
  5
23B
  8
0
 62
     7
 10
41.711708000000002
 20
102.497934
 30
0.0
 40
7.1392169999999986
 50
267.53475800000001
 51
270.23818799999998
  0
ARC
  5
23C
  8
0
 62
     7
 10
41.644719000000002
 20
100.532431
 30
0.0
 40
5.172680999999999
 50
263.85816
 51
267.33963199999999
  0
ARC
  5
23D
  8
0
 62
     7
 10
41.529983999999999
 20
99.408585000000002
 30
0.0
 40
4.0430159999999997
 50
255.70647099999999
 51
263.77080100000001
  0
ARC
  5
23E
  8
0
 62
     7
 10
41.379128999999992
 20
98.736497000000014
 30
0.0
 40
3.3545470000000002
 50
246.86952500000001
 51
255.36919900000001
  0
ARC
  5
23F
  8
0
 62
     7
 10
41.386890999999991
 20
98.760754000000006
 30
0.0
 40
3.3799039999999998
 50
239.85377099999999
 51
246.91004899999999
  0
ARC
  5
240
  8
0
 62
     7
 10
41.482939000000002
 20
98.939856000000006
 30
0.0
 40
3.5830239999999991
 50
234.676875
 51
239.96393900000001
  0
LINE
  5
241
  8
0
 62
     7
 10
53.615299999999998
 20
98.727800000000002
 30
0.0
 11
53.615699999999997
 21
98.727800000000002
 31
0.0
  0
LINE
  5
242
  8
0
 62
     7
 10
35.880400000000002
 20
98.727800000000002
 30
0.0
 11
35.880200000000002
 21
98.727800000000002
 31
0.0
  0
ARC
  5
243
  8
0
 62
     7
 10
53.479671999999987
 20
98.959133999999992
 30
0.0
 40
0.268384
 50
300.44632899999999
 51
330.162126
  0
ARC
  5
244
  8
0
 62
     7
 10
53.481239000000002
 20
98.958530000000025
 30
0.0
 40
0.266725
 50
330.10736000000003
 51
359.93720200000001
  0
ARC
  5
245
  8
0
 62
     7
 10
36.015441000000003
 20
98.958743999999996
 30
0.0
 40
0.267527
 50
180.10857100000001
 51
209.84690699999999
  0
ARC
  5
246
  8
0
 62
     7
 10
36.015355999999997
 20
98.958293000000026
 30
0.0
 40
0.267228
 50
209.77212900000001
 51
239.61945600000001
  0
LINE
  5
247
  8
0
 62
     7
 10
45.614699999999992
 20
97.239500000000021
 30
0.0
 11
45.734599999999993
 21
97.236699999999999
 31
0.0
  0
LINE
  5
248
  8
0
 62
     7
 10
45.734599999999993
 20
97.236699999999999
 30
0.0
 11
45.854500000000002
 21
97.233999999999995
 31
0.0
  0
LINE
  5
249
  8
0
 62
     7
 10
45.854500000000002
 20
97.233999999999995
 30
0.0
 11
46.093600000000002
 21
97.226399999999998
 31
0.0
  0
ARC
  5
24A
  8
0
 62
     7
 10
44.456611999999993
 20
45.602682000000001
 30
0.0
 40
51.649642999999998
 50
87.657146999999995
 51
88.183746999999997
  0
ARC
  5
24B
  8
0
 62
     7
 10
38.655067000000003
 20
-89.649593000000024
 30
0.0
 40
187.02621400000001
 50
87.290037999999996
 51
87.575128000000007
  0
ARC
  5
24C
  8
0
 62
     7
 10
49.978935999999997
 20
152.04696300000001
 30
0.0
 40
54.935563000000002
 50
267.411249
 51
267.88396599999999
  0
ARC
  5
24D
  8
0
 62
     7
 10
49.119633
 20
131.480344
 30
0.0
 40
34.351382999999998
 50
268.04963199999997
 51
268.77566300000001
  0
ARC
  5
24E
  8
0
 62
     7
 10
48.624006000000001
 20
111.617614
 30
0.0
 40
14.482772000000001
 50
269.05695500000002
 51
272.2250160000001
  0
ARC
  5
24F
  8
0
 62
     7
 10
48.724856000000003
 20
106.139026
 30
0.0
 40
9.0050939999999997
 50
272.93717600000002
 51
275.21838600000001
  0
ARC
  5
250
  8
0
 62
     7
 10
48.965719999999997
 20
103.12315599999999
 30
0.0
 40
5.9799160000000002
 50
275.54830299999998
 51
278.62550599999997
  0
ARC
  5
251
  8
0
 62
     7
 10
49.123595000000002
 20
102.074133
 30
0.0
 40
4.9190809999999994
 50
278.63993199999999
 51
284.91460699999999
  0
ARC
  5
252
  8
0
 62
     7
 10
49.148608000000003
 20
101.903319
 30
0.0
 40
4.7476250000000002
 50
285.153479
 51
290.314772
  0
ARC
  5
253
  8
0
 62
     7
 10
48.943983000000003
 20
102.501396
 30
0.0
 40
5.3795659999999996
 50
290.14711699999998
 51
293.61341700000003
  0
LINE
  5
254
  8
0
 62
     7
 10
36.866
 20
98.218599999999995
 30
0.0
 11
36.447600000000001
 21
98.413200000000003
 31
0.0
  0
ARC
  5
255
  8
0
 62
     7
 10
45.412393999999999
 20
74.03935899999999
 30
0.0
 40
23.202045999999999
 50
89.494373999999979
 51
91.641039000000006
  0
ARC
  5
256
  8
0
 62
     7
 10
44.096386000000003
 20
74.488290000000006
 30
0.0
 40
22.752929999999999
 50
88.359045000000009
 51
90.553719000000001
  0
ARC
  5
257
  8
0
 62
     7
 10
51.908165999999987
 20
100.485874
 30
0.0
 40
2.3656079999999999
 50
287.65310599999998
 51
298.81730399999998
  0
ARC
  5
258
  8
0
 62
     7
 10
46.973714999999999
 20
109.91636
 30
0.0
 40
13.008629000000001
 50
297.83818500000001
 51
298.493967
  0
ARC
  5
259
  8
0
 62
     7
 10
44.420805999999992
 20
114.67929100000001
 30
0.0
 40
18.412541999999998
 50
298.405081
 51
299.18187699999999
  0
ARC
  5
25A
  8
0
 62
     7
 10
42.924453999999997
 20
117.200013
 30
0.0
 40
21.343062
 50
299.38957299999998
 51
300.06105000000002
  0
ARC
  5
25B
  8
0
 62
     7
 10
53.595047999999991
 20
98.763574000000006
 30
0.0
 40
0.041329
 50
270.41167899999999
 51
299.934169
  0
ARC
  5
25C
  8
0
 62
     7
 10
53.598568999999998
 20
98.745604
 30
0.0
 40
0.023579
 50
222.00241299999999
 51
262.139655
  0
ARC
  5
25D
  8
0
 62
     7
 10
35.899704999999997
 20
98.759423999999996
 30
0.0
 40
0.037186
 50
238.37724600000001
 51
271.27694700000012
  0
ARC
  5
25E
  8
0
 62
     7
 10
35.896363000000001
 20
98.747388000000015
 30
0.0
 40
0.025485
 50
279.41828700000002
 51
316.439684
  0
LINE
  5
25F
  8
0
 62
     7
 10
53.747999999999998
 20
102.539
 30
0.0
 11
53.747999999999998
 21
98.975800000000007
 31
0.0
  0
ARC
  5
260
  8
0
 62
     7
 10
36.024765000000002
 20
102.52889399999999
 30
0.0
 40
0.277038
 50
92.109700000000004
 51
177.89027100000001
  0
LINE
  5
261
  8
0
 62
     7
 10
36.581299999999999
 20
102.806
 30
0.0
 11
36.014600000000002
 21
102.806
 31
0.0
  0
LINE
  5
262
  8
0
 62
     7
 10
35.747900000000001
 20
102.539
 30
0.0
 11
35.747900000000001
 21
98.975800000000007
 31
0.0
  0
ARC
  5
263
  8
0
 62
     7
 10
53.471113000000003
 20
102.528893
 30
0.0
 40
0.277039
 50
2.109726999999999
 51
87.890263000000004
  0
LINE
  5
264
  8
0
 62
     7
 10
52.9146
 20
102.806
 30
0.0
 11
53.481299999999997
 21
102.806
 31
0.0
  0
LINE
  5
265
  8
0
 62
     7
 10
36.581299999999999
 20
102.806
 30
0.0
 11
52.9146
 21
102.806
 31
0.0
  0
ARC
  5
266
  8
0
 62
     7
 10
53.475168999999987
 20
98.981294999999989
 30
0.0
 40
0.2728489999999999
 50
292.832987
 51
358.84763099999998
  0
ARC
  5
267
  8
0
 62
     7
 10
53.565207999999998
 20
98.711251000000004
 30
0.0
 40
0.024412
 50
49.544716999999999
 51
84.856660000000005
  0
ARC
  5
268
  8
0
 62
     7
 10
53.510961000000002
 20
98.422095999999996
 30
0.0
 40
0.318508
 50
79.794093000000004
 51
88.578362999999996
  0
ARC
  5
269
  8
0
 62
     7
 10
53.419826999999998
 20
96.779227000000006
 30
0.0
 40
1.9637779999999989
 50
87.109243000000006
 51
91.201549000000014
  0
ARC
  5
26A
  8
0
 62
     7
 10
53.376936000000001
 20
94.633745999999988
 30
0.0
 40
4.108827999999999
 50
89.976135999999997
 51
91.285351000000006
  0
ARC
  5
26B
  8
0
 62
     7
 10
53.341479999999997
 20
93.078617000000008
 30
0.0
 40
5.6632059999999989
 50
90.573770999999979
 51
91.65100799999999
  0
ARC
  5
26C
  8
0
 62
     7
 10
53.325583999999992
 20
93.366724000000005
 30
0.0
 40
5.3747660000000002
 50
91.570111999999995
 51
94.096441999999996
  0
ARC
  5
26D
  8
0
 62
     7
 10
36.019942
 20
98.980774999999994
 30
0.0
 40
0.272073
 50
181.04614699999999
 51
247.27327500000001
  0
ARC
  5
26E
  8
0
 62
     7
 10
35.934634000000003
 20
98.703496999999999
 30
0.0
 40
0.032945
 50
94.017443
 51
126.94772
  0
ARC
  5
26F
  8
0
 62
     7
 10
35.992401000000001
 20
98.332272000000003
 30
0.0
 40
0.408531
 50
92.182513999999969
 51
98.456140999999974
  0
LINE
  5
270
  8
0
 62
     7
 10
35.976799999999997
 20
98.740499999999997
 30
0.0
 11
36.117100000000001
 21
98.742599999999996
 31
0.0
  0
LINE
  5
271
  8
0
 62
     7
 10
36.117100000000001
 20
98.742599999999996
 30
0.0
 11
36.211100000000002
 21
98.741500000000002
 31
0.0
  0
LINE
  5
272
  8
0
 62
     7
 10
36.211100000000002
 20
98.741500000000002
 30
0.0
 11
36.317599999999999
 21
98.739500000000007
 31
0.0
  0
ARC
  5
273
  8
0
 62
     7
 10
36.205128000000002
 20
94.075704999999999
 30
0.0
 40
4.6651220000000002
 50
85.710346999999999
 51
88.618938999999997
  0
ARC
  5
274
  8
0
 62
     7
 10
52.721094999999998
 20
101.784198
 30
0.0
 40
3.0643859999999998
 50
270.88670200000001
 51
274.12705999999997
  0
ARC
  5
275
  8
0
 62
     7
 10
52.745952000000003
 20
100.493101
 30
0.0
 40
1.7730649999999999
 50
265.15144099999998
 51
270.72917899999999
  0
ARC
  5
276
  8
0
 62
     7
 10
36.763857000000002
 20
101.53939800000001
 30
0.0
 40
2.819453999999999
 50
265.73290900000001
 51
269.25834700000001
  0
ARC
  5
277
  8
0
 62
     7
 10
36.760409000000003
 20
100.201606
 30
0.0
 40
1.4817949999999991
 50
268.72207400000002
 51
275.39734499999997
  0
LINE
  5
278
  8
0
 62
     7
 10
36.899999999999999
 20
98.726399999999998
 30
0.0
 11
37.433300000000003
 21
98.726399999999998
 31
0.0
  0
LINE
  5
279
  8
0
 62
     7
 10
37.433300000000003
 20
98.726399999999998
 30
0.0
 11
39.566499999999998
 21
98.725700000000003
 31
0.0
  0
LINE
  5
27A
  8
0
 62
     7
 10
39.566499999999998
 20
98.725700000000003
 30
0.0
 11
44.747900000000001
 21
98.724699999999984
 31
0.0
  0
LINE
  5
27B
  8
0
 62
     7
 10
52.5959
 20
98.726399999999998
 30
0.0
 11
52.062600000000003
 21
98.726399999999998
 31
0.0
  0
LINE
  5
27C
  8
0
 62
     7
 10
52.062600000000003
 20
98.726399999999998
 30
0.0
 11
49.929200000000002
 21
98.725700000000003
 31
0.0
  0
LINE
  5
27D
  8
0
 62
     7
 10
49.929200000000002
 20
98.725700000000003
 30
0.0
 11
44.747900000000001
 21
98.724699999999984
 31
0.0
  0
ARC
  5
27E
  8
0
 62
     7
 10
48.008676000000001
 20
92.140814000000006
 30
0.0
 40
0.4867770000000001
 50
183.50357
 51
190.04078899999999
  0
ARC
  5
27F
  8
0
 62
     7
 10
47.697814999999999
 20
92.094056000000009
 30
0.0
 40
0.172718
 50
192.74763200000001
 51
211.05532400000001
  0
ARC
  5
280
  8
0
 62
     7
 10
47.677487999999997
 20
92.081761000000014
 30
0.0
 40
0.148962
 50
211.03738300000001
 51
231.192016
  0
ARC
  5
281
  8
0
 62
     7
 10
47.669347999999999
 20
92.074927000000017
 30
0.0
 40
0.13855
 50
232.04411200000001
 51
252.28780599999999
  0
ARC
  5
282
  8
0
 62
     7
 10
47.681641999999997
 20
92.108728999999997
 30
0.0
 40
0.174496
 50
251.81907000000001
 51
268.07228099999998
  0
LINE
  5
283
  8
0
 62
     7
 10
47.675800000000002
 20
91.934299999999993
 30
0.0
 11
47.686500000000002
 21
91.933599999999998
 31
0.0
  0
ARC
  5
284
  8
0
 62
     7
 10
41.554156999999996
 20
92.979386000000005
 30
0.0
 40
0.014398
 50
228.77703700000001
 51
277.50618900000001
  0
ARC
  5
285
  8
0
 62
     7
 10
41.545684999999992
 20
93.005556999999996
 30
0.0
 40
0.04175
 50
284.35732200000001
 51
319.065383
  0
ARC
  5
286
  8
0
 62
     7
 10
41.477969999999992
 20
93.073836999999997
 30
0.0
 40
0.137832
 50
316.06454300000001
 51
326.366737
  0
LINE
  5
287
  8
0
 62
     7
 10
47.870800000000003
 20
92.173400000000001
 30
0.0
 11
47.870800000000003
 21
92.393600000000006
 31
0.0
  0
LINE
  5
288
  8
0
 62
     7
 10
47.522799999999989
 20
92.312999999999988
 30
0.0
 11
47.522799999999989
 21
92.111099999999993
 31
0.0
  0
ARC
  5
289
  8
0
 62
     7
 10
49.199903999999989
 20
92.908816000000002
 30
0.0
 40
1.55555
 50
215.89979500000001
 51
216.607912
  0
ARC
  5
28A
  8
0
 62
     7
 10
48.241340999999998
 20
92.239039000000005
 30
0.0
 40
0.386829
 50
213.422179
 51
218.792755
  0
ARC
  5
28B
  8
0
 62
     7
 10
48.186967000000003
 20
92.202330000000003
 30
0.0
 40
0.321227
 50
205.46534800000001
 51
213.299195
  0
ARC
  5
28C
  8
0
 62
     7
 10
48.134143999999999
 20
92.179964999999996
 30
0.0
 40
0.263932
 50
195.28704599999989
 51
206.01239699999999
  0
ARC
  5
28D
  8
0
 62
     7
 10
48.110636999999997
 20
92.175044000000014
 30
0.0
 40
0.239964
 50
182.69120100000001
 51
195.633531
  0
LINE
  5
28E
  8
0
 62
     7
 10
47.870899999999999
 20
92.163799999999995
 30
0.0
 11
47.870800000000003
 21
92.173400000000001
 31
0.0
  0
ARC
  5
28F
  8
0
 62
     7
 10
41.735801000000002
 20
92.665142000000003
 30
0.0
 40
0.358597
 50
78.151996999999994
 51
122.208262
  0
LINE
  5
290
  8
0
 62
     7
 10
41.809399999999989
 20
93.016099999999994
 30
0.0
 11
42.377499999999998
 21
93.094599999999986
 31
0.0
  0
LINE
  5
291
  8
0
 62
     7
 10
42.377499999999998
 20
93.094599999999986
 30
0.0
 11
43.013800000000003
 21
93.154899999999998
 31
0.0
  0
LINE
  5
292
  8
0
 62
     7
 10
43.013800000000003
 20
93.154899999999998
 30
0.0
 11
43.699800000000003
 21
93.195899999999995
 31
0.0
  0
LINE
  5
293
  8
0
 62
     7
 10
43.699800000000003
 20
93.195899999999995
 30
0.0
 11
44.415799999999997
 21
93.216599999999985
 31
0.0
  0
LINE
  5
294
  8
0
 62
     7
 10
44.415799999999997
 20
93.216599999999985
 30
0.0
 11
45.141399999999997
 21
93.215599999999995
 31
0.0
  0
LINE
  5
295
  8
0
 62
     7
 10
45.141399999999997
 20
93.215599999999995
 30
0.0
 11
45.855699999999992
 21
93.1935
 31
0.0
  0
LINE
  5
296
  8
0
 62
     7
 10
45.855699999999992
 20
93.1935
 30
0.0
 11
46.538200000000003
 21
93.150499999999994
 31
0.0
  0
LINE
  5
297
  8
0
 62
     7
 10
46.538200000000003
 20
93.150499999999994
 30
0.0
 11
47.1693
 21
93.088399999999993
 31
0.0
  0
LINE
  5
298
  8
0
 62
     7
 10
47.1693
 20
93.088399999999993
 30
0.0
 11
47.730899999999991
 21
93.008499999999998
 31
0.0
  0
LINE
  5
299
  8
0
 62
     7
 10
47.730899999999991
 20
93.008499999999998
 30
0.0
 11
48.207000000000001
 21
92.913799999999995
 31
0.0
  0
LINE
  5
29A
  8
0
 62
     7
 10
48.207000000000001
 20
92.913799999999995
 30
0.0
 11
48.5837
 21
92.805899999999994
 31
0.0
  0
LINE
  5
29B
  8
0
 62
     7
 10
48.5837
 20
92.805899999999994
 30
0.0
 11
48.8504
 21
92.688800000000015
 31
0.0
  0
LINE
  5
29C
  8
0
 62
     7
 10
48.8504
 20
92.688800000000015
 30
0.0
 11
48.999400000000001
 21
92.5655
 31
0.0
  0
LINE
  5
29D
  8
0
 62
     7
 10
48.999400000000001
 20
92.5655
 30
0.0
 11
49.000399999999999
 21
92.564099999999996
 31
0.0
  0
ARC
  5
29E
  8
0
 62
     7
 10
47.760159999999999
 20
92.284141000000005
 30
0.0
 40
0.358164
 50
258.12398899999999
 51
302.23631
  0
LINE
  5
29F
  8
0
 62
     7
 10
47.686500000000002
 20
91.933599999999998
 30
0.0
 11
47.118400000000001
 21
91.855400000000003
 31
0.0
  0
LINE
  5
2A0
  8
0
 62
     7
 10
47.118400000000001
 20
91.855400000000003
 30
0.0
 11
46.481999999999999
 21
91.794799999999995
 31
0.0
  0
LINE
  5
2A1
  8
0
 62
     7
 10
46.481999999999999
 20
91.794799999999995
 30
0.0
 11
45.796100000000003
 21
91.753799999999998
 31
0.0
  0
LINE
  5
2A2
  8
0
 62
     7
 10
45.796100000000003
 20
91.753799999999998
 30
0.0
 11
45.079999999999998
 21
91.733500000000006
 31
0.0
  0
LINE
  5
2A3
  8
0
 62
     7
 10
45.079999999999998
 20
91.733500000000006
 30
0.0
 11
44.354500000000002
 21
91.734200000000001
 31
0.0
  0
LINE
  5
2A4
  8
0
 62
     7
 10
44.354500000000002
 20
91.734200000000001
 30
0.0
 11
43.640300000000003
 21
91.756600000000006
 31
0.0
  0
LINE
  5
2A5
  8
0
 62
     7
 10
43.640300000000003
 20
91.756600000000006
 30
0.0
 11
42.957700000000003
 21
91.799300000000002
 31
0.0
  0
LINE
  5
2A6
  8
0
 62
     7
 10
42.957700000000003
 20
91.799300000000002
 30
0.0
 11
42.326500000000003
 21
91.8613
 31
0.0
  0
LINE
  5
2A7
  8
0
 62
     7
 10
42.326500000000003
 20
91.8613
 30
0.0
 11
41.764999999999993
 21
91.941199999999995
 31
0.0
  0
LINE
  5
2A8
  8
0
 62
     7
 10
41.764999999999993
 20
91.941199999999995
 30
0.0
 11
41.288899999999998
 21
92.036299999999997
 31
0.0
  0
LINE
  5
2A9
  8
0
 62
     7
 10
41.288899999999998
 20
92.036299999999997
 30
0.0
 11
40.912100000000002
 21
92.143799999999999
 31
0.0
  0
LINE
  5
2AA
  8
0
 62
     7
 10
40.912100000000002
 20
92.143799999999999
 30
0.0
 11
40.645299999999999
 21
92.260900000000007
 31
0.0
  0
LINE
  5
2AB
  8
0
 62
     7
 10
40.645299999999999
 20
92.260900000000007
 30
0.0
 11
40.642599999999987
 21
92.262699999999995
 31
0.0
  0
LINE
  5
2AC
  8
0
 62
     7
 10
40.390000000000001
 20
92.280199999999994
 30
0.0
 11
40.580699999999993
 21
92.180000000000007
 31
0.0
  0
LINE
  5
2AD
  8
0
 62
     7
 10
40.580699999999993
 20
92.180000000000007
 30
0.0
 11
40.917099999999991
 21
92.064899999999994
 31
0.0
  0
LINE
  5
2AE
  8
0
 62
     7
 10
40.917099999999991
 20
92.064899999999994
 30
0.0
 11
41.3581
 21
91.961200000000005
 31
0.0
  0
LINE
  5
2AF
  8
0
 62
     7
 10
41.3581
 20
91.961200000000005
 30
0.0
 11
41.891399999999997
 21
91.870900000000006
 31
0.0
  0
LINE
  5
2B0
  8
0
 62
     7
 10
41.891399999999997
 20
91.870900000000006
 30
0.0
 11
42.502800000000001
 21
91.797899999999998
 31
0.0
  0
LINE
  5
2B1
  8
0
 62
     7
 10
42.502800000000001
 20
91.797899999999998
 30
0.0
 11
43.175199999999997
 21
91.742800000000017
 31
0.0
  0
LINE
  5
2B2
  8
0
 62
     7
 10
43.175199999999997
 20
91.742800000000017
 30
0.0
 11
43.890599999999992
 21
91.707599999999985
 31
0.0
  0
LINE
  5
2B3
  8
0
 62
     7
 10
43.890599999999992
 20
91.707599999999985
 30
0.0
 11
44.62939999999999
 21
91.693899999999985
 31
0.0
  0
LINE
  5
2B4
  8
0
 62
     7
 10
44.62939999999999
 20
91.693899999999985
 30
0.0
 11
45.37149999999999
 21
91.701099999999997
 31
0.0
  0
LINE
  5
2B5
  8
0
 62
     7
 10
45.37149999999999
 20
91.701099999999997
 30
0.0
 11
46.096499999999999
 21
91.729299999999995
 31
0.0
  0
LINE
  5
2B6
  8
0
 62
     7
 10
46.096499999999999
 20
91.729299999999995
 30
0.0
 11
46.7849
 21
91.778300000000002
 31
0.0
  0
LINE
  5
2B7
  8
0
 62
     7
 10
46.7849
 20
91.778300000000002
 30
0.0
 11
47.417400000000001
 21
91.845799999999997
 31
0.0
  0
LINE
  5
2B8
  8
0
 62
     7
 10
47.417400000000001
 20
91.845799999999997
 30
0.0
 11
47.977200000000003
 21
91.930899999999994
 31
0.0
  0
LINE
  5
2B9
  8
0
 62
     7
 10
49.146700000000003
 20
92.639899999999983
 30
0.0
 11
49.137700000000002
 21
92.646799999999999
 31
0.0
  0
LINE
  5
2BA
  8
0
 62
     7
 10
49.137700000000002
 20
92.646799999999999
 30
0.0
 11
48.914999999999999
 21
92.769800000000004
 31
0.0
  0
LINE
  5
2BB
  8
0
 62
     7
 10
48.914999999999999
 20
92.769800000000004
 30
0.0
 11
48.578699999999998
 21
92.884799999999984
 31
0.0
  0
LINE
  5
2BC
  8
0
 62
     7
 10
48.578699999999998
 20
92.884799999999984
 30
0.0
 11
48.137799999999999
 21
92.988900000000001
 31
0.0
  0
LINE
  5
2BD
  8
0
 62
     7
 10
48.137799999999999
 20
92.988900000000001
 30
0.0
 11
47.604500000000002
 21
93.078800000000001
 31
0.0
  0
LINE
  5
2BE
  8
0
 62
     7
 10
47.604500000000002
 20
93.078800000000001
 30
0.0
 11
46.993099999999991
 21
93.152199999999993
 31
0.0
  0
LINE
  5
2BF
  8
0
 62
     7
 10
46.993099999999991
 20
93.152199999999993
 30
0.0
 11
46.320599999999999
 21
93.206999999999994
 31
0.0
  0
LINE
  5
2C0
  8
0
 62
     7
 10
46.320599999999999
 20
93.206999999999994
 30
0.0
 11
45.605299999999993
 21
93.242099999999979
 31
0.0
  0
LINE
  5
2C1
  8
0
 62
     7
 10
45.605299999999993
 20
93.242099999999979
 30
0.0
 11
44.866300000000003
 21
93.256200000000007
 31
0.0
  0
LINE
  5
2C2
  8
0
 62
     7
 10
44.866300000000003
 20
93.256200000000007
 30
0.0
 11
44.124400000000001
 21
93.248999999999995
 31
0.0
  0
LINE
  5
2C3
  8
0
 62
     7
 10
44.124400000000001
 20
93.248999999999995
 30
0.0
 11
43.39929999999999
 21
93.220399999999984
 31
0.0
  0
LINE
  5
2C4
  8
0
 62
     7
 10
43.39929999999999
 20
93.220399999999984
 30
0.0
 11
42.710999999999999
 21
93.171800000000005
 31
0.0
  0
LINE
  5
2C5
  8
0
 62
     7
 10
42.710999999999999
 20
93.171800000000005
 30
0.0
 11
42.078499999999991
 21
93.103899999999996
 31
0.0
  0
LINE
  5
2C6
  8
0
 62
     7
 10
42.078499999999991
 20
93.103899999999996
 30
0.0
 11
41.518500000000003
 21
93.019199999999998
 31
0.0
  0
LINE
  5
2C7
  8
0
 62
     7
 10
41.518500000000003
 20
93.019199999999998
 30
0.0
 11
41.046700000000001
 21
92.919300000000007
 31
0.0
  0
LINE
  5
2C8
  8
0
 62
     7
 10
41.046700000000001
 20
92.919300000000007
 30
0.0
 11
40.676000000000002
 21
92.807699999999997
 31
0.0
  0
LINE
  5
2C9
  8
0
 62
     7
 10
40.676000000000002
 20
92.807699999999997
 30
0.0
 11
40.416200000000003
 21
92.686700000000002
 31
0.0
  0
LINE
  5
2CA
  8
0
 62
     7
 10
40.416200000000003
 20
92.686700000000002
 30
0.0
 11
40.291899999999991
 21
92.584100000000007
 31
0.0
  0
LINE
  5
2CB
  8
0
 62
     7
 10
43.5976
 20
93.191500000000005
 30
0.0
 11
44.103999999999999
 21
93.166300000000007
 31
0.0
  0
LINE
  5
2CC
  8
0
 62
     7
 10
44.103999999999999
 20
93.166300000000007
 30
0.0
 11
42.335500000000003
 21
93.089500000000015
 31
0.0
  0
LINE
  5
2CD
  8
0
 62
     7
 10
41.646599999999999
 20
92.999899999999997
 30
0.0
 11
44.184800000000003
 21
93.110200000000006
 31
0.0
  0
LINE
  5
2CE
  8
0
 62
     7
 10
44.184800000000003
 20
93.110200000000006
 30
0.0
 11
42.1541
 21
92.769400000000005
 31
0.0
  0
LINE
  5
2CF
  8
0
 62
     7
 10
42.38559999999999
 20
92.727699999999984
 30
0.0
 11
44.416299999999993
 21
93.0685
 31
0.0
  0
LINE
  5
2D0
  8
0
 62
     7
 10
44.416299999999993
 20
93.0685
 30
0.0
 11
43.639000000000003
 21
92.597199999999987
 31
0.0
  0
LINE
  5
2D1
  8
0
 62
     7
 10
43.959400000000002
 20
92.581000000000003
 30
0.0
 11
44.736899999999999
 21
93.052599999999998
 31
0.0
  0
LINE
  5
2D2
  8
0
 62
     7
 10
44.736899999999999
 20
93.052599999999998
 30
0.0
 11
45.420900000000003
 21
92.576800000000006
 31
0.0
  0
LINE
  5
2D3
  8
0
 62
     7
 10
45.744399999999999
 20
92.591000000000008
 30
0.0
 11
45.060200000000002
 21
93.066399999999987
 31
0.0
  0
LINE
  5
2D4
  8
0
 62
     7
 10
45.060200000000002
 20
93.066399999999987
 30
0.0
 11
47.022799999999997
 21
92.713999999999984
 31
0.0
  0
LINE
  5
2D5
  8
0
 62
     7
 10
47.262399999999992
 20
92.754300000000001
 30
0.0
 11
45.299999999999997
 21
93.106700000000004
 31
0.0
  0
LINE
  5
2D6
  8
0
 62
     7
 10
45.299999999999997
 20
93.106700000000004
 30
0.0
 11
47.907999999999987
 21
92.977199999999996
 31
0.0
  0
LINE
  5
2D7
  8
0
 62
     7
 10
47.358999999999988
 20
93.064700000000002
 30
0.0
 11
45.391800000000003
 21
93.162499999999994
 31
0.0
  0
LINE
  5
2D8
  8
0
 62
     7
 10
45.391800000000003
 20
93.162499999999994
 30
0.0
 11
45.973700000000001
 21
93.187700000000007
 31
0.0
  0
LINE
  5
2D9
  8
0
 62
     7
 10
42.1541
 20
92.769400000000005
 30
0.0
 11
42.1541
 21
93.022000000000006
 31
0.0
  0
LINE
  5
2DA
  8
0
 62
     7
 10
47.262399999999992
 20
92.754300000000001
 30
0.0
 11
47.262399999999992
 21
93.009200000000007
 31
0.0
  0
ARC
  5
2DB
  8
0
 62
     7
 10
46.052059
 20
99.21650600000001
 30
0.0
 40
6.5745959999999997
 50
278.49035400000002
 51
280.60793100000012
  0
LINE
  5
2DC
  8
0
 62
     7
 10
45.744399999999999
 20
92.591000000000008
 30
0.0
 11
45.744399999999999
 21
92.943799999999996
 31
0.0
  0
ARC
  5
2DD
  8
0
 62
     7
 10
44.853252000000012
 20
109.289834
 30
0.0
 40
16.722626000000002
 50
271.94542899999999
 51
273.05488000000003
  0
ARC
  5
2DE
  8
0
 62
     7
 10
44.631750999999987
 20
109.063868
 30
0.0
 40
16.496597000000001
 50
266.54976199999999
 51
267.663995
  0
LINE
  5
2DF
  8
0
 62
     7
 10
43.639000000000003
 20
92.597199999999987
 30
0.0
 11
43.639000000000003
 21
92.937899999999985
 31
0.0
  0
ARC
  5
2E0
  8
0
 62
     7
 10
43.577928
 20
100.01319100000001
 30
0.0
 40
7.3823669999999986
 50
258.87984699999998
 51
260.70562100000001
  0
LINE
  5
2E1
  8
0
 62
     7
 10
47.912300000000002
 20
92.976100000000002
 30
0.0
 11
47.967100000000002
 21
92.953100000000006
 31
0.0
  0
LINE
  5
2E2
  8
0
 62
     7
 10
47.967100000000002
 20
92.953100000000006
 30
0.0
 11
48.140300000000003
 21
92.846599999999995
 31
0.0
  0
LINE
  5
2E3
  8
0
 62
     7
 10
48.140300000000003
 20
92.846599999999995
 30
0.0
 11
48.197899999999997
 21
92.736400000000003
 31
0.0
  0
LINE
  5
2E4
  8
0
 62
     7
 10
48.197899999999997
 20
92.736400000000003
 30
0.0
 11
48.138100000000001
 21
92.626499999999979
 31
0.0
  0
LINE
  5
2E5
  8
0
 62
     7
 10
48.138100000000001
 20
92.626499999999979
 30
0.0
 11
47.962800000000001
 21
92.519999999999996
 31
0.0
  0
LINE
  5
2E6
  8
0
 62
     7
 10
47.962800000000001
 20
92.519999999999996
 30
0.0
 11
47.677999999999997
 21
92.421499999999995
 31
0.0
  0
LINE
  5
2E7
  8
0
 62
     7
 10
47.677999999999997
 20
92.421499999999995
 30
0.0
 11
47.293500000000002
 21
92.333299999999994
 31
0.0
  0
LINE
  5
2E8
  8
0
 62
     7
 10
47.293500000000002
 20
92.333299999999994
 30
0.0
 11
46.822200000000002
 21
92.258899999999997
 31
0.0
  0
LINE
  5
2E9
  8
0
 62
     7
 10
46.822200000000002
 20
92.258899999999997
 30
0.0
 11
46.28029999999999
 21
92.200999999999993
 31
0.0
  0
LINE
  5
2EA
  8
0
 62
     7
 10
46.28029999999999
 20
92.200999999999993
 30
0.0
 11
45.686399999999999
 21
92.161000000000001
 31
0.0
  0
LINE
  5
2EB
  8
0
 62
     7
 10
45.686399999999999
 20
92.161000000000001
 30
0.0
 11
45.060200000000002
 21
92.141000000000005
 31
0.0
  0
LINE
  5
2EC
  8
0
 62
     7
 10
45.060200000000002
 20
92.141000000000005
 30
0.0
 11
44.423599999999993
 21
92.141000000000005
 31
0.0
  0
LINE
  5
2ED
  8
0
 62
     7
 10
44.423599999999993
 20
92.141000000000005
 30
0.0
 11
43.798099999999991
 21
92.161699999999996
 31
0.0
  0
LINE
  5
2EE
  8
0
 62
     7
 10
43.798099999999991
 20
92.161699999999996
 30
0.0
 11
43.204900000000002
 21
92.201700000000017
 31
0.0
  0
LINE
  5
2EF
  8
0
 62
     7
 10
43.204900000000002
 20
92.201700000000017
 30
0.0
 11
42.664200000000001
 21
92.260199999999998
 31
0.0
  0
LINE
  5
2F0
  8
0
 62
     7
 10
42.664200000000001
 20
92.260199999999998
 30
0.0
 11
42.194400000000002
 21
92.334699999999998
 31
0.0
  0
LINE
  5
2F1
  8
0
 62
     7
 10
42.194400000000002
 20
92.334699999999998
 30
0.0
 11
41.811500000000002
 21
92.422799999999995
 31
0.0
  0
LINE
  5
2F2
  8
0
 62
     7
 10
41.811500000000002
 20
92.422799999999995
 30
0.0
 11
41.52879999999999
 21
92.522099999999995
 31
0.0
  0
LINE
  5
2F3
  8
0
 62
     7
 10
41.52879999999999
 20
92.522099999999995
 30
0.0
 11
41.355499999999999
 21
92.628500000000003
 31
0.0
  0
LINE
  5
2F4
  8
0
 62
     7
 10
41.355499999999999
 20
92.628500000000003
 30
0.0
 11
41.298000000000002
 21
92.738399999999984
 31
0.0
  0
LINE
  5
2F5
  8
0
 62
     7
 10
41.298000000000002
 20
92.738399999999984
 30
0.0
 11
41.35779999999999
 21
92.848699999999994
 31
0.0
  0
LINE
  5
2F6
  8
0
 62
     7
 10
41.35779999999999
 20
92.848699999999994
 30
0.0
 11
41.533099999999997
 21
92.954800000000006
 31
0.0
  0
LINE
  5
2F7
  8
0
 62
     7
 10
41.533099999999997
 20
92.954800000000006
 30
0.0
 11
41.679400000000001
 21
93.011300000000006
 31
0.0
  0
LINE
  5
2F8
  8
0
 62
     7
 10
48.361699999999999
 20
92.874200000000002
 30
0.0
 11
48.444000000000003
 21
92.760099999999994
 31
0.0
  0
LINE
  5
2F9
  8
0
 62
     7
 10
48.444000000000003
 20
92.760099999999994
 30
0.0
 11
48.407899999999998
 21
92.645399999999995
 31
0.0
  0
LINE
  5
2FA
  8
0
 62
     7
 10
48.407899999999998
 20
92.645399999999995
 30
0.0
 11
48.254199999999997
 21
92.533100000000005
 31
0.0
  0
LINE
  5
2FB
  8
0
 62
     7
 10
48.254199999999997
 20
92.533100000000005
 30
0.0
 11
47.987699999999997
 21
92.427700000000002
 31
0.0
  0
LINE
  5
2FC
  8
0
 62
     7
 10
47.987699999999997
 20
92.427700000000002
 30
0.0
 11
47.616999999999997
 21
92.332200000000014
 31
0.0
  0
LINE
  5
2FD
  8
0
 62
     7
 10
47.616999999999997
 20
92.332200000000014
 30
0.0
 11
47.154400000000003
 21
92.249899999999997
 31
0.0
  0
LINE
  5
2FE
  8
0
 62
     7
 10
47.154400000000003
 20
92.249899999999997
 30
0.0
 11
46.61419999999999
 21
92.183099999999996
 31
0.0
  0
LINE
  5
2FF
  8
0
 62
     7
 10
46.61419999999999
 20
92.183099999999996
 30
0.0
 11
46.013999999999989
 21
92.134100000000004
 31
0.0
  0
LINE
  5
300
  8
0
 62
     7
 10
46.013999999999989
 20
92.134100000000004
 30
0.0
 11
45.373199999999997
 21
92.104499999999987
 31
0.0
  0
LINE
  5
301
  8
0
 62
     7
 10
45.373199999999997
 20
92.104499999999987
 30
0.0
 11
44.712299999999999
 21
92.095600000000005
 31
0.0
  0
LINE
  5
302
  8
0
 62
     7
 10
44.712299999999999
 20
92.095600000000005
 30
0.0
 11
44.052399999999999
 21
92.1066
 31
0.0
  0
LINE
  5
303
  8
0
 62
     7
 10
44.052399999999999
 20
92.1066
 30
0.0
 11
43.414999999999992
 21
92.138299999999987
 31
0.0
  0
LINE
  5
304
  8
0
 62
     7
 10
43.414999999999992
 20
92.138299999999987
 30
0.0
 11
42.820599999999999
 21
92.189300000000003
 31
0.0
  0
LINE
  5
305
  8
0
 62
     7
 10
42.820599999999999
 20
92.189300000000003
 30
0.0
 11
42.28779999999999
 21
92.258200000000002
 31
0.0
  0
LINE
  5
306
  8
0
 62
     7
 10
42.28779999999999
 20
92.258200000000002
 30
0.0
 11
41.834200000000003
 21
92.341899999999995
 31
0.0
  0
LINE
  5
307
  8
0
 62
     7
 10
41.834200000000003
 20
92.341899999999995
 30
0.0
 11
41.474400000000003
 21
92.438699999999983
 31
0.0
  0
LINE
  5
308
  8
0
 62
     7
 10
41.474400000000003
 20
92.438699999999983
 30
0.0
 11
41.2196
 21
92.544799999999995
 31
0.0
  0
LINE
  5
309
  8
0
 62
     7
 10
41.2196
 20
92.544799999999995
 30
0.0
 11
41.078400000000002
 21
92.657499999999999
 31
0.0
  0
LINE
  5
30A
  8
0
 62
     7
 10
41.078400000000002
 20
92.657499999999999
 30
0.0
 11
41.054900000000004
 21
92.772499999999994
 31
0.0
  0
LINE
  5
30B
  8
0
 62
     7
 10
41.054900000000004
 20
92.772499999999994
 30
0.0
 11
41.116100000000003
 21
92.858999999999995
 31
0.0
  0
ARC
  5
30C
  8
0
 62
     7
 10
52.762645999999997
 20
96.257099999999994
 30
0.0
 40
2.4221840000000001
 50
177.477116
 51
180.54211000000001
  0
ARC
  5
30D
  8
0
 62
     7
 10
51.285983999999999
 20
96.298405000000002
 30
0.0
 40
0.9454329999999998
 50
164.15590399999999
 51
176.038599
  0
ARC
  5
30E
  8
0
 62
     7
 10
52.018943
 20
96.110394999999997
 30
0.0
 40
1.701984999999999
 50
160.115466
 51
164.803788
  0
ARC
  5
30F
  8
0
 62
     7
 10
52.299603000000012
 20
96.016683
 30
0.0
 40
1.9977999999999989
 50
151.59754699999999
 51
160.32583
  0
ARC
  5
310
  8
0
 62
     7
 10
51.893546000000001
 20
96.219100999999995
 30
0.0
 40
1.5444119999999999
 50
140.82547099999999
 51
151.037598
  0
ARC
  5
311
  8
0
 62
     7
 10
51.85378
 20
96.238837000000004
 30
0.0
 40
1.5011490000000001
 50
136.58690899999999
 51
140.45067299999999
  0
ARC
  5
312
  8
0
 62
     7
 10
54.996718000000008
 20
93.253786000000005
 30
0.0
 40
5.8357279999999987
 50
135.26578599999999
 51
136.50443799999999
  0
ARC
  5
313
  8
0
 62
     7
 10
36.227248000000003
 20
94.578636000000003
 30
0.0
 40
3.6851500000000001
 50
48.412034999999989
 51
52.125
  0
ARC
  5
314
  8
0
 62
     7
 10
37.728839000000001
 20
96.342895000000013
 30
0.0
 40
1.3697250000000001
 50
33.535115000000012
 51
46.405279999999991
  0
ARC
  5
315
  8
0
 62
     7
 10
37.360464
 20
96.077207000000016
 30
0.0
 40
1.823648999999999
 50
21.961399
 51
34.099257000000001
  0
ARC
  5
316
  8
0
 62
     7
 10
37.562294999999999
 20
96.150727000000003
 30
0.0
 40
1.6089859999999989
 50
13.553710000000001
 51
22.221201000000001
  0
ARC
  5
317
  8
0
 62
     7
 10
38.131587000000003
 20
96.30245699999999
 30
0.0
 40
1.020087
 50
6.5707959999999987
 51
12.762492
  0
ARC
  5
318
  8
0
 62
     7
 10
37.724955000000001
 20
96.258508000000006
 30
0.0
 40
1.4290789999999991
 50
358.87274500000001
 51
6.4556820000000013
  0
ARC
  5
319
  8
0
 62
     7
 10
40.075524999999999
 20
92.715417000000002
 30
0.0
 40
0.7151770000000001
 50
191.45360400000001
 51
200.9196639999999
  0
ARC
  5
31A
  8
0
 62
     7
 10
39.620556000000001
 20
92.564600999999996
 30
0.0
 40
0.237332
 50
206.13568799999999
 51
216.39979099999999
  0
ARC
  5
31B
  8
0
 62
     7
 10
39.746125999999997
 20
92.658225000000002
 30
0.0
 40
0.393961
 50
216.52222699999999
 51
226.65060700000001
  0
ARC
  5
31C
  8
0
 62
     7
 10
40.563510000000001
 20
93.525035000000003
 30
0.0
 40
1.5853790000000001
 50
226.6734330000001
 51
229.099434
  0
ARC
  5
31D
  8
0
 62
     7
 10
48.711145999999999
 20
93.666195999999985
 30
0.0
 40
1.8348899999999999
 50
313.12956100000002
 51
316.75004799999999
  0
ARC
  5
31E
  8
0
 62
     7
 10
49.619650999999998
 20
92.79235899999999
 30
0.0
 40
0.5745940000000001
 50
318.14486099999999
 51
324.45634600000011
  0
ARC
  5
31F
  8
0
 62
     7
 10
49.791708
 20
92.668677999999986
 30
0.0
 40
0.362697
 50
324.55343700000009
 51
342.72584899999998
  0
ARC
  5
320
  8
0
 62
     7
 10
49.999476000000001
 20
92.596230000000006
 30
0.0
 40
0.142984
 50
345.72673600000002
 51
11.921972999999999
  0
ARC
  5
321
  8
0
 62
     7
 10
50.090828000000002
 20
92.61619300000001
 30
0.0
 40
0.049483
 50
11.156739
 51
16.915745000000001
  0
LINE
  5
322
  8
0
 62
     7
 10
50.139200000000002
 20
92.622000000000014
 30
0.0
 11
50.331400000000002
 21
96.234200000000016
 31
0.0
  0
LINE
  5
323
  8
0
 62
     7
 10
39.164400000000001
 20
96.231099999999998
 30
0.0
 11
39.356499999999997
 21
92.622000000000014
 31
0.0
  0
ARC
  5
324
  8
0
 62
     7
 10
36.109515999999999
 20
139.80716699999999
 30
0.0
 40
44.830858999999997
 50
288.91813500000001
 51
289.74543999999997
  0
ARC
  5
325
  8
0
 62
     7
 10
46.777883999999993
 20
109.79658000000001
 30
0.0
 40
12.980955
 50
290.17679800000002
 51
292.67462599999999
  0
ARC
  5
326
  8
0
 62
     7
 10
45.587631000000002
 20
112.775203
 30
0.0
 40
16.188272999999999
 50
292.497681
 51
294.094809
  0
ARC
  5
327
  8
0
 62
     7
 10
45.59642199999999
 20
112.689069
 30
0.0
 40
16.106078
 50
294.19135199999999
 51
295.57207099999999
  0
ARC
  5
328
  8
0
 62
     7
 10
49.945745999999993
 20
125.654612
 30
0.0
 40
30.411508999999999
 50
244.69586899999999
 51
245.42707100000001
  0
ARC
  5
329
  8
0
 62
     7
 10
42.954503000000003
 20
110.55597400000001
 30
0.0
 40
13.773225999999999
 50
245.75685200000001
 51
247.63339099999999
  0
ARC
  5
32A
  8
0
 62
     7
 10
43.849727999999999
 20
112.67258200000001
 30
0.0
 40
16.071275
 50
247.55339499999999
 51
249.56971999999999
  0
ARC
  5
32B
  8
0
 62
     7
 10
45.438496999999991
 20
117.20187300000001
 30
0.0
 40
20.870453000000001
 50
249.82282900000001
 51
251.609982
  0
LINE
  5
32C
  8
0
 62
     7
 10
36.947200000000002
 20
98.161000000000001
 30
0.0
 11
36.861499999999999
 21
98.210300000000004
 31
0.0
  0
LINE
  5
32D
  8
0
 62
     7
 10
35.88430000000001
 20
98.727099999999993
 30
0.0
 11
36.4788
 21
98.396699999999996
 31
0.0
  0
LINE
  5
32E
  8
0
 62
     7
 10
40.634
 20
92.637799999999999
 30
0.0
 11
40.636699999999998
 21
92.638900000000007
 31
0.0
  0
ARC
  5
32F
  8
0
 62
     7
 10
41.128759000000002
 20
92.095293999999996
 30
0.0
 40
0.733196
 50
124.83774699999999
 51
132.15227200000001
  0
ARC
  5
330
  8
0
 62
     7
 10
41.016533000000003
 20
92.231615000000005
 30
0.0
 40
0.5573800000000001
 50
116.564123
 51
123.373988
  0
ARC
  5
331
  8
0
 62
     7
 10
41.330241999999998
 20
91.613082999999989
 30
0.0
 40
1.2509129999999991
 50
111.27690800000001
 51
116.74668200000001
  0
ARC
  5
332
  8
0
 62
     7
 10
41.762090000000001
 20
90.573521999999997
 30
0.0
 40
2.3764549999999991
 50
105.096796
 51
111.88400799999999
  0
ARC
  5
333
  8
0
 62
     7
 10
42.362029
 20
88.597447000000003
 30
0.0
 40
4.4410540000000003
 50
101.073909
 51
105.929777
  0
ARC
  5
334
  8
0
 62
     7
 10
43.642288999999991
 20
82.416172000000003
 30
0.0
 40
10.753363
 50
100.795085
 51
101.442362
  0
LINE
  5
335
  8
0
 62
     7
 10
48.8628
 20
92.634400000000014
 30
0.0
 11
48.863500000000002
 21
92.636799999999994
 31
0.0
  0
ARC
  5
336
  8
0
 62
     7
 10
44.113467
 20
112.719128
 30
0.0
 40
21.149657999999999
 50
280.60745200000008
 51
281.285709
  0
ARC
  5
337
  8
0
 62
     7
 10
47.078798999999997
 20
97.617517000000007
 30
0.0
 40
5.7599349999999987
 50
281.75735100000003
 51
285.97645899999998
  0
ARC
  5
338
  8
0
 62
     7
 10
47.704574999999998
 20
95.317898
 30
0.0
 40
3.377043
 50
286.50830500000001
 51
292.42206299999998
  0
ARC
  5
339
  8
0
 62
     7
 10
48.449632000000001
 20
93.450315000000003
 30
0.0
 40
1.3666709999999991
 50
293.41215099999999
 51
305.28053900000009
  0
ARC
  5
33A
  8
0
 62
     7
 10
48.882072999999998
 20
92.793483999999992
 30
0.0
 40
0.5813060000000001
 50
307.87918400000001
 51
326.560137
  0
ARC
  5
33B
  8
0
 62
     7
 10
48.959729000000003
 20
92.735589000000004
 30
0.0
 40
0.484632
 50
327.212535
 51
334.28225400000002
  0
ARC
  5
33C
  8
0
 62
     7
 10
49.223292000000001
 20
92.610399999999984
 30
0.0
 40
0.192859
 50
333.81216699999999
 51
7.4521729999999993
  0
ARC
  5
33D
  8
0
 62
     7
 10
49.280070000000002
 20
92.607963999999996
 30
0.0
 40
0.137226
 50
11.538999
 51
20.221274999999999
  0
ARC
  5
33E
  8
0
 62
     7
 10
40.651369000000003
 20
92.595794999999995
 30
0.0
 40
0.559536
 50
175.69206199999999
 51
184.30793800000001
  0
ARC
  5
33F
  8
0
 62
     7
 10
40.294069
 20
92.583876000000004
 30
0.0
 40
0.202902
 50
188.534572
 51
214.637047
  0
ARC
  5
340
  8
0
 62
     7
 10
40.433572999999988
 20
92.669961999999984
 30
0.0
 40
0.366709
 50
213.31482099999999
 51
225.89128700000001
  0
ARC
  5
341
  8
0
 62
     7
 10
40.58505499999999
 20
92.814300000000003
 30
0.0
 40
0.5758410000000001
 50
225.06487100000001
 51
231.585173
  0
ARC
  5
342
  8
0
 62
     7
 10
41.425162
 20
93.879406999999986
 30
0.0
 40
1.9323909999999991
 50
231.69056
 51
234.26243500000001
  0
LINE
  5
343
  8
0
 62
     7
 10
48.427199999999992
 20
92.672300000000007
 30
0.0
 11
48.518799999999999
 21
92.827699999999993
 31
0.0
  0
LINE
  5
344
  8
0
 62
     7
 10
40.984699999999989
 20
92.814899999999994
 30
0.0
 11
41.068699999999993
 21
92.672300000000007
 31
0.0
  0
LINE
  5
345
  8
0
 62
     7
 10
48.016300000000001
 20
232.94399999999999
 30
0.0
 11
48.016300000000001
 21
235.40700000000001
 31
0.0
  0
LINE
  5
346
  8
0
 62
     7
 10
46.244199999999992
 20
237.33099999999999
 30
0.0
 11
44.747900000000001
 21
237.41
 31
0.0
  0
LINE
  5
347
  8
0
 62
     7
 10
44.747900000000001
 20
237.41
 30
0.0
 11
43.252099999999999
 21
237.33099999999999
 31
0.0
  0
LINE
  5
348
  8
0
 62
     7
 10
41.479900000000001
 20
235.40700000000001
 30
0.0
 11
41.479900000000001
 21
232.94399999999999
 31
0.0
  0
LINE
  5
349
  8
0
 62
     7
 10
52.581400000000002
 20
238.34200000000001
 30
0.0
 11
50.907800000000002
 21
238.34200000000001
 31
0.0
  0
LINE
  5
34A
  8
0
 62
     7
 10
38.5884
 20
238.34200000000001
 30
0.0
 11
36.9148
 21
238.34200000000001
 31
0.0
  0
LINE
  5
34B
  8
0
 62
     7
 10
41.69489999999999
 20
224.40799999999999
 30
0.0
 11
40.9146
 21
224.40799999999999
 31
0.0
  0
LINE
  5
34C
  8
0
 62
     7
 10
48.581299999999999
 20
224.40799999999999
 30
0.0
 11
47.801299999999991
 21
224.40799999999999
 31
0.0
  0
LINE
  5
34D
  8
0
 62
     7
 10
54.9148
 20
239.00800000000001
 30
0.0
 11
53.241199999999999
 21
239.00800000000001
 31
0.0
  0
LINE
  5
34E
  8
0
 62
     7
 10
54.9148
 20
238.00800000000001
 30
0.0
 11
53.241199999999999
 21
238.00800000000001
 31
0.0
  0
LINE
  5
34F
  8
0
 62
     7
 10
34.581400000000002
 20
239.00800000000001
 30
0.0
 11
36.25500000000001
 21
239.00800000000001
 31
0.0
  0
LINE
  5
350
  8
0
 62
     7
 10
34.581400000000002
 20
238.00800000000001
 30
0.0
 11
36.25500000000001
 21
238.00800000000001
 31
0.0
  0
LINE
  5
351
  8
0
 62
     7
 10
37.581400000000002
 20
239.00800000000001
 30
0.0
 11
36.25500000000001
 21
239.00800000000001
 31
0.0
  0
LINE
  5
352
  8
0
 62
     7
 10
36.25500000000001
 20
238.00800000000001
 30
0.0
 11
36.25500000000001
 21
239.00800000000001
 31
0.0
  0
LINE
  5
353
  8
0
 62
     7
 10
36.9148
 20
238.00800000000001
 30
0.0
 11
36.25500000000001
 21
238.00800000000001
 31
0.0
  0
LINE
  5
354
  8
0
 62
     7
 10
51.9148
 20
239.00800000000001
 30
0.0
 11
53.241199999999999
 21
239.00800000000001
 31
0.0
  0
LINE
  5
355
  8
0
 62
     7
 10
52.581400000000002
 20
238.00800000000001
 30
0.0
 11
53.241199999999999
 21
238.00800000000001
 31
0.0
  0
LINE
  5
356
  8
0
 62
     7
 10
53.241199999999999
 20
238.00800000000001
 30
0.0
 11
53.241199999999999
 21
239.00800000000001
 31
0.0
  0
LINE
  5
357
  8
0
 62
     7
 10
50.849600000000002
 20
239.00800000000001
 30
0.0
 11
51.9148
 21
239.00800000000001
 31
0.0
  0
LINE
  5
358
  8
0
 62
     7
 10
50.907800000000002
 20
225.07499999999999
 30
0.0
 11
52.581400000000002
 21
225.07499999999999
 31
0.0
  0
LINE
  5
359
  8
0
 62
     7
 10
37.581400000000002
 20
239.00800000000001
 30
0.0
 11
38.646299999999997
 21
239.00800000000001
 31
0.0
  0
LINE
  5
35A
  8
0
 62
     7
 10
38.5884
 20
225.07499999999999
 30
0.0
 11
36.9148
 21
225.07499999999999
 31
0.0
  0
LINE
  5
35B
  8
0
 62
     7
 10
50.189799999999991
 20
225.07499999999999
 30
0.0
 11
50.907800000000002
 21
225.07499999999999
 31
0.0
  0
LINE
  5
35C
  8
0
 62
     7
 10
50.907800000000002
 20
238.34200000000001
 30
0.0
 11
50.907800000000002
 21
225.07499999999999
 31
0.0
  0
LINE
  5
35D
  8
0
 62
     7
 10
50.131999999999998
 20
239.00800000000001
 30
0.0
 11
50.849600000000002
 21
239.00800000000001
 31
0.0
  0
LINE
  5
35E
  8
0
 62
     7
 10
50.907800000000002
 20
238.34200000000001
 30
0.0
 11
50.189799999999991
 21
238.34200000000001
 31
0.0
  0
ARC
  5
35F
  8
0
 62
     7
 10
48.946739000000001
 20
238.506406
 30
0.0
 40
1.967964
 50
355.20275299999997
 51
14.780169000000001
  0
LINE
  5
360
  8
0
 62
     7
 10
39.305999999999997
 20
225.07499999999999
 30
0.0
 11
38.5884
 21
225.07499999999999
 31
0.0
  0
LINE
  5
361
  8
0
 62
     7
 10
38.5884
 20
238.34200000000001
 30
0.0
 11
38.5884
 21
225.07499999999999
 31
0.0
  0
LINE
  5
362
  8
0
 62
     7
 10
38.646299999999997
 20
239.00800000000001
 30
0.0
 11
39.3643
 21
239.00800000000001
 31
0.0
  0
ARC
  5
363
  8
0
 62
     7
 10
40.568432000000001
 20
238.50574399999999
 30
0.0
 40
1.986791999999999
 50
165.343299
 51
184.73255399999999
  0
LINE
  5
364
  8
0
 62
     7
 10
39.305999999999997
 20
238.34200000000001
 30
0.0
 11
38.5884
 21
238.34200000000001
 31
0.0
  0
LINE
  5
365
  8
0
 62
     7
 10
48.273999999999987
 20
224.928
 30
0.0
 11
48.298499999999997
 21
224.94300000000001
 31
0.0
  0
LINE
  5
366
  8
0
 62
     7
 10
48.273999999999987
 20
224.94200000000001
 30
0.0
 11
48.273999999999987
 21
224.928
 31
0.0
  0
ARC
  5
367
  8
0
 62
     7
 10
53.147305000000003
 20
218.77006499999999
 30
0.0
 40
7.8529029999999986
 50
128.35787400000001
 51
129.884445
  0
ARC
  5
368
  8
0
 62
     7
 10
49.070669000000002
 20
223.68426199999999
 30
0.0
 40
1.4681189999999991
 50
130.78306000000001
 51
135.556195
  0
ARC
  5
369
  8
0
 62
     7
 10
48.872521999999989
 20
223.87687700000001
 30
0.0
 40
1.1917839999999991
 50
135.49712299999999
 51
146.15728999999999
  0
ARC
  5
36A
  8
0
 62
     7
 10
49.278230999999998
 20
223.587672
 30
0.0
 40
1.6898770000000001
 50
145.67380299999999
 51
150.85007999999999
  0
LINE
  5
36B
  8
0
 62
     7
 10
47.802399999999999
 20
224.411
 30
0.0
 11
47.801299999999991
 21
224.40799999999999
 31
0.0
  0
LINE
  5
36C
  8
0
 62
     7
 10
41.221899999999991
 20
224.928
 30
0.0
 11
41.221899999999991
 21
224.94200000000001
 31
0.0
  0
LINE
  5
36D
  8
0
 62
     7
 10
41.69489999999999
 20
224.40799999999999
 30
0.0
 11
41.6935
 21
224.411
 31
0.0
  0
ARC
  5
36E
  8
0
 62
     7
 10
40.34782899999999
 20
223.66047599999999
 30
0.0
 40
1.5407200000000001
 50
29.143505999999999
 51
43.051272999999988
  0
ARC
  5
36F
  8
0
 62
     7
 10
40.604767999999993
 20
223.87092799999999
 30
0.0
 40
1.2094910000000001
 50
44.075180999999994
 51
48.649545000000003
  0
ARC
  5
370
  8
0
 62
     7
 10
39.253365000000002
 20
222.33891800000001
 30
0.0
 40
3.252367
 50
48.608451000000002
 51
52.753126999999999
  0
LINE
  5
371
  8
0
 62
     7
 10
41.19769999999999
 20
224.94300000000001
 30
0.0
 11
41.221899999999991
 21
224.928
 31
0.0
  0
LINE
  5
372
  8
0
 62
     7
 10
50.189799999999991
 20
225.07499999999999
 30
0.0
 11
50.173000000000002
 21
225.07499999999999
 31
0.0
  0
LINE
  5
373
  8
0
 62
     7
 10
50.189799999999991
 20
238.34200000000001
 30
0.0
 11
50.189799999999991
 21
225.07499999999999
 31
0.0
  0
LINE
  5
374
  8
0
 62
     7
 10
48.9148
 20
239.00800000000001
 30
0.0
 11
50.131999999999998
 21
239.00800000000001
 31
0.0
  0
LINE
  5
375
  8
0
 62
     7
 10
49.581400000000002
 20
238.34200000000001
 30
0.0
 11
50.189799999999991
 21
238.34200000000001
 31
0.0
  0
ARC
  5
376
  8
0
 62
     7
 10
48.223013999999999
 20
238.506889
 30
0.0
 40
1.973746
 50
355.202765
 51
14.721382999999999
  0
LINE
  5
377
  8
0
 62
     7
 10
39.3643
 20
239.00800000000001
 30
0.0
 11
40.581400000000002
 21
239.00800000000001
 31
0.0
  0
ARC
  5
378
  8
0
 62
     7
 10
41.269170000000003
 20
238.506225
 30
0.0
 40
1.9700099999999989
 50
165.23007999999999
 51
184.78699800000001
  0
LINE
  5
379
  8
0
 62
     7
 10
39.305999999999997
 20
225.07499999999999
 30
0.0
 11
39.323300000000003
 21
225.07499999999999
 31
0.0
  0
LINE
  5
37A
  8
0
 62
     7
 10
39.305999999999997
 20
238.34200000000001
 30
0.0
 11
39.9148
 21
238.34200000000001
 31
0.0
  0
LINE
  5
37B
  8
0
 62
     7
 10
39.305999999999997
 20
225.07499999999999
 30
0.0
 11
39.305999999999997
 21
238.34200000000001
 31
0.0
  0
LINE
  5
37C
  8
0
 62
     7
 10
50.173000000000002
 20
225.07499999999999
 30
0.0
 11
50.125799999999991
 21
225.07499999999999
 31
0.0
  0
LINE
  5
37D
  8
0
 62
     7
 10
50.125799999999991
 20
225.07499999999999
 30
0.0
 11
50.119599999999998
 21
225.07499999999999
 31
0.0
  0
ARC
  5
37E
  8
0
 62
     7
 10
49.653210999999999
 20
226.306296
 30
0.0
 40
0.071839
 50
182.46422699999999
 51
202.77303599999999
  0
ARC
  5
37F
  8
0
 62
     7
 10
50.649645999999997
 20
226.63879900000009
 30
0.0
 40
1.1220959999999991
 50
198.72974099999999
 51
204.240275
  0
ARC
  5
380
  8
0
 62
     7
 10
56.481735999999991
 20
229.18771799999999
 30
0.0
 40
7.4868050000000004
 50
203.702584
 51
205.96878599999999
  0
ARC
  5
381
  8
0
 62
     7
 10
74.53604
 20
237.924496
 30
0.0
 40
27.543935000000001
 50
205.86272
 51
207.807894
  0
LINE
  5
382
  8
0
 62
     7
 10
39.3767
 20
225.07499999999999
 30
0.0
 11
39.323300000000003
 21
225.07499999999999
 31
0.0
  0
ARC
  5
383
  8
0
 62
     7
 10
10.80864
 20
239.99367100000001
 30
0.0
 40
32.181508000000001
 50
332.381753
 51
334.25655899999998
  0
ARC
  5
384
  8
0
 62
     7
 10
36.588909000000001
 20
227.567972
 30
0.0
 40
3.562981999999999
 50
334.175588
 51
338.33337899999998
  0
ARC
  5
385
  8
0
 62
     7
 10
39.767105999999998
 20
226.31833900000001
 30
0.0
 40
0.148451
 50
333.67208900000003
 51
354.14973800000001
  0
LINE
  5
386
  8
0
 62
     7
 10
49.581400000000002
 20
226.30799999999999
 30
0.0
 11
49.581400000000002
 21
226.303
 31
0.0
  0
ARC
  5
387
  8
0
 62
     7
 10
48.892544999999991
 20
226.326527
 30
0.0
 40
0.689288
 50
275.15079500000002
 51
358.06122099999999
  0
LINE
  5
388
  8
0
 62
     7
 10
39.9148
 20
226.303
 30
0.0
 11
39.9148
 21
226.30799999999999
 31
0.0
  0
ARC
  5
389
  8
0
 62
     7
 10
40.603974999999991
 20
226.326808
 30
0.0
 40
0.689595
 50
181.96131099999999
 51
264.82671400000009
  0
LINE
  5
38A
  8
0
 62
     7
 10
48.273999999999987
 20
224.94200000000001
 30
0.0
 11
47.801299999999991
 21
224.94200000000001
 31
0.0
  0
LINE
  5
38B
  8
0
 62
     7
 10
50.119599999999998
 20
225.07499999999999
 30
0.0
 11
48.768000000000001
 21
225.07499999999999
 31
0.0
  0
ARC
  5
38C
  8
0
 62
     7
 10
49.039578999999989
 20
225.744393
 30
0.0
 40
0.1347
 50
230.790693
 51
245.07755900000001
  0
ARC
  5
38D
  8
0
 62
     7
 10
51.177134000000002
 20
229.67272500000001
 30
0.0
 40
4.6066769999999986
 50
241.55377899999999
 51
244.22372799999999
  0
ARC
  5
38E
  8
0
 62
     7
 10
68.670290000000008
 20
265.33206300000001
 30
0.0
 40
44.325597999999992
 50
243.90599800000001
 51
245.259434
  0
ARC
  5
38F
  8
0
 62
     7
 10
48.94937800000001
 20
225.63490200000001
 30
0.0
 40
0.007191
 50
45.401356999999997
 51
88.201447000000002
  0
ARC
  5
390
  8
0
 62
     7
 10
50.225609000000013
 20
225.20677000000001
 30
0.0
 40
1.969465
 50
168.24560600000001
 51
187.72489999999999
  0
LINE
  5
391
  8
0
 62
     7
 10
48.298499999999997
 20
224.94300000000001
 30
0.0
 11
48.273999999999987
 21
224.94200000000001
 31
0.0
  0
ARC
  5
392
  8
0
 62
     7
 10
48.853512000000002
 20
223.13815700000001
 30
0.0
 40
1.938750999999999
 50
92.526558000000009
 51
97.043615000000003
  0
ARC
  5
393
  8
0
 62
     7
 10
48.740589999999997
 20
224.34200899999999
 30
0.0
 40
0.731003
 50
99.831362000000027
 51
113.456723
  0
ARC
  5
394
  8
0
 62
     7
 10
49.403306000000001
 20
222.729522
 30
0.0
 40
2.474264999999999
 50
112.67142800000001
 51
116.521136
  0
LINE
  5
395
  8
0
 62
     7
 10
41.69489999999999
 20
224.94200000000001
 30
0.0
 11
41.221899999999991
 21
224.94200000000001
 31
0.0
  0
ARC
  5
396
  8
0
 62
     7
 10
40.547235999999991
 20
225.63398699999999
 30
0.0
 40
0.008126
 50
94.360675000000001
 51
132.03648200000001
  0
ARC
  5
397
  8
0
 62
     7
 10
8.7188600000000012
 20
291.02306700000003
 30
0.0
 40
72.725820999999996
 50
294.93268799999998
 51
295.51257199999998
  0
ARC
  5
398
  8
0
 62
     7
 10
36.508647000000003
 20
233.02992599999999
 30
0.0
 40
8.4188460000000003
 50
294.81934200000001
 51
298.62416100000002
  0
LINE
  5
399
  8
0
 62
     7
 10
40.728200000000001
 20
225.07499999999999
 30
0.0
 11
39.3767
 21
225.07499999999999
 31
0.0
  0
ARC
  5
39A
  8
0
 62
     7
 10
39.198659999999997
 20
220.77251200000001
 30
0.0
 40
4.6252370000000003
 50
64.391932999999995
 51
66.452508999999992
  0
ARC
  5
39B
  8
0
 62
     7
 10
40.726216000000001
 20
224.24444099999999
 30
0.0
 40
0.8322510000000001
 50
67.367350999999999
 51
79.320057000000006
  0
ARC
  5
39C
  8
0
 62
     7
 10
40.770262000000002
 20
224.438447
 30
0.0
 40
0.6334850000000002
 50
79.98298299999999
 51
86.235367000000025
  0
ARC
  5
39D
  8
0
 62
     7
 10
40.631146000000001
 20
222.46564000000001
 30
0.0
 40
2.611186
 50
86.031631000000004
 51
87.870425999999995
  0
LINE
  5
39E
  8
0
 62
     7
 10
41.221899999999991
 20
224.94200000000001
 30
0.0
 11
41.19769999999999
 21
224.94300000000001
 31
0.0
  0
ARC
  5
39F
  8
0
 62
     7
 10
39.289625999999998
 20
225.208439
 30
0.0
 40
1.9505129999999999
 50
352.150125
 51
11.82016
  0
ARC
  5
3A0
  8
0
 62
     7
 10
48.425626999999999
 20
224.99473599999999
 30
0.0
 40
0.6265010000000001
 50
101.80624
 51
184.82478699999999
  0
ARC
  5
3A1
  8
0
 62
     7
 10
41.070650999999991
 20
224.994777
 30
0.0
 40
0.6264490000000001
 50
355.171042
 51
78.197931000000011
  0
ARC
  5
3A2
  8
0
 62
     7
 10
47.907777999999993
 20
225.00386399999999
 30
0.0
 40
0.6026699999999999
 50
107.805769
 51
188.761077
  0
ARC
  5
3A3
  8
0
 62
     7
 10
41.588678999999992
 20
225.00431699999999
 30
0.0
 40
0.6021670000000001
 50
351.18792999999999
 51
72.202293999999995
  0
ARC
  5
3A4
  8
0
 62
     7
 10
40.730012000000002
 20
235.69328999999999
 30
0.0
 40
10.922530999999999
 50
281.63251700000001
 51
283.0848529999999
  0
ARC
  5
3A5
  8
0
 62
     7
 10
42.192261000000002
 20
228.78174899999999
 30
0.0
 40
3.858301
 50
275.05355400000008
 51
281.059057
  0
ARC
  5
3A6
  8
0
 62
     7
 10
41.551814
 20
235.57260299999999
 30
0.0
 40
10.679245999999999
 50
273.39236399999999
 51
275.26694800000001
  0
LINE
  5
3A7
  8
0
 62
     7
 10
42.183700000000002
 20
224.91200000000001
 30
0.0
 11
42.009799999999998
 21
224.923
 31
0.0
  0
LINE
  5
3A8
  8
0
 62
     7
 10
42.009799999999998
 20
224.923
 30
0.0
 11
41.846499999999999
 21
224.93299999999999
 31
0.0
  0
LINE
  5
3A9
  8
0
 62
     7
 10
41.846499999999999
 20
224.93299999999999
 30
0.0
 11
41.69489999999999
 21
224.94200000000001
 31
0.0
  0
LINE
  5
3AA
  8
0
 62
     7
 10
41.69489999999999
 20
224.94200000000001
 30
0.0
 11
41.69489999999999
 21
224.40799999999999
 31
0.0
  0
LINE
  5
3AB
  8
0
 62
     7
 10
47.801299999999991
 20
224.40799999999999
 30
0.0
 11
47.801299999999991
 21
224.94200000000001
 31
0.0
  0
LINE
  5
3AC
  8
0
 62
     7
 10
47.801299999999991
 20
224.94200000000001
 30
0.0
 11
47.6494
 21
224.93299999999999
 31
0.0
  0
LINE
  5
3AD
  8
0
 62
     7
 10
47.6494
 20
224.93299999999999
 30
0.0
 11
47.486499999999999
 21
224.923
 31
0.0
  0
LINE
  5
3AE
  8
0
 62
     7
 10
47.486499999999999
 20
224.923
 30
0.0
 11
47.312099999999987
 21
224.91200000000001
 31
0.0
  0
ARC
  5
3AF
  8
0
 62
     7
 10
48.352634999999992
 20
241.06845000000001
 30
0.0
 40
16.189851000000001
 50
265.14079700000002
 51
266.31516499999998
  0
ARC
  5
3B0
  8
0
 62
     7
 10
47.374615000000013
 20
229.28032200000001
 30
0.0
 40
4.361311999999999
 50
259.28197
 51
264.82497699999999
  0
ARC
  5
3B1
  8
0
 62
     7
 10
47.388542999999991
 20
229.400882
 30
0.0
 40
4.4823669999999991
 50
255.858465
 51
259.39364799999998
  0
LINE
  5
3B2
  8
0
 62
     7
 10
48.581299999999999
 20
210.755
 30
0.0
 11
44.747900000000001
 21
210.755
 31
0.0
  0
LINE
  5
3B3
  8
0
 62
     7
 10
44.747900000000001
 20
210.755
 30
0.0
 11
40.9146
 21
210.755
 31
0.0
  0
ARC
  5
3B4
  8
0
 62
     7
 10
61.262464000000001
 20
238.13708500000001
 30
0.0
 40
20.462465000000002
 50
193.346452
 51
194.41359800000001
  0
ARC
  5
3B5
  8
0
 62
     7
 10
45.544418999999991
 20
234.388079
 30
0.0
 40
4.3035610000000002
 50
185.704375
 51
193.087827
  0
ARC
  5
3B6
  8
0
 62
     7
 10
44.327804
 20
234.21798100000001
 30
0.0
 40
3.0764429999999989
 50
163.44046399999999
 51
184.80424600000001
  0
ARC
  5
3B7
  8
0
 62
     7
 10
46.293935999999988
 20
233.700288
 30
0.0
 40
5.1089789999999988
 50
161.673903
 51
164.159887
  0
ARC
  5
3B8
  8
0
 62
     7
 10
48.889311999999997
 20
238.316328
 30
0.0
 40
0.692596
 50
2.109726999999999
 51
87.890263000000004
  0
ARC
  5
3B9
  8
0
 62
     7
 10
48.889488
 20
226.33184700000001
 30
0.0
 40
0.6923729999999999
 50
274.98109099999999
 51
358.000182
  0
ARC
  5
3BA
  8
0
 62
     7
 10
40.605953
 20
226.33110500000001
 30
0.0
 40
0.691565
 50
181.94060099999999
 51
265.07816500000001
  0
ARC
  5
3BB
  8
0
 62
     7
 10
40.607690999999988
 20
238.315549
 30
0.0
 40
0.6934050000000001
 50
92.171739000000017
 51
177.82823200000001
  0
LINE
  5
3BC
  8
0
 62
     7
 10
48.949599999999997
 20
226.30799999999999
 30
0.0
 11
49.581400000000002
 21
226.30799999999999
 31
0.0
  0
LINE
  5
3BD
  8
0
 62
     7
 10
49.581400000000002
 20
232.56399999999999
 30
0.0
 11
49.581400000000002
 21
226.30799999999999
 31
0.0
  0
LINE
  5
3BE
  8
0
 62
     7
 10
49.581400000000002
 20
238.34200000000001
 30
0.0
 11
49.581400000000002
 21
235.78700000000001
 31
0.0
  0
LINE
  5
3BF
  8
0
 62
     7
 10
49.581400000000002
 20
238.34200000000001
 30
0.0
 11
48.949599999999997
 21
238.34200000000001
 31
0.0
  0
LINE
  5
3C0
  8
0
 62
     7
 10
39.9148
 20
226.30799999999999
 30
0.0
 11
39.9148
 21
232.56399999999999
 31
0.0
  0
LINE
  5
3C1
  8
0
 62
     7
 10
39.9148
 20
226.30799999999999
 30
0.0
 11
40.546599999999998
 21
226.30799999999999
 31
0.0
  0
LINE
  5
3C2
  8
0
 62
     7
 10
40.546599999999998
 20
238.34200000000001
 30
0.0
 11
39.9148
 21
238.34200000000001
 31
0.0
  0
LINE
  5
3C3
  8
0
 62
     7
 10
39.9148
 20
235.78700000000001
 30
0.0
 11
39.9148
 21
238.34200000000001
 31
0.0
  0
LINE
  5
3C4
  8
0
 62
     7
 10
48.949599999999997
 20
237.13300000000001
 30
0.0
 11
48.949599999999997
 21
238.34200000000001
 31
0.0
  0
LINE
  5
3C5
  8
0
 62
     7
 10
40.546599999999998
 20
238.34200000000001
 30
0.0
 11
40.546599999999998
 21
237.13300000000001
 31
0.0
  0
LINE
  5
3C6
  8
0
 62
     7
 10
39.9148
 20
232.56399999999999
 30
0.0
 11
40.2104
 21
232.56399999999999
 31
0.0
  0
LINE
  5
3C7
  8
0
 62
     7
 10
39.9148
 20
235.78700000000001
 30
0.0
 11
40.2104
 21
235.78700000000001
 31
0.0
  0
LINE
  5
3C8
  8
0
 62
     7
 10
39.9148
 20
232.56399999999999
 30
0.0
 11
39.9148
 21
233.89699999999999
 31
0.0
  0
LINE
  5
3C9
  8
0
 62
     7
 10
39.9148
 20
233.89699999999999
 30
0.0
 11
39.9148
 21
234.84100000000001
 31
0.0
  0
LINE
  5
3CA
  8
0
 62
     7
 10
39.9148
 20
234.84100000000001
 30
0.0
 11
39.9148
 21
235.78700000000001
 31
0.0
  0
LINE
  5
3CB
  8
0
 62
     7
 10
49.285800000000002
 20
235.78700000000001
 30
0.0
 11
49.581400000000002
 21
235.78700000000001
 31
0.0
  0
LINE
  5
3CC
  8
0
 62
     7
 10
49.285800000000002
 20
232.56399999999999
 30
0.0
 11
49.581400000000002
 21
232.56399999999999
 31
0.0
  0
LINE
  5
3CD
  8
0
 62
     7
 10
49.581400000000002
 20
235.78700000000001
 30
0.0
 11
49.581400000000002
 21
234.453
 31
0.0
  0
LINE
  5
3CE
  8
0
 62
     7
 10
49.581400000000002
 20
234.453
 30
0.0
 11
49.581400000000002
 21
233.50899999999999
 31
0.0
  0
LINE
  5
3CF
  8
0
 62
     7
 10
49.581400000000002
 20
233.50899999999999
 30
0.0
 11
49.581400000000002
 21
232.56399999999999
 31
0.0
  0
LINE
  5
3D0
  8
0
 62
     7
 10
48.949599999999997
 20
225.642
 30
0.0
 11
47.723500000000001
 21
225.578
 31
0.0
  0
ARC
  5
3D1
  8
0
 62
     7
 10
45.763806000000002
 20
225.97488799999999
 30
0.0
 40
3.2031329999999998
 50
354.03633600000001
 51
5.9636639999999987
  0
ARC
  5
3D2
  8
0
 62
     7
 10
52.165531000000001
 20
307.542509
 30
0.0
 40
82.120252000000008
 50
266.05396100000002
 51
266.27679999999998
  0
ARC
  5
3D3
  8
0
 62
     7
 10
47.38226199999999
 20
235.601516
 30
0.0
 40
10.021004
 50
266.85755699999999
 51
268.38964700000002
  0
ARC
  5
3D4
  8
0
 62
     7
 10
47.637189999999997
 20
246.188571
 30
0.0
 40
20.611086
 50
268.508331
 51
270.23990199999997
  0
ARC
  5
3D5
  8
0
 62
     7
 10
43.764532000000003
 20
225.97488799999999
 30
0.0
 40
3.2350769999999991
 50
174.09541299999989
 51
185.90458699999999
  0
LINE
  5
3D6
  8
0
 62
     7
 10
41.7727
 20
225.578
 30
0.0
 11
40.546599999999998
 21
225.642
 31
0.0
  0
ARC
  5
3D7
  8
0
 62
     7
 10
41.617941999999999
 20
276.13021900000001
 30
0.0
 40
50.552790000000002
 50
270.17545100000001
 51
270.76270099999999
  0
ARC
  5
3D8
  8
0
 62
     7
 10
42.087189000000002
 20
236.209193
 30
0.0
 40
10.629237
 50
271.097915
 51
273.10699099999999
  0
ARC
  5
3D9
  8
0
 62
     7
 10
42.101131000000002
 20
236.37064599999999
 30
0.0
 40
10.789721
 50
272.98659800000001
 51
274.682682
  0
ARC
  5
3DA
  8
0
 62
     7
 10
47.512078000000002
 20
224.90062900000001
 30
0.0
 40
1.2283159999999991
 50
144.32649799999999
 51
172.810564
  0
ARC
  5
3DB
  8
0
 62
     7
 10
43.368324000000001
 20
203.69270900000001
 30
0.0
 40
21.560983
 50
82.202852000000007
 51
83.319494999999975
  0
ARC
  5
3DC
  8
0
 62
     7
 10
45.254075
 20
219.62275199999999
 30
0.0
 40
5.519760999999999
 50
83.524636000000001
 51
89.392542000000006
  0
ARC
  5
3DD
  8
0
 62
     7
 10
45.310420000000001
 20
220.88190399999999
 30
0.0
 40
4.2602989999999989
 50
89.970756999999992
 51
92.326031999999984
  0
ARC
  5
3DE
  8
0
 62
     7
 10
45.601126999999998
 20
213.98379
 30
0.0
 40
11.164533
 50
92.379919999999998
 51
94.382774999999995
  0
LINE
  5
3DF
  8
0
 62
     7
 10
48.949599999999997
 20
238.34200000000001
 30
0.0
 11
47.768300000000004
 21
238.34200000000001
 31
0.0
  0
ARC
  5
3E0
  8
0
 62
     7
 10
45.71499699999999
 20
238.507214
 30
0.0
 40
3.2388330000000001
 50
357.07296500000001
 51
8.9028759999999991
  0
LINE
  5
3E1
  8
0
 62
     7
 10
46.412999999999997
 20
239.00800000000001
 30
0.0
 11
48.9148
 21
239.00800000000001
 31
0.0
  0
LINE
  5
3E2
  8
0
 62
     7
 10
41.727899999999991
 20
238.34200000000001
 30
0.0
 11
40.546599999999998
 21
238.34200000000001
 31
0.0
  0
LINE
  5
3E3
  8
0
 62
     7
 10
40.581400000000002
 20
239.00800000000001
 30
0.0
 11
43.083300000000001
 21
239.00800000000001
 31
0.0
  0
ARC
  5
3E4
  8
0
 62
     7
 10
43.770887000000002
 20
238.50775300000001
 30
0.0
 40
3.228534999999999
 50
171.078169
 51
182.945989
  0
ARC
  5
3E5
  8
0
 62
     7
 10
41.984735000000001
 20
224.90085999999999
 30
0.0
 40
1.2277020000000001
 50
7.1821369999999991
 51
35.680760999999997
  0
ARC
  5
3E6
  8
0
 62
     7
 10
43.066368999999987
 20
200.37533199999999
 30
0.0
 40
24.797425
 50
86.111648000000002
 51
86.941904000000008
  0
ARC
  5
3E7
  8
0
 62
     7
 10
44.177067000000001
 20
220.41288499999999
 30
0.0
 40
4.7293229999999991
 50
87.428290000000004
 51
89.920497999999995
  0
ARC
  5
3E8
  8
0
 62
     7
 10
44.192081000000002
 20
220.63743600000001
 30
0.0
 40
4.5047750000000004
 50
90.107493999999988
 51
95.540393999999978
  0
ARC
  5
3E9
  8
0
 62
     7
 10
44.788415000000001
 20
214.23170999999999
 30
0.0
 40
10.938179
 50
95.409912000000006
 51
98.335020000000014
  0
ARC
  5
3EA
  8
0
 62
     7
 10
45.297302000000002
 20
238.74470099999999
 30
0.0
 40
1.146415999999999
 50
357.46105799999998
 51
13.301133
  0
LINE
  5
3EB
  8
0
 62
     7
 10
44.747900000000001
 20
239.00800000000001
 30
0.0
 11
44.8964
 21
239.00800000000001
 31
0.0
  0
LINE
  5
3EC
  8
0
 62
     7
 10
44.8964
 20
239.00800000000001
 30
0.0
 11
45.839399999999998
 21
239.00800000000001
 31
0.0
  0
LINE
  5
3ED
  8
0
 62
     7
 10
45.839399999999998
 20
239.00800000000001
 30
0.0
 11
46.412999999999997
 21
239.00800000000001
 31
0.0
  0
ARC
  5
3EE
  8
0
 62
     7
 10
44.19027899999999
 20
238.74551500000001
 30
0.0
 40
1.1378189999999999
 50
166.63861900000001
 51
182.59918899999991
  0
LINE
  5
3EF
  8
0
 62
     7
 10
43.083300000000001
 20
239.00800000000001
 30
0.0
 11
43.656899999999993
 21
239.00800000000001
 31
0.0
  0
LINE
  5
3F0
  8
0
 62
     7
 10
43.656899999999993
 20
239.00800000000001
 30
0.0
 11
44.599499999999999
 21
239.00800000000001
 31
0.0
  0
LINE
  5
3F1
  8
0
 62
     7
 10
44.599499999999999
 20
239.00800000000001
 30
0.0
 11
44.747900000000001
 21
239.00800000000001
 31
0.0
  0
ARC
  5
3F2
  8
0
 62
     7
 10
48.545865999999997
 20
169.90338199999999
 30
0.0
 40
55.784426000000003
 50
93.207391000000001
 51
93.903831999999994
  0
ARC
  5
3F3
  8
0
 62
     7
 10
46.207796999999992
 20
210.93713099999999
 30
0.0
 40
14.684189
 50
90.514127000000002
 51
93.056980999999993
  0
ARC
  5
3F4
  8
0
 62
     7
 10
46.169201000000001
 20
211.05554599999999
 30
0.0
 40
14.565481
 50
88.642550999999983
 51
90.366488999999987
  0
ARC
  5
3F5
  8
0
 62
     7
 10
38.652715000000001
 20
225.71544800000001
 30
0.0
 40
7.8621530000000002
 50
359.28210200000001
 51
3.383969
  0
LINE
  5
3F6
  8
0
 62
     7
 10
48.949599999999997
 20
226.30799999999999
 30
0.0
 11
48.949599999999997
 21
231.21799999999999
 31
0.0
  0
ARC
  5
3F7
  8
0
 62
     7
 10
70.200745999999995
 20
-14.102179
 30
0.0
 40
241.44618
 50
95.758815999999996
 51
96.051247000000018
  0
ARC
  5
3F8
  8
0
 62
     7
 10
59.612991000000001
 20
95.71951700000001
 30
0.0
 40
131.117255
 50
95.739206999999993
 51
95.970899999999986
  0
LINE
  5
3F9
  8
0
 62
     7
 10
46.501199999999997
 20
226.18000000000001
 30
0.0
 11
48.949599999999997
 21
226.30799999999999
 31
0.0
  0
ARC
  5
3FA
  8
0
 62
     7
 10
50.850012999999997
 20
225.715296
 30
0.0
 40
7.8686559999999988
 50
176.617707
 51
180.71622300000001
  0
ARC
  5
3FB
  8
0
 62
     7
 10
40.801563999999992
 20
109.601575
 30
0.0
 40
116.035853
 50
88.475487000000001
 51
88.923293000000015
  0
ARC
  5
3FC
  8
0
 62
     7
 10
43.001131999999998
 20
196.448126
 30
0.0
 40
29.161738
 50
87.440262999999987
 51
88.255991000000009
  0
ARC
  5
3FD
  8
0
 62
     7
 10
42.914288999999997
 20
193.588686
 30
0.0
 40
32.022229000000003
 50
86.717336000000003
 51
87.513529999999989
  0
LINE
  5
3FE
  8
0
 62
     7
 10
40.546599999999998
 20
231.21799999999999
 30
0.0
 11
40.546599999999998
 21
226.30799999999999
 31
0.0
  0
LINE
  5
3FF
  8
0
 62
     7
 10
40.546599999999998
 20
226.30799999999999
 30
0.0
 11
42.995100000000001
 21
226.18000000000001
 31
0.0
  0
ARC
  5
400
  8
0
 62
     7
 10
56.634343000000008
 20
356.58544999999998
 30
0.0
 40
131.117255
 50
264.02910000000003
 51
264.26079299999998
  0
ARC
  5
401
  8
0
 62
     7
 10
16.228634
 20
-43.676389999999998
 30
0.0
 40
271.178877
 50
83.963152000000008
 51
84.223448000000005
  0
ARC
  5
402
  8
0
 62
     7
 10
-3.8368899999999999
 20
229.30630300000001
 30
0.0
 40
53.516531999999998
 50
6.305591999999999
 51
6.9549719999999997
  0
ARC
  5
403
  8
0
 62
     7
 10
37.856434
 20
233.95503500000001
 30
0.0
 40
11.564940999999999
 50
2.477948
 51
6.1006099999999996
  0
ARC
  5
404
  8
0
 62
     7
 10
41.183252000000003
 20
234.15078099999999
 30
0.0
 40
8.2329329999999992
 50
355.54121600000002
 51
2.117947
  0
ARC
  5
405
  8
0
 62
     7
 10
39.766865000000003
 20
234.23232300000001
 30
0.0
 40
9.6514160000000011
 50
354.120698
 51
355.7122950000001
  0
ARC
  5
406
  8
0
 62
     7
 10
27.809532000000001
 20
235.48772600000001
 30
0.0
 40
21.67446
 50
352.24671699999999
 51
354.0573290000001
  0
ARC
  5
407
  8
0
 62
     7
 10
93.594866000000025
 20
239.07585800000001
 30
0.0
 40
53.780222999999999
 50
186.30892800000001
 51
186.95496399999999
  0
ARC
  5
408
  8
0
 62
     7
 10
51.626150000000003
 20
234.39418000000001
 30
0.0
 40
11.551285
 50
182.477442
 51
186.10342900000001
  0
ARC
  5
409
  8
0
 62
     7
 10
48.332246000000012
 20
234.19897
 30
0.0
 40
8.2521889999999996
 50
175.54810699999999
 51
182.11190999999999
  0
ARC
  5
40A
  8
0
 62
     7
 10
49.876484999999988
 20
234.10684499999999
 30
0.0
 40
9.798960000000001
 50
174.14459400000001
 51
175.71194199999999
  0
ARC
  5
40B
  8
0
 62
     7
 10
60.993008999999986
 20
232.94415599999999
 30
0.0
 40
20.976112000000001
 50
172.21199799999999
 51
174.083032
  0
ARC
  5
40C
  8
0
 62
     7
 10
44.701988
 20
234.164648
 30
0.0
 40
5.181786999999999
 50
34.943193000000001
 51
53.719213000000003
  0
ARC
  5
40D
  8
0
 62
     7
 10
44.797300999999997
 20
234.161652
 30
0.0
 40
5.1860160000000004
 50
126.28849200000001
 51
145.04906199999999
  0
ARC
  5
40E
  8
0
 62
     7
 10
50.726497999999999
 20
182.69726499999999
 30
0.0
 40
56.519888999999999
 50
97.229214999999996
 51
97.802280000000025
  0
ARC
  5
40F
  8
0
 62
     7
 10
44.890685999999988
 20
228.390004
 30
0.0
 40
10.456078
 50
92.778694000000002
 51
97.012878000000015
  0
ARC
  5
410
  8
0
 62
     7
 10
44.809941999999999
 20
227.62078500000001
 30
0.0
 40
11.221098
 50
90.316584999999975
 51
92.176478999999986
  0
ARC
  5
411
  8
0
 62
     7
 10
42.534089000000002
 20
187.591725
 30
0.0
 40
51.297781000000001
 50
86.849952999999999
 51
87.526517999999996
  0
ARC
  5
412
  8
0
 62
     7
 10
44.680078000000002
 20
227.31662800000001
 30
0.0
 40
11.515045000000001
 50
83.017976000000004
 51
86.650078000000008
  0
ARC
  5
413
  8
0
 62
     7
 10
44.560744
 20
226.93991700000001
 30
0.0
 40
11.903689999999999
 50
80.903969000000004
 51
82.668254000000005
  0
ARC
  5
414
  8
0
 62
     7
 10
27.901751000000001
 20
236.23412500000001
 30
0.0
 40
21.696815000000001
 50
349.64509199999998
 51
350.26043700000002
  0
ARC
  5
415
  8
0
 62
     7
 10
42.825817999999991
 20
233.56659200000001
 30
0.0
 40
6.5365979999999997
 50
344.55349999999999
 51
349.132836
  0
ARC
  5
416
  8
0
 62
     7
 10
31.569966000000001
 20
236.59870100000001
 30
0.0
 40
18.193607
 50
342.796582
 51
344.790572
  0
ARC
  5
417
  8
0
 62
     7
 10
49.37422999999999
 20
232.94452000000001
 30
0.0
 40
0.390966
 50
206.28022000000001
 51
256.93471499999998
  0
ARC
  5
418
  8
0
 62
     7
 10
40.119471999999988
 20
232.947701
 30
0.0
 40
0.394639
 50
283.31741099999999
 51
333.467693
  0
ARC
  5
419
  8
0
 62
     7
 10
78.433820999999995
 20
242.644961
 30
0.0
 40
39.573009999999996
 50
196.05037799999991
 51
196.784041
  0
ARC
  5
41A
  8
0
 62
     7
 10
48.360397999999989
 20
233.96040500000001
 30
0.0
 40
8.2708119999999994
 50
191.33917199999999
 51
195.833833
  0
ARC
  5
41B
  8
0
 62
     7
 10
47.779645000000002
 20
233.78645299999999
 30
0.0
 40
7.667400999999999
 50
189.17659
 51
190.91792100000001
  0
ARC
  5
41C
  8
0
 62
     7
 10
49.377001999999997
 20
235.40223800000001
 30
0.0
 40
0.395005
 50
103.342213
 51
153.44285199999999
  0
ARC
  5
41D
  8
0
 62
     7
 10
38.564383999999997
 20
233.56441699999999
 30
0.0
 40
10.981104
 50
18.148344000000002
 51
18.961783
  0
ARC
  5
41E
  8
0
 62
     7
 10
43.313575999999991
 20
235.13460000000001
 30
0.0
 40
5.9791049999999997
 50
13.226729000000001
 51
18.025677999999999
  0
ARC
  5
41F
  8
0
 62
     7
 10
37.856397999999999
 20
233.79859300000001
 30
0.0
 40
11.597318
 50
11.580550000000001
 51
13.483317
  0
ARC
  5
420
  8
0
 62
     7
 10
4.4087239999999994
 20
226.96305599999999
 30
0.0
 40
45.736319000000002
 50
11.123336
 51
11.557903
  0
ARC
  5
421
  8
0
 62
     7
 10
51.805625999999997
 20
232.77110099999999
 30
0.0
 40
5.2133900000000004
 50
123.21787
 51
130.23739800000001
  0
ARC
  5
422
  8
0
 62
     7
 10
40.120083999999999
 20
235.40332699999999
 30
0.0
 40
0.3937469999999999
 50
26.471571000000012
 51
76.743324000000001
  0
ARC
  5
423
  8
0
 62
     7
 10
37.750983000000012
 20
232.852035
 30
0.0
 40
5.1126040000000001
 50
49.693303999999998
 51
56.851388
  0
ARC
  5
424
  8
0
 62
     7
 10
77.863461000000001
 20
228.35092599999999
 30
0.0
 40
38.380254000000001
 50
168.06678099999999
 51
168.829059
  0
ARC
  5
425
  8
0
 62
     7
 10
47.980950999999997
 20
234.63439299999999
 30
0.0
 40
7.8443459999999998
 50
162.564607
 51
167.83915099999999
  0
ARC
  5
426
  8
0
 62
     7
 10
45.487481000000002
 20
235.39189400000001
 30
0.0
 40
5.2385250000000001
 50
160.592319
 51
162.29751400000001
  0
ARC
  5
427
  8
0
 62
     7
 10
50.750984000000003
 20
235.959958
 30
0.0
 40
3.8170480000000002
 50
141.39059
 51
151.11074099999999
  0
ARC
  5
428
  8
0
 62
     7
 10
44.461644999999997
 20
227.79267300000001
 30
0.0
 40
11.079768
 50
78.265031999999991
 51
79.700727999999998
  0
ARC
  5
429
  8
0
 62
     7
 10
45.348364999999987
 20
232.231527
 30
0.0
 40
6.5534369999999997
 50
73.404196999999996
 51
77.962446999999983
  0
ARC
  5
42A
  8
0
 62
     7
 10
41.864961999999991
 20
220.29212999999999
 30
0.0
 40
18.990538999999998
 50
71.889203000000009
 51
73.620854000000008
  0
ARC
  5
42B
  8
0
 62
     7
 10
45.982922999999992
 20
238.80888899999999
 30
0.0
 40
0.4738300000000001
 50
304.26011699999998
 51
345.957224
  0
ARC
  5
42C
  8
0
 62
     7
 10
38.756754000000001
 20
235.96765199999999
 30
0.0
 40
3.8032489999999992
 50
28.871562999999998
 51
38.627065999999999
  0
ARC
  5
42D
  8
0
 62
     7
 10
43.514414000000002
 20
238.80966599999999
 30
0.0
 40
0.475099
 50
194.10107099999999
 51
235.68162699999999
  0
ARC
  5
42E
  8
0
 62
     7
 10
55.086514999999999
 20
196.48617999999999
 30
0.0
 40
43.935706000000003
 50
107.052904
 51
107.700889
  0
ARC
  5
42F
  8
0
 62
     7
 10
44.492108999999992
 20
230.88083399999999
 30
0.0
 40
7.9464880000000004
 50
102.436459
 51
106.74849399999999
  0
ARC
  5
430
  8
0
 62
     7
 10
44.422066000000001
 20
230.9281
 30
0.0
 40
7.8854619999999986
 50
99.993636000000024
 51
102.013424
  0
ARC
  5
431
  8
0
 62
     7
 10
51.745238999999998
 20
235.498221
 30
0.0
 40
5.1126040000000001
 50
229.69332399999999
 51
236.85140800000011
  0
ARC
  5
432
  8
0
 62
     7
 10
44.667077999999997
 20
234.26287099999999
 30
0.0
 40
5.254834999999999
 50
270.88170400000001
 51
324.58426300000002
  0
ARC
  5
433
  8
0
 62
     7
 10
37.720635999999999
 20
235.538894
 30
0.0
 40
5.1632530000000001
 50
303.18376499999999
 51
310.27154200000001
  0
ARC
  5
434
  8
0
 62
     7
 10
44.829500000000003
 20
234.26353399999999
 30
0.0
 40
5.2555089999999991
 50
215.4194040000001
 51
269.11079899999999
  0
ARC
  5
435
  8
0
 62
     7
 10
44.74794
 20
234.17495500000001
 30
0.0
 40
4.500013
 50
90.0
 51
179.99996999999999
  0
ARC
  5
436
  8
0
 62
     7
 10
44.747765999999999
 20
234.175127
 30
0.0
 40
4.4998389999999988
 50
180.00220300000001
 51
270.00221299999998
  0
ARC
  5
437
  8
0
 62
     7
 10
44.748111000000002
 20
234.175129
 30
0.0
 40
4.4998409999999991
 50
269.99782699999997
 51
359.99779700000011
  0
ARC
  5
438
  8
0
 62
     7
 10
44.747937999999991
 20
234.17495500000001
 30
0.0
 40
4.500013
 50
0.00001
 51
89.999980000000008
  0
ARC
  5
439
  8
0
 62
     7
 10
44.748111999999999
 20
234.175127
 30
0.0
 40
3.4924879999999989
 50
90.002826000000013
 51
180.002836
  0
ARC
  5
43A
  8
0
 62
     7
 10
44.747939000000002
 20
234.17495500000001
 30
0.0
 40
3.4923150000000001
 50
179.99996999999999
 51
270.00002000000001
  0
ARC
  5
43B
  8
0
 62
     7
 10
44.748111000000002
 20
234.175129
 30
0.0
 40
3.4924879999999989
 50
269.99719399999998
 51
359.997164
  0
ARC
  5
43C
  8
0
 62
     7
 10
44.747939000000002
 20
234.17495500000001
 30
0.0
 40
3.492659999999999
 50
0.00001
 51
89.999980000000008
  0
LINE
  5
43D
  8
0
 62
     7
 10
53.481299999999997
 20
209.17500000000001
 30
0.0
 11
53.747999999999998
 21
209.17500000000001
 31
0.0
  0
LINE
  5
43E
  8
0
 62
     7
 10
53.747999999999998
 20
209.17500000000001
 30
0.0
 11
53.747999999999998
 21
141.00899999999999
 31
0.0
  0
ARC
  5
43F
  8
0
 62
     7
 10
52.883246
 20
141.03998000000001
 30
0.0
 40
0.865285
 50
272.09873299999998
 51
357.92496799999998
  0
LINE
  5
440
  8
0
 62
     7
 10
52.914900000000003
 20
140.17500000000001
 30
0.0
 11
36.581299999999999
 21
140.17500000000001
 31
0.0
  0
LINE
  5
441
  8
0
 62
     7
 10
53.481299999999997
 20
209.17500000000001
 30
0.0
 11
36.014899999999997
 21
209.17500000000001
 31
0.0
  0
ARC
  5
442
  8
0
 62
     7
 10
36.613683000000002
 20
141.04068599999999
 30
0.0
 40
0.8660159999999999
 50
182.12003999999999
 51
267.85629899999998
  0
LINE
  5
443
  8
0
 62
     7
 10
36.014899999999997
 20
209.17500000000001
 30
0.0
 11
35.7483
 21
209.17500000000001
 31
0.0
  0
LINE
  5
444
  8
0
 62
     7
 10
35.7483
 20
209.17500000000001
 30
0.0
 11
35.7483
 21
141.00899999999999
 31
0.0
  0
LINE
  5
445
  8
0
 62
     7
 10
52.914900000000003
 20
210.17500000000001
 30
0.0
 11
53.581200000000003
 21
210.17500000000001
 31
0.0
  0
LINE
  5
446
  8
0
 62
     7
 10
53.581200000000003
 20
210.17500000000001
 30
0.0
 11
53.581200000000003
 21
209.17500000000001
 31
0.0
  0
LINE
  5
447
  8
0
 62
     7
 10
36.581299999999999
 20
210.17500000000001
 30
0.0
 11
52.914900000000003
 21
210.17500000000001
 31
0.0
  0
LINE
  5
448
  8
0
 62
     7
 10
52.914900000000003
 20
209.17500000000001
 30
0.0
 11
52.914900000000003
 21
210.17500000000001
 31
0.0
  0
LINE
  5
449
  8
0
 62
     7
 10
35.914700000000011
 20
210.17500000000001
 30
0.0
 11
36.581299999999999
 21
210.17500000000001
 31
0.0
  0
LINE
  5
44A
  8
0
 62
     7
 10
36.581299999999999
 20
210.17500000000001
 30
0.0
 11
36.581299999999999
 21
209.17500000000001
 31
0.0
  0
LINE
  5
44B
  8
0
 62
     7
 10
35.914700000000011
 20
209.17500000000001
 30
0.0
 11
35.914700000000011
 21
210.17500000000001
 31
0.0
  0
LINE
  5
44C
  8
0
 62
     7
 10
37.914900000000003
 20
225.07499999999999
 30
0.0
 11
37.914900000000003
 21
210.17500000000001
 31
0.0
  0
LINE
  5
44D
  8
0
 62
     7
 10
39.581299999999999
 20
210.17500000000001
 30
0.0
 11
39.581299999999999
 21
225.07499999999999
 31
0.0
  0
LINE
  5
44E
  8
0
 62
     7
 10
49.9146
 20
225.07499999999999
 30
0.0
 11
49.9146
 21
210.17500000000001
 31
0.0
  0
LINE
  5
44F
  8
0
 62
     7
 10
51.581299999999992
 20
210.17500000000001
 30
0.0
 11
51.581299999999992
 21
225.07499999999999
 31
0.0
  0
LINE
  5
450
  8
0
 62
     7
 10
54.9148
 20
238.00800000000001
 30
0.0
 11
54.9148
 21
239.00800000000001
 31
0.0
  0
LINE
  5
451
  8
0
 62
     7
 10
34.581400000000002
 20
239.00800000000001
 30
0.0
 11
34.581400000000002
 21
238.00800000000001
 31
0.0
  0
ARC
  5
452
  8
0
 62
     7
 10
51.889319999999998
 20
238.316328
 30
0.0
 40
0.692596
 50
2.109726999999999
 51
87.890263000000004
  0
LINE
  5
453
  8
0
 62
     7
 10
52.581400000000002
 20
225.07499999999999
 30
0.0
 11
52.581400000000002
 21
238.34200000000001
 31
0.0
  0
ARC
  5
454
  8
0
 62
     7
 10
37.607683000000002
 20
238.315549
 30
0.0
 40
0.6934050000000001
 50
92.171739000000017
 51
177.82823200000001
  0
LINE
  5
455
  8
0
 62
     7
 10
36.9148
 20
238.34200000000001
 30
0.0
 11
36.9148
 21
225.07499999999999
 31
0.0
  0
ARC
  5
456
  8
0
 62
     7
 10
49.274233000000002
 20
224.38211100000001
 30
0.0
 40
0.6934110000000001
 50
92.172173999999998
 51
177.82779600000001
  0
ARC
  5
457
  8
0
 62
     7
 10
40.222429999999989
 20
224.38289599999999
 30
0.0
 40
0.692596
 50
2.109726999999999
 51
87.890263000000004
  0
LINE
  5
458
  8
0
 62
     7
 10
40.9146
 20
224.40799999999999
 30
0.0
 11
40.9146
 21
210.755
 31
0.0
  0
LINE
  5
459
  8
0
 62
     7
 10
48.581299999999999
 20
210.755
 30
0.0
 11
48.581299999999999
 21
224.40799999999999
 31
0.0
  0
LINE
  5
45A
  8
0
 62
     7
 10
42.248199999999997
 20
210.755
 30
0.0
 11
42.248199999999997
 21
210.17500000000001
 31
0.0
  0
LINE
  5
45B
  8
0
 62
     7
 10
47.248100000000001
 20
210.17500000000001
 30
0.0
 11
47.248100000000001
 21
210.755
 31
0.0
  0
LINE
  5
45C
  8
0
 62
     7
 10
153.83099999999999
 20
93.638999999999996
 30
0.0
 11
153.83099999999999
 21
95.123500000000007
 31
0.0
  0
LINE
  5
45D
  8
0
 62
     7
 10
153.83099999999999
 20
90.488100000000017
 30
0.0
 11
153.83099999999999
 21
91.972199999999987
 31
0.0
  0
LINE
  5
45E
  8
0
 62
     7
 10
73.286299999999997
 20
93.566599999999994
 30
0.0
 11
73.345699999999994
 21
93.556299999999993
 31
0.0
  0
LINE
  5
45F
  8
0
 62
     7
 10
73.345699999999994
 20
93.556299999999993
 30
0.0
 11
73.522199999999984
 21
93.525299999999987
 31
0.0
  0
LINE
  5
460
  8
0
 62
     7
 10
73.522199999999984
 20
93.525299999999987
 30
0.0
 11
73.812200000000004
 21
93.473999999999975
 31
0.0
  0
LINE
  5
461
  8
0
 62
     7
 10
73.812200000000004
 20
93.473999999999975
 30
0.0
 11
74.209000000000003
 21
93.403999999999996
 31
0.0
  0
LINE
  5
462
  8
0
 62
     7
 10
74.209000000000003
 20
93.403999999999996
 30
0.0
 11
74.703800000000001
 21
93.316900000000004
 31
0.0
  0
LINE
  5
463
  8
0
 62
     7
 10
74.703800000000001
 20
93.316900000000004
 30
0.0
 11
75.285499999999999
 21
93.214200000000005
 31
0.0
  0
LINE
  5
464
  8
0
 62
     7
 10
75.285499999999999
 20
93.214200000000005
 30
0.0
 11
75.941199999999995
 21
93.098799999999983
 31
0.0
  0
LINE
  5
465
  8
0
 62
     7
 10
75.941199999999995
 20
93.098799999999983
 30
0.0
 11
76.656099999999995
 21
92.972700000000003
 31
0.0
  0
LINE
  5
466
  8
0
 62
     7
 10
76.656099999999995
 20
92.972700000000003
 30
0.0
 11
77.414500000000004
 21
92.838700000000003
 31
0.0
  0
LINE
  5
467
  8
0
 62
     7
 10
77.414500000000004
 20
92.838700000000003
 30
0.0
 11
78.199299999999994
 21
92.700500000000005
 31
0.0
  0
LINE
  5
468
  8
0
 62
     7
 10
78.199299999999994
 20
92.700500000000005
 30
0.0
 11
78.992699999999999
 21
92.560699999999997
 31
0.0
  0
LINE
  5
469
  8
0
 62
     7
 10
78.992699999999999
 20
92.560699999999997
 30
0.0
 11
79.777500000000003
 21
92.422200000000004
 31
0.0
  0
LINE
  5
46A
  8
0
 62
     7
 10
79.777500000000003
 20
92.422200000000004
 30
0.0
 11
80.535799999999995
 21
92.288499999999985
 31
0.0
  0
LINE
  5
46B
  8
0
 62
     7
 10
80.535799999999995
 20
92.288499999999985
 30
0.0
 11
81.250900000000001
 21
92.162400000000005
 31
0.0
  0
LINE
  5
46C
  8
0
 62
     7
 10
81.250900000000001
 20
92.162400000000005
 30
0.0
 11
81.906599999999983
 21
92.046599999999998
 31
0.0
  0
LINE
  5
46D
  8
0
 62
     7
 10
81.906599999999983
 20
92.046599999999998
 30
0.0
 11
82.488299999999995
 21
91.943999999999988
 31
0.0
  0
LINE
  5
46E
  8
0
 62
     7
 10
82.488299999999995
 20
91.943999999999988
 30
0.0
 11
82.983099999999979
 21
91.856800000000007
 31
0.0
  0
LINE
  5
46F
  8
0
 62
     7
 10
82.983099999999979
 20
91.856800000000007
 30
0.0
 11
83.379900000000006
 21
91.786900000000017
 31
0.0
  0
LINE
  5
470
  8
0
 62
     7
 10
83.379900000000006
 20
91.786900000000017
 30
0.0
 11
83.669799999999995
 21
91.735900000000001
 31
0.0
  0
LINE
  5
471
  8
0
 62
     7
 10
83.669799999999995
 20
91.735900000000001
 30
0.0
 11
83.846400000000003
 21
91.704499999999996
 31
0.0
  0
LINE
  5
472
  8
0
 62
     7
 10
83.846400000000003
 20
91.704499999999996
 30
0.0
 11
83.905699999999996
 21
91.694199999999995
 31
0.0
  0
LINE
  5
473
  8
0
 62
     7
 10
168.09700000000001
 20
97.2774
 30
0.0
 11
168.09800000000001
 21
97.268400000000014
 31
0.0
  0
ARC
  5
474
  8
0
 62
     7
 10
168.75771499999999
 20
97.275660999999999
 30
0.0
 40
0.660148
 50
180.62958800000001
 51
200.819346
  0
ARC
  5
475
  8
0
 62
     7
 10
168.699952
 20
97.270734000000004
 30
0.0
 40
0.604616
 50
202.32861199999999
 51
208.50695099999999
  0
ARC
  5
476
  8
0
 62
     7
 10
169.238966
 20
97.574763000000004
 30
0.0
 40
1.223422
 50
208.97133700000009
 51
217.163723
  0
LINE
  5
477
  8
0
 62
     7
 10
168.43100000000001
 20
96.394000000000005
 30
0.0
 11
168.43100000000001
 21
96.384400000000014
 31
0.0
  0
LINE
  5
478
  8
0
 62
     7
 10
168.43100000000001
 20
96.384400000000014
 30
0.0
 11
168.43100000000001
 21
96.273499999999984
 31
0.0
  0
LINE
  5
479
  8
0
 62
     7
 10
168.43100000000001
 20
96.273499999999984
 30
0.0
 11
168.43100000000001
 21
96.217600000000004
 31
0.0
  0
LINE
  5
47A
  8
0
 62
     7
 10
168.43100000000001
 20
96.394000000000005
 30
0.0
 11
168.43100000000001
 21
96.402999999999992
 31
0.0
  0
ARC
  5
47B
  8
0
 62
     7
 10
167.773156
 20
96.395991000000009
 30
0.0
 40
0.6576310000000002
 50
0.610115
 51
21.523230999999999
  0
ARC
  5
47C
  8
0
 62
     7
 10
167.766065
 20
96.396612000000005
 30
0.0
 40
0.664007
 50
21.248971000000001
 51
40.648276000000003
  0
ARC
  5
47D
  8
0
 62
     7
 10
168.17395400000001
 20
96.749234999999999
 30
0.0
 40
0.124842
 50
39.804203000000001
 51
43.836128000000002
  0
ARC
  5
47E
  8
0
 62
     7
 10
168.05133599999999
 20
96.975536000000005
 30
0.0
 40
0.254524
 50
316.96306900000002
 51
326.67424299999999
  0
ARC
  5
47F
  8
0
 62
     7
 10
168.175804
 20
96.868985999999992
 30
0.0
 40
0.091106
 50
265.449701
 51
312.514184
  0
ARC
  5
480
  8
0
 62
     7
 10
168.16986199999999
 20
97.078812999999997
 30
0.0
 40
0.300649
 50
259.72031399999997
 51
269.75491599999998
  0
LINE
  5
481
  8
0
 62
     7
 10
154.5379999999999
 20
96.638999999999996
 30
0.0
 11
154.54499999999999
 21
96.638999999999996
 31
0.0
  0
ARC
  5
482
  8
0
 62
     7
 10
154.53793300000001
 20
97.309277000000023
 30
0.0
 40
0.670332
 50
270.62155999999999
 51
290.742031
  0
ARC
  5
483
  8
0
 62
     7
 10
154.515963
 20
97.317284000000015
 30
0.0
 40
0.6858290000000001
 50
292.22175700000003
 51
306.632048
  0
ARC
  5
484
  8
0
 62
     7
 10
153.891839
 20
98.290159000000017
 30
0.0
 40
1.8406679999999991
 50
304.15226699999999
 51
306.266344
  0
ARC
  5
485
  8
0
 62
     7
 10
157.065583
 20
94.321986999999979
 30
0.0
 40
3.2430769999999991
 50
129.44515100000001
 51
130.00702899999999
  0
ARC
  5
486
  8
0
 62
     7
 10
155.405417
 20
96.335943
 30
0.0
 40
0.6330710000000001
 50
108.88933
 51
129.219852
  0
ARC
  5
487
  8
0
 62
     7
 10
155.37910299999999
 20
96.376343000000006
 30
0.0
 40
0.5864460000000001
 50
100.92171500000001
 51
107.73465
  0
ARC
  5
488
  8
0
 62
     7
 10
155.52121600000001
 20
95.607680000000016
 30
0.0
 40
1.3681259999999991
 50
94.202658999999997
 51
100.666342
  0
ARC
  5
489
  8
0
 62
     7
 10
154.64324400000001
 20
96.510020999999995
 30
0.0
 40
0.4488890000000001
 50
34.010257000000003
 51
41.263351
  0
ARC
  5
48A
  8
0
 62
     7
 10
154.84951699999999
 20
96.661326000000003
 30
0.0
 40
0.193531
 50
359.09732400000001
 51
31.034915999999999
  0
ARC
  5
48B
  8
0
 62
     7
 10
154.35918599999999
 20
96.642626000000007
 30
0.0
 40
0.684017
 50
353.82496700000002
 51
1.311134
  0
ARC
  5
48C
  8
0
 62
     7
 10
154.530045
 20
96.943638000000007
 30
0.0
 40
0.632132
 50
265.154247
 51
323.65963699999998
  0
ARC
  5
48D
  8
0
 62
     7
 10
168.47948400000001
 20
97.311110999999997
 30
0.0
 40
0.640998
 50
176.670874
 51
235.47743399999999
  0
ARC
  5
48E
  8
0
 62
     7
 10
154.37000499999999
 20
96.301896999999997
 30
0.0
 40
0.647819
 50
266.84607999999997
 51
346.51318400000002
  0
LINE
  5
48F
  8
0
 62
     7
 10
154.364
 20
94.862700000000004
 30
0.0
 11
154.364
 21
95.123500000000007
 31
0.0
  0
ARC
  5
490
  8
0
 62
     7
 10
154.43337199999999
 20
95.761072999999996
 30
0.0
 40
0.6413220000000001
 50
263.82035100000002
 51
338.55075299999999
  0
LINE
  5
491
  8
0
 62
     7
 10
154.364
 20
90.488100000000017
 30
0.0
 11
154.364
 21
90.748900000000006
 31
0.0
  0
ARC
  5
492
  8
0
 62
     7
 10
154.432997
 20
89.85005799999999
 30
0.0
 40
0.641698
 50
21.44316400000001
 51
96.142356000000007
  0
LINE
  5
493
  8
0
 62
     7
 10
154.17699999999999
 20
88.972600000000014
 30
0.0
 11
154.185
 21
88.972200000000001
 31
0.0
  0
ARC
  5
494
  8
0
 62
     7
 10
154.17968099999999
 20
88.321661000000006
 30
0.0
 40
0.6505830000000001
 50
77.180934999999991
 51
89.514871999999997
  0
ARC
  5
495
  8
0
 62
     7
 10
154.16923499999999
 20
88.287303000000009
 30
0.0
 40
0.686407
 50
58.186418999999987
 51
76.967015000000004
  0
ARC
  5
496
  8
0
 62
     7
 10
154.177156
 20
88.305036999999984
 30
0.0
 40
0.6671660000000002
 50
38.654057999999999
 51
57.961638999999991
  0
ARC
  5
497
  8
0
 62
     7
 10
154.189537
 20
88.311752999999996
 30
0.0
 40
0.653308
 50
19.151161999999999
 51
38.872357999999998
  0
ARC
  5
498
  8
0
 62
     7
 10
154.258072
 20
88.349700999999996
 30
0.0
 40
0.576272
 50
11.256710999999999
 51
17.822247999999998
  0
ARC
  5
499
  8
0
 62
     7
 10
153.49334099999999
 20
88.204068000000007
 30
0.0
 40
1.354735
 50
4.3123189999999996
 51
10.984004000000001
  0
LINE
  5
49A
  8
0
 62
     7
 10
154.364
 20
94.862700000000004
 30
0.0
 11
154.34999999999999
 21
94.862700000000004
 31
0.0
  0
LINE
  5
49B
  8
0
 62
     7
 10
154.34999999999999
 20
90.748900000000006
 30
0.0
 11
154.364
 21
90.748900000000006
 31
0.0
  0
LINE
  5
49C
  8
0
 62
     7
 10
140.17699999999999
 20
93.638999999999996
 30
0.0
 11
140.17699999999999
 21
96.638999999999996
 31
0.0
  0
LINE
  5
49D
  8
0
 62
     7
 10
140.17699999999999
 20
88.972600000000014
 30
0.0
 11
140.17699999999999
 21
91.972199999999987
 31
0.0
  0
ARC
  5
49E
  8
0
 62
     7
 10
154.17454799999999
 20
88.995009999999979
 30
0.0
 40
0.022537
 50
275.16534799999999
 51
320.98377599999998
  0
ARC
  5
49F
  8
0
 62
     7
 10
154.109274
 20
89.050438999999997
 30
0.0
 40
0.108165
 50
319.93804799999998
 51
339.74125600000002
  0
ARC
  5
4A0
  8
0
 62
     7
 10
153.760053
 20
89.193173999999999
 30
0.0
 40
0.4853800000000001
 50
338.20847900000001
 51
346.69729899999999
  0
ARC
  5
4A1
  8
0
 62
     7
 10
152.612357
 20
89.475565000000003
 30
0.0
 40
1.6672919999999991
 50
346.328396
 51
351.156813
  0
ARC
  5
4A2
  8
0
 62
     7
 10
149.58468999999999
 20
89.960400000000007
 30
0.0
 40
4.733522999999999
 50
350.99188400000003
 51
353.95122500000008
  0
ARC
  5
4A3
  8
0
 62
     7
 10
143.259793
 20
90.646908999999994
 30
0.0
 40
11.095559
 50
353.86757
 51
355.78272600000003
  0
ARC
  5
4A4
  8
0
 62
     7
 10
131.904246
 20
91.492273999999995
 30
0.0
 40
22.482527999999999
 50
355.76233200000001
 51
357.43998099999999
  0
LINE
  5
4A5
  8
0
 62
     7
 10
154.364
 20
90.488100000000017
 30
0.0
 11
153.83099999999999
 21
90.488100000000017
 31
0.0
  0
LINE
  5
4A6
  8
0
 62
     7
 10
153.83099999999999
 20
95.123500000000007
 30
0.0
 11
154.364
 21
95.123500000000007
 31
0.0
  0
ARC
  5
4A7
  8
0
 62
     7
 10
123.39393
 20
93.643888000000004
 30
0.0
 40
31.005728999999999
 50
2.7351860000000001
 51
3.7190720000000002
  0
ARC
  5
4A8
  8
0
 62
     7
 10
162.89435
 20
94.961053000000007
 30
0.0
 40
8.5880740000000007
 50
173.674813
 51
175.36483200000001
  0
ARC
  5
4A9
  8
0
 62
     7
 10
156.174936
 20
95.689168000000009
 30
0.0
 40
1.8294220000000001
 50
168.22596999999999
 51
173.15487300000001
  0
ARC
  5
4AA
  8
0
 62
     7
 10
155.285259
 20
95.874709999999979
 30
0.0
 40
0.920603
 50
160.51295200000001
 51
168.232043
  0
ARC
  5
4AB
  8
0
 62
     7
 10
155.26962700000001
 20
95.878368999999992
 30
0.0
 40
0.904648
 50
151.230435
 51
160.40115399999999
  0
ARC
  5
4AC
  8
0
 62
     7
 10
148.871422
 20
98.411762999999993
 30
0.0
 40
5.9849930000000002
 50
339.47947299999998
 51
341.45068300000003
  0
ARC
  5
4AD
  8
0
 62
     7
 10
154.18485699999999
 20
96.631152
 30
0.0
 40
0.381146
 50
341.11904299999998
 51
354.90430900000001
  0
ARC
  5
4AE
  8
0
 62
     7
 10
154.50612799999999
 20
96.597634999999997
 30
0.0
 40
0.05837
 50
359.66933799999998
 51
20.940352000000001
  0
ARC
  5
4AF
  8
0
 62
     7
 10
154.52352500000001
 20
96.600208999999992
 30
0.0
 40
0.041378
 50
26.228891999999998
 51
69.568611000000004
  0
ARC
  5
4B0
  8
0
 62
     7
 10
158.23093899999989
 20
99.092988000000005
 30
0.0
 40
2.130271
 50
275.38749100000001
 51
279.16142400000001
  0
ARC
  5
4B1
  8
0
 62
     7
 10
158.46178900000001
 20
97.598561000000004
 30
0.0
 40
0.6182340000000001
 50
280.09123099999999
 51
287.8306740000001
  0
ARC
  5
4B2
  8
0
 62
     7
 10
158.47311400000001
 20
97.563051000000002
 30
0.0
 40
0.580962
 50
287.83973500000002
 51
310.02939700000002
  0
ARC
  5
4B3
  8
0
 62
     7
 10
158.41606899999999
 20
97.651668000000015
 30
0.0
 40
0.6856370000000001
 50
308.91652800000003
 51
327.69918799999999
  0
ARC
  5
4B4
  8
0
 62
     7
 10
158.42850300000001
 20
97.640455000000017
 30
0.0
 40
0.669142
 50
327.94185299999998
 51
347.21159999999998
  0
ARC
  5
4B5
  8
0
 62
     7
 10
158.43503100000001
 20
97.639689000000004
 30
0.0
 40
0.6626060000000001
 50
347.15129400000001
 51
359.26408300000008
  0
LINE
  5
4B6
  8
0
 62
     7
 10
159.09800000000001
 20
97.631200000000007
 30
0.0
 11
159.09800000000001
 21
97.639799999999994
 31
0.0
  0
ARC
  5
4B7
  8
0
 62
     7
 10
158.44949299999999
 20
96.974906000000004
 30
0.0
 40
0.018748
 50
188.524518
 51
223.92814200000001
  0
ARC
  5
4B8
  8
0
 62
     7
 10
158.48921999999999
 20
97.013365000000007
 30
0.0
 40
0.074041
 50
224.03524999999999
 51
246.137404
  0
ARC
  5
4B9
  8
0
 62
     7
 10
158.60834700000001
 20
97.267007000000007
 30
0.0
 40
0.35425
 50
245.11271199999999
 51
255.77011100000001
  0
ARC
  5
4BA
  8
0
 62
     7
 10
158.861187
 20
98.203870999999992
 30
0.0
 40
1.3246020000000001
 50
255.13045299999999
 51
260.30230899999998
  0
ARC
  5
4BB
  8
0
 62
     7
 10
159.31183200000001
 20
100.77351899999999
 30
0.0
 40
3.9334579999999999
 50
260.13699200000002
 51
263.39365900000001
  0
ARC
  5
4BC
  8
0
 62
     7
 10
160.00436099999999
 20
106.573998
 30
0.0
 40
9.7751179999999991
 50
263.27290800000009
 51
265.24649799999997
  0
ARC
  5
4BD
  8
0
 62
     7
 10
160.91374300000001
 20
117.363191
 30
0.0
 40
20.602563
 50
265.21267899999998
 51
266.66898200000003
  0
ARC
  5
4BE
  8
0
 62
     7
 10
162.018078
 20
136.18069700000001
 30
0.0
 40
39.452446000000002
 50
266.65578900000003
 51
267.9982
  0
LINE
  5
4BF
  8
0
 62
     7
 10
155.42099999999999
 20
96.972099999999998
 30
0.0
 11
158.43100000000001
 21
96.972099999999998
 31
0.0
  0
ARC
  5
4C0
  8
0
 62
     7
 10
134.488933
 20
55.400780000000012
 30
0.0
 40
46.543810999999998
 50
63.098936999999992
 51
63.273806999999991
  0
ARC
  5
4C1
  8
0
 62
     7
 10
106.256388
 20
0.106927
 30
0.0
 40
108.628237
 50
62.982679000000012
 51
63.014698000000003
  0
ARC
  5
4C2
  8
0
 62
     7
 10
165.038813
 20
138.367604
 30
0.0
 40
41.642881000000003
 50
272.08640700000012
 51
273.75239699999997
  0
ARC
  5
4C3
  8
0
 62
     7
 10
167.88454299999989
 20
97.461359999999985
 30
0.0
 40
0.6584690000000001
 50
178.38323199999999
 51
259.46218699999997
  0
LINE
  5
4C4
  8
0
 62
     7
 10
168.43100000000001
 20
96.217600000000004
 30
0.0
 11
168.43100000000001
 21
96.086400000000012
 31
0.0
  0
ARC
  5
4C5
  8
0
 62
     7
 10
167.75268299999999
 20
96.210564000000005
 30
0.0
 40
0.6781040000000002
 50
0.598476
 51
57.581848999999991
  0
ARC
  5
4C6
  8
0
 62
     7
 10
167.85718
 20
95.995066000000008
 30
0.0
 40
0.82941
 50
71.801715000000002
 51
75.620721000000003
  0
ARC
  5
4C7
  8
0
 62
     7
 10
167.95709500000001
 20
96.313710000000015
 30
0.0
 40
0.496249
 50
77.659317999999999
 51
84.528093999999996
  0
ARC
  5
4C8
  8
0
 62
     7
 10
167.87506400000001
 20
95.477812000000014
 30
0.0
 40
1.3361620000000001
 50
84.444531999999995
 51
89.776114000000007
  0
ARC
  5
4C9
  8
0
 62
     7
 10
167.81981099999999
 20
88.215484000000004
 30
0.0
 40
8.598692999999999
 50
89.597034999999991
 51
90.371084999999994
  0
LINE
  5
4CA
  8
0
 62
     7
 10
167.76400000000001
 20
96.752300000000005
 30
0.0
 11
167.76400000000001
 21
96.813999999999993
 31
0.0
  0
ARC
  5
4CB
  8
0
 62
     7
 10
115.41998599999999
 20
93.915740999999997
 30
0.0
 40
39.643031000000001
 50
2.3287399999999998
 51
3.2320439999999988
  0
ARC
  5
4CC
  8
0
 62
     7
 10
154.841454
 20
88.322898999999992
 30
0.0
 40
0.017191
 50
279.327675
 51
319.25617999999997
  0
ARC
  5
4CD
  8
0
 62
     7
 10
154.79688999999999
 20
88.364637999999999
 30
0.0
 40
0.078238
 50
317.398167
 51
338.53639700000002
  0
ARC
  5
4CE
  8
0
 62
     7
 10
154.49420900000001
 20
88.493212
 30
0.0
 40
0.407072
 50
337.28310800000003
 51
347.29897599999998
  0
ARC
  5
4CF
  8
0
 62
     7
 10
153.27215200000001
 20
88.785494
 30
0.0
 40
1.6635699999999991
 50
346.73259300000001
 51
351.809258
  0
ARC
  5
4D0
  8
0
 62
     7
 10
149.804194
 20
89.306731999999997
 30
0.0
 40
5.1704589999999993
 50
351.56719299999997
 51
354.34256199999999
  0
ARC
  5
4D1
  8
0
 62
     7
 10
142.25944999999999
 20
90.069180000000003
 30
0.0
 40
12.753624
 50
354.27531199999999
 51
356.096566
  0
ARC
  5
4D2
  8
0
 62
     7
 10
126.590166
 20
91.147431000000012
 30
0.0
 40
28.459962000000001
 50
356.07832500000001
 51
357.85990299999997
  0
LINE
  5
4D3
  8
0
 62
     7
 10
154.84399999999999
 20
88.305899999999994
 30
0.0
 11
154.84399999999999
 21
85.737899999999996
 31
0.0
  0
LINE
  5
4D4
  8
0
 62
     7
 10
167.76400000000001
 20
85.072299999999984
 30
0.0
 11
155.50999999999999
 21
85.072299999999984
 31
0.0
  0
LINE
  5
4D5
  8
0
 62
     7
 10
168.43100000000001
 20
85.958399999999997
 30
0.0
 11
168.43100000000001
 21
85.739999999999995
 31
0.0
  0
LINE
  5
4D6
  8
0
 62
     7
 10
167.76400000000001
 20
85.072299999999984
 30
0.0
 11
167.76400000000001
 21
85.292500000000004
 31
0.0
  0
ARC
  5
4D7
  8
0
 62
     7
 10
167.73855900000001
 20
85.764499000000001
 30
0.0
 40
0.6926230000000001
 50
272.11488200000002
 51
357.97388999999998
  0
LINE
  5
4D8
  8
0
 62
     7
 10
155.06399999999999
 20
96.086400000000012
 30
0.0
 11
155.0
 21
96.150800000000004
 31
0.0
  0
LINE
  5
4D9
  8
0
 62
     7
 10
155.602
 20
96.880499999999998
 30
0.0
 11
155.72999999999999
 21
96.752300000000005
 31
0.0
  0
ARC
  5
4DA
  8
0
 62
     7
 10
155.61015599999999
 20
96.201580000000007
 30
0.0
 40
0.678959
 50
90.703292000000005
 51
147.23296300000001
  0
ARC
  5
4DB
  8
0
 62
     7
 10
156.47563099999999
 20
96.164559999999994
 30
0.0
 40
1.492262
 50
164.27278899999999
 51
167.65468799999999
  0
ARC
  5
4DC
  8
0
 62
     7
 10
155.75357500000001
 20
96.347397999999998
 30
0.0
 40
0.748204
 50
169.510684
 51
175.14479900000001
  0
ARC
  5
4DD
  8
0
 62
     7
 10
157.538128
 20
96.201831999999996
 30
0.0
 40
2.5386809999999991
 50
175.28014400000001
 51
181.15159299999999
  0
LINE
  5
4DE
  8
0
 62
     7
 10
155.72999999999999
 20
85.292500000000004
 30
0.0
 11
155.50999999999999
 21
85.072299999999984
 31
0.0
  0
LINE
  5
4DF
  8
0
 62
     7
 10
154.84399999999999
 20
85.737899999999996
 30
0.0
 11
155.06399999999999
 21
85.958399999999997
 31
0.0
  0
ARC
  5
4E0
  8
0
 62
     7
 10
155.53528800000001
 20
85.763394999999988
 30
0.0
 40
0.6915160000000001
 50
182.109228
 51
267.89080200000001
  0
ARC
  5
4E1
  8
0
 62
     7
 10
164.875247
 20
128.43508299999999
 30
0.0
 40
31.044301000000001
 50
272.396162
 51
274.34337099999999
  0
ARC
  5
4E2
  8
0
 62
     7
 10
166.45283499999999
 20
88.170646000000005
 30
0.0
 40
9.3413710000000005
 50
83.746021999999996
 51
85.250243999999995
  0
ARC
  5
4E3
  8
0
 62
     7
 10
167.26773399999999
 20
95.779735000000002
 30
0.0
 40
1.6888989999999999
 50
77.931668000000002
 51
83.106426999999996
  0
ARC
  5
4E4
  8
0
 62
     7
 10
167.45457400000001
 20
96.645968999999994
 30
0.0
 40
0.8027469999999999
 50
68.61833
 51
78.045860000000005
  0
ARC
  5
4E5
  8
0
 62
     7
 10
167.45738399999999
 20
96.683470999999997
 30
0.0
 40
0.7668810000000002
 50
60.108375000000002
 51
67.792288999999997
  0
ARC
  5
4E6
  8
0
 62
     7
 10
169.681454
 20
101.796036
 30
0.0
 40
4.8140000000000001
 50
247.504536
 51
249.72966199999999
  0
ARC
  5
4E7
  8
0
 62
     7
 10
168.09228100000001
 20
97.473280000000017
 30
0.0
 40
0.208504
 50
247.842343
 51
267.58120000000002
  0
ARC
  5
4E8
  8
0
 62
     7
 10
168.08217099999999
 20
97.280276000000001
 30
0.0
 40
0.01537
 50
274.89272900000009
 51
349.08170700000011
  0
ARC
  5
4E9
  8
0
 62
     7
 10
159.1167439999999
 20
97.640011999999999
 30
0.0
 40
0.019163
 50
180.65955199999999
 51
221.07427999999999
  0
ARC
  5
4EA
  8
0
 62
     7
 10
159.15124599999999
 20
97.668237000000005
 30
0.0
 40
0.063733
 50
219.82340099999999
 51
243.746769
  0
ARC
  5
4EB
  8
0
 62
     7
 10
159.258544
 20
97.867984000000007
 30
0.0
 40
0.290444
 50
242.193296
 51
253.91422600000001
  0
ARC
  5
4EC
  8
0
 62
     7
 10
159.48122100000001
 20
98.592083999999986
 30
0.0
 40
1.0479780000000001
 50
253.1855810000001
 51
259.01162699999998
  0
ARC
  5
4ED
  8
0
 62
     7
 10
159.88239100000001
 20
100.604277
 30
0.0
 40
3.0997629999999998
 50
258.82176700000002
 51
262.4878240000001
  0
ARC
  5
4EE
  8
0
 62
     7
 10
160.49168399999999
 20
105.09367
 30
0.0
 40
7.6303009999999993
 50
262.35916900000001
 51
264.59701799999999
  0
ARC
  5
4EF
  8
0
 62
     7
 10
161.28662499999999
 20
113.37268
 30
0.0
 40
15.947383
 50
264.55442599999998
 51
266.21774099999999
  0
ARC
  5
4F0
  8
0
 62
     7
 10
162.24831800000001
 20
127.722257
 30
0.0
 40
30.329146999999999
 50
266.19313099999999
 51
267.682096
  0
LINE
  5
4F1
  8
0
 62
     7
 10
159.09800000000001
 20
100.40600000000001
 30
0.0
 11
168.09700000000001
 21
100.40600000000001
 31
0.0
  0
ARC
  5
4F2
  8
0
 62
     7
 10
155.088089
 20
97.530632999999995
 30
0.0
 40
2.768108999999999
 50
251.647111
 51
254.54011199999999
  0
ARC
  5
4F3
  8
0
 62
     7
 10
154.54542900000001
 20
95.836147999999994
 30
0.0
 40
0.9891200000000001
 50
245.455341
 51
250.57636400000001
  0
ARC
  5
4F4
  8
0
 62
     7
 10
154.60456500000001
 20
95.953533999999976
 30
0.0
 40
1.1204750000000001
 50
240.500338
 51
245.19817900000001
  0
ARC
  5
4F5
  8
0
 62
     7
 10
155.060734
 20
96.762311999999994
 30
0.0
 40
2.049027999999999
 50
233.19237100000001
 51
240.53463300000001
  0
LINE
  5
4F6
  8
0
 62
     7
 10
153.833
 20
95.121799999999979
 30
0.0
 11
153.83099999999999
 21
95.123500000000007
 31
0.0
  0
ARC
  5
4F7
  8
0
 62
     7
 10
155.088089
 20
88.080916000000002
 30
0.0
 40
2.768108999999999
 50
105.45988800000001
 51
108.352889
  0
ARC
  5
4F8
  8
0
 62
     7
 10
154.54542900000001
 20
89.775401000000002
 30
0.0
 40
0.9891200000000001
 50
109.423636
 51
114.544659
  0
ARC
  5
4F9
  8
0
 62
     7
 10
154.60456500000001
 20
89.658015000000006
 30
0.0
 40
1.1204750000000001
 50
114.801821
 51
119.499662
  0
ARC
  5
4FA
  8
0
 62
     7
 10
155.048723
 20
88.871521999999999
 30
0.0
 40
2.0237180000000001
 50
119.479662
 51
126.919229
  0
LINE
  5
4FB
  8
0
 62
     7
 10
153.833
 20
90.489500000000007
 30
0.0
 11
153.83099999999999
 21
90.488100000000017
 31
0.0
  0
LINE
  5
4FC
  8
0
 62
     7
 10
154.36600000000001
 20
90.751299999999986
 30
0.0
 11
154.34999999999999
 21
90.748900000000006
 31
0.0
  0
LINE
  5
4FD
  8
0
 62
     7
 10
154.34999999999999
 20
94.862700000000004
 30
0.0
 11
154.36600000000001
 21
94.860600000000005
 31
0.0
  0
ARC
  5
4FE
  8
0
 62
     7
 10
166.810654
 20
97.341268999999997
 30
0.0
 40
0.6420819999999999
 50
173.14325199999999
 51
246.525194
  0
ARC
  5
4FF
  8
0
 62
     7
 10
172.34777199999999
 20
68.191000000000003
 30
0.0
 40
29.919001999999999
 50
103.172022
 51
104.21437899999999
  0
ARC
  5
500
  8
0
 62
     7
 10
167.084101
 20
90.293327000000005
 30
0.0
 40
7.1992640000000003
 50
100.76874599999999
 51
102.46685100000001
  0
ARC
  5
501
  8
0
 62
     7
 10
166.35745199999999
 20
94.089186999999995
 30
0.0
 40
3.3344839999999989
 50
95.382520999999997
 51
100.68948399999999
  0
ARC
  5
502
  8
0
 62
     7
 10
166.43552399999999
 20
92.727830000000026
 30
0.0
 40
4.6974279999999986
 50
93.201729999999998
 51
94.772965999999997
  0
ARC
  5
503
  8
0
 62
     7
 10
160.38404299999999
 20
97.34135400000001
 30
0.0
 40
0.642219
 50
293.48389800000001
 51
6.8476550000000014
  0
ARC
  5
504
  8
0
 62
     7
 10
159.551973
 20
82.919077999999999
 30
0.0
 40
14.573148
 50
82.962029999999999
 51
84.211850999999996
  0
ARC
  5
505
  8
0
 62
     7
 10
160.823666
 20
93.550872999999996
 30
0.0
 40
3.8658559999999991
 50
80.087005000000005
 51
82.360731999999985
  0
ARC
  5
506
  8
0
 62
     7
 10
160.82400200000001
 20
93.589072999999999
 30
0.0
 40
3.828174999999999
 50
77.449208999999996
 51
79.993535999999992
  0
ARC
  5
507
  8
0
 62
     7
 10
159.42186799999999
 20
87.305176000000003
 30
0.0
 40
10.266601
 50
75.489513999999986
 51
77.431864000000004
  0
ARC
  5
508
  8
0
 62
     7
 10
151.52053599999999
 20
55.287497999999992
 30
0.0
 40
43.244315999999991
 50
75.711107999999996
 51
75.983667999999994
  0
ARC
  5
509
  8
0
 62
     7
 10
155.75783999999999
 20
96.058886000000001
 30
0.0
 40
0.6940020000000001
 50
92.300690999999986
 51
177.728928
  0
LINE
  5
50A
  8
0
 62
     7
 10
166.55500000000001
 20
96.752300000000005
 30
0.0
 11
167.76400000000001
 21
96.752300000000005
 31
0.0
  0
ARC
  5
50B
  8
0
 62
     7
 10
166.984274
 20
81.327730000000003
 30
0.0
 40
15.430574999999999
 50
91.594579999999979
 51
92.143657999999988
  0
ARC
  5
50C
  8
0
 62
     7
 10
166.74481399999999
 20
87.63409200000001
 30
0.0
 40
9.119669
 50
92.122296999999989
 51
96.045537000000024
  0
ARC
  5
50D
  8
0
 62
     7
 10
168.99677399999999
 20
64.712035
 30
0.0
 40
32.151893999999999
 50
95.734226000000007
 51
96.765867000000014
  0
LINE
  5
50E
  8
0
 62
     7
 10
155.72999999999999
 20
96.752300000000005
 30
0.0
 11
160.63999999999999
 21
96.752300000000005
 31
0.0
  0
LINE
  5
50F
  8
0
 62
     7
 10
155.72999999999999
 20
96.752300000000005
 30
0.0
 11
155.72999999999999
 21
96.086400000000012
 31
0.0
  0
ARC
  5
510
  8
0
 62
     7
 10
158.04387700000001
 20
62.206441000000012
 30
0.0
 40
34.658496
 50
83.468978000000007
 51
83.850619999999992
  0
ARC
  5
511
  8
0
 62
     7
 10
160.045894
 20
80.205963999999994
 30
0.0
 40
16.548200999999999
 50
84.066580000000002
 51
85.258329000000003
  0
ARC
  5
512
  8
0
 62
     7
 10
158.53845999999999
 20
61.583787000000001
 30
0.0
 40
35.231273999999999
 50
85.318652999999983
 51
86.580338999999995
  0
ARC
  5
513
  8
0
 62
     7
 10
167.73853600000001
 20
96.060088000000007
 30
0.0
 40
0.692713
 50
2.175802
 51
87.883438999999996
  0
LINE
  5
514
  8
0
 62
     7
 10
167.76400000000001
 20
96.086400000000012
 30
0.0
 11
167.76400000000001
 21
96.752300000000005
 31
0.0
  0
LINE
  5
515
  8
0
 62
     7
 10
168.43100000000001
 20
96.086400000000012
 30
0.0
 11
168.43100000000001
 21
95.359099999999984
 31
0.0
  0
LINE
  5
516
  8
0
 62
     7
 10
167.76400000000001
 20
96.086400000000012
 30
0.0
 11
168.43100000000001
 21
96.086400000000012
 31
0.0
  0
ARC
  5
517
  8
0
 62
     7
 10
154.51733999999999
 20
95.463418000000004
 30
0.0
 40
1.2126549999999989
 50
355.06617999999997
 51
0.281097
  0
LINE
  5
518
  8
0
 62
     7
 10
167.76400000000001
 20
95.359099999999984
 30
0.0
 11
167.76400000000001
 21
96.086400000000012
 31
0.0
  0
LINE
  5
519
  8
0
 62
     7
 10
167.76400000000001
 20
96.086400000000012
 30
0.0
 11
165.209
 21
96.086400000000012
 31
0.0
  0
LINE
  5
51A
  8
0
 62
     7
 10
161.98599999999999
 20
96.086400000000012
 30
0.0
 11
155.72999999999999
 21
96.086400000000012
 31
0.0
  0
LINE
  5
51B
  8
0
 62
     7
 10
155.06399999999999
 20
96.086400000000012
 30
0.0
 11
155.72999999999999
 21
96.086400000000012
 31
0.0
  0
LINE
  5
51C
  8
0
 62
     7
 10
155.06399999999999
 20
95.469399999999993
 30
0.0
 11
155.06399999999999
 21
96.086400000000012
 31
0.0
  0
LINE
  5
51D
  8
0
 62
     7
 10
155.06399999999999
 20
95.469399999999993
 30
0.0
 11
155.72999999999999
 21
95.469399999999993
 31
0.0
  0
LINE
  5
51E
  8
0
 62
     7
 10
155.72999999999999
 20
96.086400000000012
 30
0.0
 11
155.72999999999999
 21
95.469399999999993
 31
0.0
  0
ARC
  5
51F
  8
0
 62
     7
 10
154.40486999999999
 20
90.143557999999999
 30
0.0
 40
1.3251109999999999
 50
359.925633
 51
4.712610999999999
  0
LINE
  5
520
  8
0
 62
     7
 10
168.43100000000001
 20
86.200999999999993
 30
0.0
 11
168.43100000000001
 21
85.958399999999997
 31
0.0
  0
LINE
  5
521
  8
0
 62
     7
 10
167.76400000000001
 20
85.958399999999997
 30
0.0
 11
167.76400000000001
 21
86.259200000000007
 31
0.0
  0
LINE
  5
522
  8
0
 62
     7
 10
155.72999999999999
 20
90.141800000000003
 30
0.0
 11
155.72999999999999
 21
85.958399999999997
 31
0.0
  0
LINE
  5
523
  8
0
 62
     7
 10
155.06399999999999
 20
90.141800000000003
 30
0.0
 11
155.72999999999999
 21
90.141800000000003
 31
0.0
  0
LINE
  5
524
  8
0
 62
     7
 10
155.06399999999999
 20
85.958399999999997
 30
0.0
 11
155.06399999999999
 21
90.141800000000003
 31
0.0
  0
LINE
  5
525
  8
0
 62
     7
 10
168.43100000000001
 20
85.958399999999997
 30
0.0
 11
167.76400000000001
 21
85.958399999999997
 31
0.0
  0
ARC
  5
526
  8
0
 62
     7
 10
167.73906299999999
 20
85.984202999999994
 30
0.0
 40
0.692166
 50
272.07455399999998
 51
357.86620500000009
  0
LINE
  5
527
  8
0
 62
     7
 10
155.72999999999999
 20
85.958399999999997
 30
0.0
 11
167.76400000000001
 21
85.958399999999997
 31
0.0
  0
LINE
  5
528
  8
0
 62
     7
 10
167.76400000000001
 20
85.292500000000004
 30
0.0
 11
155.72999999999999
 21
85.292500000000004
 31
0.0
  0
LINE
  5
529
  8
0
 62
     7
 10
167.76400000000001
 20
85.292500000000004
 30
0.0
 11
167.76400000000001
 21
85.958399999999997
 31
0.0
  0
LINE
  5
52A
  8
0
 62
     7
 10
155.06399999999999
 20
85.958399999999997
 30
0.0
 11
155.72999999999999
 21
85.958399999999997
 31
0.0
  0
ARC
  5
52B
  8
0
 62
     7
 10
155.75737000000001
 20
85.985462999999996
 30
0.0
 40
0.6935130000000001
 50
182.233811
 51
267.73656999999997
  0
LINE
  5
52C
  8
0
 62
     7
 10
155.72999999999999
 20
85.958399999999997
 30
0.0
 11
155.72999999999999
 21
85.292500000000004
 31
0.0
  0
ARC
  5
52D
  8
0
 62
     7
 10
160.66252900000001
 20
97.452246000000002
 30
0.0
 40
1.552805999999999
 50
328.46149800000001
 51
350.42641600000002
  0
ARC
  5
52E
  8
0
 62
     7
 10
166.52503400000001
 20
97.449516000000003
 30
0.0
 40
1.545172999999999
 50
189.518674
 51
211.59345200000001
  0
ARC
  5
52F
  8
0
 62
     7
 10
168.27265199999999
 20
133.77332999999999
 30
0.0
 40
37.081012999999999
 50
260.56453399999998
 51
261.34434199999998
  0
ARC
  5
530
  8
0
 62
     7
 10
163.86438200000001
 20
105.049672
 30
0.0
 40
8.0211500000000004
 50
261.596273
 51
266.270645
  0
ARC
  5
531
  8
0
 62
     7
 10
163.66249500000001
 20
102.712974
 30
0.0
 40
5.6764839999999994
 50
266.76998900000001
 51
279.54635000000002
  0
ARC
  5
532
  8
0
 62
     7
 10
163.32442800000001
 20
104.596666
 30
0.0
 40
7.590185
 50
279.70475699999997
 51
282.76218399999999
  0
LINE
  5
533
  8
0
 62
     7
 10
165.209
 20
96.640000000000015
 30
0.0
 11
165.209
 21
96.086400000000012
 31
0.0
  0
ARC
  5
534
  8
0
 62
     7
 10
161.523008
 20
198.121804
 30
0.0
 40
101.5487
 50
271.32848799999999
 51
272.080106
  0
ARC
  5
535
  8
0
 62
     7
 10
163.444211
 20
123.343771
 30
0.0
 40
26.746880000000001
 50
268.904921
 51
270.92787299999998
  0
ARC
  5
536
  8
0
 62
     7
 10
163.410403
 20
117.34848599999999
 30
0.0
 40
20.752199999999998
 50
267.6169240000001
 51
268.681895
  0
ARC
  5
537
  8
0
 62
     7
 10
165.62204800000001
 20
169.69997599999999
 30
0.0
 40
73.150382999999991
 50
267.15084000000002
 51
267.591139
  0
LINE
  5
538
  8
0
 62
     7
 10
161.98599999999999
 20
96.640000000000015
 30
0.0
 11
161.98599999999999
 21
96.086400000000012
 31
0.0
  0
ARC
  5
539
  8
0
 62
     7
 10
160.12540200000001
 20
23.870609999999999
 30
0.0
 40
72.394476999999995
 50
85.97341999999999
 51
86.510311000000016
  0
ARC
  5
53A
  8
0
 62
     7
 10
163.65923900000001
 20
80.871840999999989
 30
0.0
 40
15.283947
 50
86.726577000000006
 51
89.18882099999999
  0
ARC
  5
53B
  8
0
 62
     7
 10
163.703406
 20
81.720814000000004
 30
0.0
 40
14.434469999999999
 50
89.316411000000002
 51
93.066194999999993
  0
ARC
  5
53C
  8
0
 62
     7
 10
165.18112600000001
 20
42.749751000000003
 30
0.0
 40
53.432254
 50
92.413198000000008
 51
93.428224999999983
  0
LINE
  5
53D
  8
0
 62
     7
 10
154.49700000000001
 20
90.783699999999996
 30
0.0
 11
154.49700000000001
 21
90.851200000000006
 31
0.0
  0
ARC
  5
53E
  8
0
 62
     7
 10
154.292598
 20
90.141197000000005
 30
0.0
 40
0.771786
 50
0.047581
 51
4.1946110000000001
  0
ARC
  5
53F
  8
0
 62
     7
 10
154.28578899999999
 20
91.604547999999994
 30
0.0
 40
0.857004
 50
275.351202
 51
283.41183599999999
  0
ARC
  5
540
  8
0
 62
     7
 10
154.476395
 20
90.791838999999996
 30
0.0
 40
0.022463
 50
291.34343999999999
 51
338.6565700000001
  0
LINE
  5
541
  8
0
 62
     7
 10
154.364
 20
90.748900000000006
 30
0.0
 11
154.36600000000001
 21
90.751299999999986
 31
0.0
  0
ARC
  5
542
  8
0
 62
     7
 10
154.33664300000001
 20
90.055159000000003
 30
0.0
 40
0.6942610000000001
 50
2.4344549999999989
 51
87.713931000000002
  0
LINE
  5
543
  8
0
 62
     7
 10
155.06399999999999
 20
90.141800000000003
 30
0.0
 11
155.03
 21
90.084599999999995
 31
0.0
  0
LINE
  5
544
  8
0
 62
     7
 10
154.49700000000001
 20
94.760000000000005
 30
0.0
 11
154.49700000000001
 21
94.827899999999985
 31
0.0
  0
ARC
  5
545
  8
0
 62
     7
 10
154.319187
 20
95.469367000000005
 30
0.0
 40
0.7451970000000001
 50
355.73145199999999
 51
0.000031
  0
LINE
  5
546
  8
0
 62
     7
 10
155.03
 20
95.526600000000016
 30
0.0
 11
155.06399999999999
 21
95.469399999999993
 31
0.0
  0
ARC
  5
547
  8
0
 62
     7
 10
154.33661499999999
 20
95.556432999999984
 30
0.0
 40
0.6943050000000001
 50
272.28816499999999
 51
357.53372300000012
  0
LINE
  5
548
  8
0
 62
     7
 10
154.36600000000001
 20
94.860600000000005
 30
0.0
 11
154.364
 21
94.862700000000004
 31
0.0
  0
ARC
  5
549
  8
0
 62
     7
 10
154.47593000000001
 20
94.819245999999993
 30
0.0
 40
0.023067
 50
21.998411999999998
 51
68.001577999999995
  0
ARC
  5
54A
  8
0
 62
     7
 10
154.44320500000001
 20
94.743319999999997
 30
0.0
 40
0.10574
 50
66.971024999999983
 51
82.881023999999996
  0
ARC
  5
54B
  8
0
 62
     7
 10
154.226741
 20
93.504874000000001
 30
0.0
 40
1.3628450000000001
 50
80.302383999999989
 51
84.147211999999996
  0
ARC
  5
54C
  8
0
 62
     7
 10
154.23140900000001
 20
90.118200999999985
 30
0.0
 40
0.8346969999999998
 50
5.4617889999999987
 51
71.423608000000002
  0
LINE
  5
54D
  8
0
 62
     7
 10
155.06200000000001
 20
90.197599999999994
 30
0.0
 11
155.08199999999999
 21
90.198999999999984
 31
0.0
  0
LINE
  5
54E
  8
0
 62
     7
 10
155.08199999999999
 20
90.198999999999984
 30
0.0
 11
155.124
 21
90.202500000000001
 31
0.0
  0
LINE
  5
54F
  8
0
 62
     7
 10
155.124
 20
90.202500000000001
 30
0.0
 11
155.18700000000001
 21
90.207999999999984
 31
0.0
  0
LINE
  5
550
  8
0
 62
     7
 10
155.18700000000001
 20
90.207999999999984
 30
0.0
 11
155.27000000000001
 21
90.2149
 31
0.0
  0
LINE
  5
551
  8
0
 62
     7
 10
155.27000000000001
 20
90.2149
 30
0.0
 11
155.369
 21
90.222800000000007
 31
0.0
  0
LINE
  5
552
  8
0
 62
     7
 10
155.369
 20
90.222800000000007
 30
0.0
 11
155.47999999999999
 21
90.232100000000003
 31
0.0
  0
LINE
  5
553
  8
0
 62
     7
 10
155.47999999999999
 20
90.232100000000003
 30
0.0
 11
155.601
 21
90.242099999999994
 31
0.0
  0
LINE
  5
554
  8
0
 62
     7
 10
155.601
 20
90.242099999999994
 30
0.0
 11
155.726
 21
90.252399999999994
 31
0.0
  0
LINE
  5
555
  8
0
 62
     7
 10
155.06200000000001
 20
95.413899999999984
 30
0.0
 11
155.08199999999999
 21
95.412199999999999
 31
0.0
  0
LINE
  5
556
  8
0
 62
     7
 10
155.08199999999999
 20
95.412199999999999
 30
0.0
 11
155.124
 21
95.408699999999996
 31
0.0
  0
LINE
  5
557
  8
0
 62
     7
 10
155.124
 20
95.408699999999996
 30
0.0
 11
155.18700000000001
 21
95.403599999999983
 31
0.0
  0
LINE
  5
558
  8
0
 62
     7
 10
155.18700000000001
 20
95.403599999999983
 30
0.0
 11
155.27000000000001
 21
95.396699999999996
 31
0.0
  0
LINE
  5
559
  8
0
 62
     7
 10
155.27000000000001
 20
95.396699999999996
 30
0.0
 11
155.369
 21
95.388400000000004
 31
0.0
  0
LINE
  5
55A
  8
0
 62
     7
 10
155.369
 20
95.388400000000004
 30
0.0
 11
155.47999999999999
 21
95.379099999999994
 31
0.0
  0
LINE
  5
55B
  8
0
 62
     7
 10
155.47999999999999
 20
95.379099999999994
 30
0.0
 11
155.601
 21
95.369100000000003
 31
0.0
  0
LINE
  5
55C
  8
0
 62
     7
 10
155.601
 20
95.369100000000003
 30
0.0
 11
155.726
 21
95.359099999999984
 31
0.0
  0
ARC
  5
55D
  8
0
 62
     7
 10
154.335139
 20
95.348737
 30
0.0
 40
0.6666260000000001
 50
284.08031199999999
 51
316.205084
  0
ARC
  5
55E
  8
0
 62
     7
 10
154.214258
 20
95.489390999999998
 30
0.0
 40
0.851411
 50
315.00259599999998
 51
354.91322200000002
  0
LINE
  5
55F
  8
0
 62
     7
 10
154.49700000000001
 20
94.694900000000004
 30
0.0
 11
154.49700000000001
 21
94.696600000000004
 31
0.0
  0
LINE
  5
560
  8
0
 62
     7
 10
155.726
 20
95.359099999999984
 30
0.0
 11
167.76400000000001
 21
95.359099999999984
 31
0.0
  0
ARC
  5
561
  8
0
 62
     7
 10
154.36090799999999
 20
97.00385
 30
0.0
 40
2.3112520000000001
 50
273.38354700000002
 51
289.11779200000001
  0
ARC
  5
562
  8
0
 62
     7
 10
154.61842799999999
 20
96.216085000000007
 30
0.0
 40
1.482666
 50
289.68527399999999
 51
306.01761600000009
  0
ARC
  5
563
  8
0
 62
     7
 10
155.00283899999999
 20
95.655559999999994
 30
0.0
 40
0.8034629999999999
 50
307.34998200000001
 51
321.98065800000001
  0
ARC
  5
564
  8
0
 62
     7
 10
155.25478799999999
 20
95.452389999999994
 30
0.0
 40
0.4798650000000001
 50
322.56281200000001
 51
348.792619
  0
LINE
  5
565
  8
0
 62
     7
 10
168.43100000000001
 20
95.359099999999984
 30
0.0
 11
168.43100000000001
 21
94.030699999999996
 31
0.0
  0
LINE
  5
566
  8
0
 62
     7
 10
167.76400000000001
 20
95.359099999999984
 30
0.0
 11
168.43100000000001
 21
95.359099999999984
 31
0.0
  0
LINE
  5
567
  8
0
 62
     7
 10
167.76400000000001
 20
95.359099999999984
 30
0.0
 11
167.76400000000001
 21
94.694900000000004
 31
0.0
  0
LINE
  5
568
  8
0
 62
     7
 10
168.43100000000001
 20
91.580899999999986
 30
0.0
 11
168.43100000000001
 21
90.737199999999987
 31
0.0
  0
LINE
  5
569
  8
0
 62
     7
 10
168.43100000000001
 20
90.737199999999987
 30
0.0
 11
168.43100000000001
 21
90.6066
 31
0.0
  0
LINE
  5
56A
  8
0
 62
     7
 10
154.49700000000001
 20
90.916600000000003
 30
0.0
 11
154.49700000000001
 21
90.914900000000003
 31
0.0
  0
ARC
  5
56B
  8
0
 62
     7
 10
155.305226
 20
90.181781000000001
 30
0.0
 40
0.4261720000000001
 50
9.5417320000000014
 51
39.130851
  0
ARC
  5
56C
  8
0
 62
     7
 10
155.05413300000001
 20
90.006792000000004
 30
0.0
 40
0.731734
 50
37.351371999999998
 51
52.603701000000008
  0
ARC
  5
56D
  8
0
 62
     7
 10
154.77696
 20
89.663503000000006
 30
0.0
 40
1.1728529999999999
 50
52.031461
 51
64.661743000000001
  0
ARC
  5
56E
  8
0
 62
     7
 10
154.49160599999999
 20
89.092432999999986
 30
0.0
 40
1.811154999999999
 50
64.234472999999994
 51
79.199147999999994
  0
ARC
  5
56F
  8
0
 62
     7
 10
154.36155099999999
 20
88.567536000000004
 30
0.0
 40
2.3513090000000001
 50
78.483028000000004
 51
86.689858999999998
  0
LINE
  5
570
  8
0
 62
     7
 10
167.15100000000001
 20
90.252399999999994
 30
0.0
 11
155.726
 21
90.252399999999994
 31
0.0
  0
LINE
  5
571
  8
0
 62
     7
 10
167.76400000000001
 20
90.916600000000003
 30
0.0
 11
167.76400000000001
 21
90.546300000000016
 31
0.0
  0
LINE
  5
572
  8
0
 62
     7
 10
154.49700000000001
 20
94.694900000000004
 30
0.0
 11
154.49700000000001
 21
94.632199999999983
 31
0.0
  0
LINE
  5
573
  8
0
 62
     7
 10
167.76400000000001
 20
94.694900000000004
 30
0.0
 11
154.49700000000001
 21
94.694900000000004
 31
0.0
  0
LINE
  5
574
  8
0
 62
     7
 10
168.43100000000001
 20
94.030699999999996
 30
0.0
 11
168.43100000000001
 21
93.967999999999975
 31
0.0
  0
ARC
  5
575
  8
0
 62
     7
 10
167.739486
 20
94.003546999999983
 30
0.0
 40
0.691796
 50
2.248276999999999
 51
87.959360000000004
  0
LINE
  5
576
  8
0
 62
     7
 10
167.76400000000001
 20
94.632199999999983
 30
0.0
 11
167.76400000000001
 21
94.694900000000004
 31
0.0
  0
LINE
  5
577
  8
0
 62
     7
 10
154.49700000000001
 20
90.979299999999995
 30
0.0
 11
154.49700000000001
 21
90.916600000000003
 31
0.0
  0
LINE
  5
578
  8
0
 62
     7
 10
154.49700000000001
 20
90.916600000000003
 30
0.0
 11
167.76400000000001
 21
90.916600000000003
 31
0.0
  0
LINE
  5
579
  8
0
 62
     7
 10
168.43100000000001
 20
91.643600000000006
 30
0.0
 11
168.43100000000001
 21
91.580899999999986
 31
0.0
  0
ARC
  5
57A
  8
0
 62
     7
 10
167.73956699999999
 20
91.607919999999979
 30
0.0
 40
0.691712
 50
272.034133
 51
357.75822999999991
  0
LINE
  5
57B
  8
0
 62
     7
 10
167.76400000000001
 20
90.916600000000003
 30
0.0
 11
167.76400000000001
 21
90.979299999999995
 31
0.0
  0
ARC
  5
57C
  8
0
 62
     7
 10
184.56946199999999
 20
90.195181000000005
 30
0.0
 40
17.418323000000001
 50
178.84495000000001
 51
179.811678
  0
LINE
  5
57D
  8
0
 62
     7
 10
167.15100000000001
 20
90.252399999999994
 30
0.0
 11
167.15100000000001
 21
86.259200000000007
 31
0.0
  0
ARC
  5
57E
  8
0
 62
     7
 10
169.20154099999999
 20
90.004518999999988
 30
0.0
 40
1.9231990000000001
 50
171.11104900000001
 51
174.676604
  0
ARC
  5
57F
  8
0
 62
     7
 10
173.89345
 20
89.535664999999995
 30
0.0
 40
6.638444999999999
 50
174.40445700000001
 51
176.810483
  0
ARC
  5
580
  8
0
 62
     7
 10
184.240669
 20
88.930918999999989
 30
0.0
 40
17.003307
 50
176.71577600000001
 51
178.272423
  0
ARC
  5
581
  8
0
 62
     7
 10
201.25348
 20
88.407329000000004
 30
0.0
 40
34.024171000000003
 50
178.254797
 51
181.07469900000001
  0
ARC
  5
582
  8
0
 62
     7
 10
191.597274
 20
88.196275999999997
 30
0.0
 40
24.365724
 50
181.00437099999999
 51
183.171696
  0
ARC
  5
583
  8
0
 62
     7
 10
171.62483
 20
87.096406000000002
 30
0.0
 40
4.3630240000000002
 50
183.26163399999999
 51
187.72878199999991
  0
LINE
  5
584
  8
0
 62
     7
 10
168.43100000000001
 20
93.967999999999975
 30
0.0
 11
168.43100000000001
 21
91.643600000000006
 31
0.0
  0
ARC
  5
585
  8
0
 62
     7
 10
167.73956699999999
 20
91.670621999999995
 30
0.0
 40
0.691712
 50
272.034133
 51
357.75822999999991
  0
ARC
  5
586
  8
0
 62
     7
 10
167.739486
 20
93.940845999999993
 30
0.0
 40
0.691796
 50
2.248276999999999
 51
87.959360000000004
  0
LINE
  5
587
  8
0
 62
     7
 10
154.49700000000001
 20
94.632199999999983
 30
0.0
 11
154.49700000000001
 21
90.979299999999995
 31
0.0
  0
LINE
  5
588
  8
0
 62
     7
 10
167.76400000000001
 20
90.979299999999995
 30
0.0
 11
154.49700000000001
 21
90.979299999999995
 31
0.0
  0
LINE
  5
589
  8
0
 62
     7
 10
167.76400000000001
 20
90.979299999999995
 30
0.0
 11
167.76400000000001
 21
94.632199999999983
 31
0.0
  0
LINE
  5
58A
  8
0
 62
     7
 10
167.76400000000001
 20
94.632199999999983
 30
0.0
 11
154.49700000000001
 21
94.632199999999983
 31
0.0
  0
LINE
  5
58B
  8
0
 62
     7
 10
168.43100000000001
 20
90.6066
 30
0.0
 11
168.43100000000001
 21
90.232100000000003
 31
0.0
  0
LINE
  5
58C
  8
0
 62
     7
 10
167.43100000000001
 20
90.301699999999997
 30
0.0
 11
167.43100000000001
 21
90.232100000000003
 31
0.0
  0
ARC
  5
58D
  8
0
 62
     7
 10
168.372612
 20
90.671127999999996
 30
0.0
 40
0.086867
 50
282.3089240000001
 51
312.01068099999998
  0
ARC
  5
58E
  8
0
 62
     7
 10
168.29728299999999
 20
90.932149999999979
 30
0.0
 40
0.358397
 50
276.90641599999998
 51
285.18005099999999
  0
ARC
  5
58F
  8
0
 62
     7
 10
168.067046
 20
92.463747999999995
 30
0.0
 40
1.907084
 50
276.34436499999998
 51
278.24032299999999
  0
ARC
  5
590
  8
0
 62
     7
 10
167.95518999999999
 20
93.635140000000007
 30
0.0
 40
3.083717
 50
272.72396400000002
 51
276.0048680000001
  0
ARC
  5
591
  8
0
 62
     7
 10
167.89102600000001
 20
94.039818000000025
 30
0.0
 40
3.491276
 50
272.60524600000002
 51
273.46017899999998
  0
ARC
  5
592
  8
0
 62
     7
 10
167.470056
 20
107.470517
 30
0.0
 40
16.928293
 50
271.40705500000001
 51
271.962333
  0
ARC
  5
593
  8
0
 62
     7
 10
167.750969
 20
99.249009000000001
 30
0.0
 40
8.7027249999999992
 50
270.08658500000001
 51
270.88727699999998
  0
LINE
  5
594
  8
0
 62
     7
 10
167.76400000000001
 20
90.546300000000016
 30
0.0
 11
167.155
 21
90.546300000000016
 31
0.0
  0
LINE
  5
595
  8
0
 62
     7
 10
167.155
 20
90.546300000000016
 30
0.0
 11
167.30099999999999
 21
90.301699999999997
 31
0.0
  0
LINE
  5
596
  8
0
 62
     7
 10
167.43100000000001
 20
90.301699999999997
 30
0.0
 11
167.30099999999999
 21
90.301699999999997
 31
0.0
  0
LINE
  5
597
  8
0
 62
     7
 10
168.43100000000001
 20
86.200999999999993
 30
0.0
 11
168.43100000000001
 21
86.5792
 31
0.0
  0
LINE
  5
598
  8
0
 62
     7
 10
167.43100000000001
 20
86.509699999999995
 30
0.0
 11
167.43100000000001
 21
86.5792
 31
0.0
  0
LINE
  5
599
  8
0
 62
     7
 10
167.43100000000001
 20
86.509699999999995
 30
0.0
 11
167.30099999999999
 21
86.509699999999995
 31
0.0
  0
LINE
  5
59A
  8
0
 62
     7
 10
167.15100000000001
 20
86.259200000000007
 30
0.0
 11
167.30099999999999
 21
86.509699999999995
 31
0.0
  0
LINE
  5
59B
  8
0
 62
     7
 10
167.15100000000001
 20
86.259200000000007
 30
0.0
 11
167.76400000000001
 21
86.259200000000007
 31
0.0
  0
ARC
  5
59C
  8
0
 62
     7
 10
168.42129800000001
 20
86.199758000000003
 30
0.0
 40
0.009529
 50
7.2984140000000002
 51
64.507807
  0
ARC
  5
59D
  8
0
 62
     7
 10
168.37646899999999
 20
86.123993999999996
 30
0.0
 40
0.097527
 50
59.887306999999993
 51
78.604534999999998
  0
ARC
  5
59E
  8
0
 62
     7
 10
168.231337
 20
85.522149999999996
 30
0.0
 40
0.7165630000000001
 50
76.736457999999999
 51
83.875146999999998
  0
ARC
  5
59F
  8
0
 62
     7
 10
167.97768600000001
 20
83.388597000000004
 30
0.0
 40
2.865105999999999
 50
83.383928999999995
 51
87.08323
  0
ARC
  5
5A0
  8
0
 62
     7
 10
167.779213
 20
79.825465000000008
 30
0.0
 40
6.4337429999999989
 50
86.932676999999984
 51
90.134408999999977
  0
LINE
  5
5A1
  8
0
 62
     7
 10
168.43100000000001
 20
86.5792
 30
0.0
 11
168.43100000000001
 21
90.232100000000003
 31
0.0
  0
LINE
  5
5A2
  8
0
 62
     7
 10
167.43100000000001
 20
86.5792
 30
0.0
 11
167.43100000000001
 21
90.232100000000003
 31
0.0
  0
LINE
  5
5A3
  8
0
 62
     7
 10
167.43100000000001
 20
86.5792
 30
0.0
 11
168.43100000000001
 21
86.5792
 31
0.0
  0
LINE
  5
5A4
  8
0
 62
     7
 10
167.43100000000001
 20
90.232100000000003
 30
0.0
 11
168.43100000000001
 21
90.232100000000003
 31
0.0
  0
ARC
  5
5A5
  8
0
 62
     7
 10
71.859174999999993
 20
95.663992000000007
 30
0.0
 40
1.6781330000000001
 50
50.194946999999999
 51
69.117035999999999
  0
ARC
  5
5A6
  8
0
 62
     7
 10
71.865954000000002
 20
95.673845999999998
 30
0.0
 40
1.666223
 50
31.103683
 51
50.157123999999989
  0
ARC
  5
5A7
  8
0
 62
     7
 10
71.866574999999983
 20
95.673873
 30
0.0
 40
1.6656770000000001
 50
12.050371
 51
31.113906
  0
ARC
  5
5A8
  8
0
 62
     7
 10
71.838026999999997
 20
95.668988999999996
 30
0.0
 40
1.694615999999999
 50
2.6283270000000001
 51
12.010358
  0
ARC
  5
5A9
  8
0
 62
     7
 10
71.863439
 20
95.673304000000016
 30
0.0
 40
1.669036
 50
357.76468499999999
 51
2.5203679999999991
  0
ARC
  5
5AA
  8
0
 62
     7
 10
71.805684999999997
 20
95.678006999999994
 30
0.0
 40
1.726931
 50
353.07235500000002
 51
357.68350800000002
  0
LINE
  5
5AB
  8
0
 62
     7
 10
83.714500000000015
 20
91.567800000000005
 30
0.0
 11
83.656899999999979
 21
91.577799999999996
 31
0.0
  0
LINE
  5
5AC
  8
0
 62
     7
 10
83.656899999999979
 20
91.577799999999996
 30
0.0
 11
83.485699999999994
 21
91.607699999999994
 31
0.0
  0
LINE
  5
5AD
  8
0
 62
     7
 10
83.485699999999994
 20
91.607699999999994
 30
0.0
 11
83.204700000000003
 21
91.657300000000006
 31
0.0
  0
LINE
  5
5AE
  8
0
 62
     7
 10
83.204700000000003
 20
91.657300000000006
 30
0.0
 11
82.820300000000003
 21
91.725200000000001
 31
0.0
  0
LINE
  5
5AF
  8
0
 62
     7
 10
82.820300000000003
 20
91.725200000000001
 30
0.0
 11
82.340699999999998
 21
91.809600000000003
 31
0.0
  0
LINE
  5
5B0
  8
0
 62
     7
 10
82.340699999999998
 20
91.809600000000003
 30
0.0
 11
81.776899999999998
 21
91.909199999999998
 31
0.0
  0
LINE
  5
5B1
  8
0
 62
     7
 10
81.776899999999998
 20
91.909199999999998
 30
0.0
 11
81.141499999999994
 21
92.021100000000004
 31
0.0
  0
LINE
  5
5B2
  8
0
 62
     7
 10
81.141499999999994
 20
92.021100000000004
 30
0.0
 11
80.448499999999996
 21
92.143500000000003
 31
0.0
  0
LINE
  5
5B3
  8
0
 62
     7
 10
80.448499999999996
 20
92.143500000000003
 30
0.0
 11
79.7136
 21
92.272999999999996
 31
0.0
  0
LINE
  5
5B4
  8
0
 62
     7
 10
79.7136
 20
92.272999999999996
 30
0.0
 11
78.953100000000006
 21
92.407000000000025
 31
0.0
  0
LINE
  5
5B5
  8
0
 62
     7
 10
78.953100000000006
 20
92.407000000000025
 30
0.0
 11
78.183999999999997
 21
92.542699999999996
 31
0.0
  0
LINE
  5
5B6
  8
0
 62
     7
 10
78.183999999999997
 20
92.542699999999996
 30
0.0
 11
77.423699999999997
 21
92.6768
 31
0.0
  0
LINE
  5
5B7
  8
0
 62
     7
 10
77.423699999999997
 20
92.6768
 30
0.0
 11
76.688699999999997
 21
92.806600000000003
 31
0.0
  0
LINE
  5
5B8
  8
0
 62
     7
 10
76.688699999999997
 20
92.806600000000003
 30
0.0
 11
75.995699999999985
 21
92.928600000000003
 31
0.0
  0
LINE
  5
5B9
  8
0
 62
     7
 10
75.995699999999985
 20
92.928600000000003
 30
0.0
 11
75.360200000000006
 21
93.040599999999984
 31
0.0
  0
LINE
  5
5BA
  8
0
 62
     7
 10
75.360200000000006
 20
93.040599999999984
 30
0.0
 11
74.796400000000006
 21
93.140100000000004
 31
0.0
  0
LINE
  5
5BB
  8
0
 62
     7
 10
74.796400000000006
 20
93.140100000000004
 30
0.0
 11
74.316999999999993
 21
93.224500000000006
 31
0.0
  0
LINE
  5
5BC
  8
0
 62
     7
 10
74.316999999999993
 20
93.224500000000006
 30
0.0
 11
73.932400000000001
 21
93.292400000000001
 31
0.0
  0
LINE
  5
5BD
  8
0
 62
     7
 10
73.932400000000001
 20
93.292400000000001
 30
0.0
 11
73.651399999999995
 21
93.341999999999999
 31
0.0
  0
LINE
  5
5BE
  8
0
 62
     7
 10
73.651399999999995
 20
93.341999999999999
 30
0.0
 11
73.480199999999996
 21
93.372299999999996
 31
0.0
  0
LINE
  5
5BF
  8
0
 62
     7
 10
73.480199999999996
 20
93.372299999999996
 30
0.0
 11
73.422899999999998
 21
93.382300000000015
 31
0.0
  0
LINE
  5
5C0
  8
0
 62
     7
 10
129.26400000000001
 20
96.472200000000001
 30
0.0
 11
86.334500000000006
 21
96.472200000000001
 31
0.0
  0
ARC
  5
5C1
  8
0
 62
     7
 10
86.337005000000005
 20
94.789732000000001
 30
0.0
 40
1.6825110000000001
 50
90.08642900000001
 51
109.14116
  0
ARC
  5
5C2
  8
0
 62
     7
 10
86.328917000000004
 20
94.816215000000014
 30
0.0
 40
1.6548400000000001
 50
109.177285
 51
128.5637679999999
  0
ARC
  5
5C3
  8
0
 62
     7
 10
86.330487000000005
 20
94.809119999999993
 30
0.0
 40
1.6613699999999989
 50
128.453563
 51
147.761563
  0
ARC
  5
5C4
  8
0
 62
     7
 10
86.303735000000003
 20
94.821648999999994
 30
0.0
 40
1.6320629999999989
 50
147.63262
 51
157.47103999999999
  0
ARC
  5
5C5
  8
0
 62
     7
 10
86.415768999999997
 20
94.773762000000005
 30
0.0
 40
1.7538949999999991
 50
157.42834999999999
 51
161.989194
  0
ARC
  5
5C6
  8
0
 62
     7
 10
86.416546999999994
 20
94.784668000000011
 30
0.0
 40
1.751295
 50
162.33639700000001
 51
166.93139600000001
  0
ARC
  5
5C7
  8
0
 62
     7
 10
63.127145999999989
 20
-5.0874879999999987
 30
0.0
 40
104.364716
 50
78.989936999999998
 51
79.095411999999996
  0
ARC
  5
5C8
  8
0
 62
     7
 10
77.297139000000001
 20
68.359690000000001
 30
0.0
 40
29.563462000000001
 50
78.394026999999994
 51
78.761521999999985
  0
ARC
  5
5C9
  8
0
 62
     7
 10
75.089236
 20
56.835963999999997
 30
0.0
 40
41.296054999999988
 50
78.093783000000002
 51
78.609887000000001
  0
ARC
  5
5CA
  8
0
 62
     7
 10
79.719048999999998
 20
78.929356999999996
 30
0.0
 40
18.722808000000001
 50
75.893127000000007
 51
78.008457000000007
  0
ARC
  5
5CB
  8
0
 62
     7
 10
77.10046899999999
 20
68.478470000000002
 30
0.0
 40
29.496756999999999
 50
75.286405999999999
 51
75.907882000000001
  0
ARC
  5
5CC
  8
0
 62
     7
 10
77.190170999999992
 20
69.181570999999991
 30
0.0
 40
28.794076
 50
74.507354000000007
 51
75.103701999999998
  0
ARC
  5
5CD
  8
0
 62
     7
 10
79.097723000000002
 20
76.18731600000001
 30
0.0
 40
21.533376000000001
 50
73.019753000000009
 51
74.419291000000001
  0
ARC
  5
5CE
  8
0
 62
     7
 10
79.368841000000003
 20
76.887625
 30
0.0
 40
20.784492
 50
71.996747999999997
 51
73.170762999999994
  0
ARC
  5
5CF
  8
0
 62
     7
 10
82.425266000000008
 20
86.091052000000005
 30
0.0
 40
11.087196
 50
71.425882000000001
 51
72.318533000000002
  0
LINE
  5
5D0
  8
0
 62
     7
 10
85.956900000000005
 20
96.600700000000003
 30
0.0
 11
86.091600000000014
 21
96.555999999999983
 31
0.0
  0
ARC
  5
5D1
  8
0
 62
     7
 10
72.328709000000003
 20
56.080728000000001
 30
0.0
 40
42.751152000000012
 50
70.963837999999996
 51
71.220310999999995
  0
ARC
  5
5D2
  8
0
 62
     7
 10
87.202765999999997
 20
99.090731000000005
 30
0.0
 40
2.7583429999999991
 50
250.29306199999999
 51
251.31602699999999
  0
ARC
  5
5D3
  8
0
 62
     7
 10
86.287831999999995
 20
96.360997999999995
 30
0.0
 40
0.120879
 50
69.153102000000004
 51
74.991042000000007
  0
LINE
  5
5D4
  8
0
 62
     7
 10
86.330799999999996
 20
96.47399999999999
 30
0.0
 11
86.333600000000004
 21
96.473299999999995
 31
0.0
  0
LINE
  5
5D5
  8
0
 62
     7
 10
86.333600000000004
 20
96.473299999999995
 30
0.0
 11
86.334500000000006
 21
96.472200000000001
 31
0.0
  0
ARC
  5
5D6
  8
0
 62
     7
 10
84.687283999999991
 20
95.144439000000006
 30
0.0
 40
0.043087
 50
57.223506999999991
 51
73.88856899999999
  0
ARC
  5
5D7
  8
0
 62
     7
 10
85.039164999999997
 20
96.002077999999983
 30
0.0
 40
0.8841959999999998
 50
245.01176799999999
 51
247.390839
  0
ARC
  5
5D8
  8
0
 62
     7
 10
80.323901000000006
 20
85.398085999999978
 30
0.0
 40
10.721055
 50
66.110484999999997
 51
66.881457999999995
  0
ARC
  5
5D9
  8
0
 62
     7
 10
81.639861999999994
 20
88.588663999999994
 30
0.0
 40
7.2701299999999991
 50
66.546913000000004
 51
67.393632999999994
  0
ARC
  5
5DA
  8
0
 62
     7
 10
80.015356999999995
 20
84.846650999999994
 30
0.0
 40
11.349256
 50
67.08431800000001
 51
67.745500000000007
  0
ARC
  5
5DB
  8
0
 62
     7
 10
74.469104999999999
 20
70.870186000000004
 30
0.0
 40
26.385594000000001
 50
68.093085000000002
 51
68.799706
  0
ARC
  5
5DC
  8
0
 62
     7
 10
79.855564999999999
 20
84.626402999999996
 30
0.0
 40
11.612565999999999
 50
69.032910999999999
 51
71.034125000000003
  0
ARC
  5
5DD
  8
0
 62
     7
 10
79.624150999999998
 20
84.050643000000008
 30
0.0
 40
12.232321000000001
 50
70.885519999999985
 51
73.148877999999996
  0
ARC
  5
5DE
  8
0
 62
     7
 10
79.809716000000009
 20
84.712249999999997
 30
0.0
 40
11.545337999999999
 50
73.07844200000001
 51
75.786168000000004
  0
ARC
  5
5DF
  8
0
 62
     7
 10
79.814970000000002
 20
84.787079000000006
 30
0.0
 40
11.471518
 50
75.719836999999998
 51
78.749510000000001
  0
ARC
  5
5E0
  8
0
 62
     7
 10
73.545866000000004
 20
95.308769999999996
 30
0.0
 40
0.169398
 50
83.115156999999996
 51
95.385643999999999
  0
ARC
  5
5E1
  8
0
 62
     7
 10
73.530082999999991
 20
95.466982999999999
 30
0.0
 40
0.010438
 50
90.638138999999995
 51
164.845449
  0
ARC
  5
5E2
  8
0
 62
     7
 10
80.098545999999999
 20
84.357877999999985
 30
0.0
 40
11.919438
 50
96.467721999999995
 51
102.009148
  0
ARC
  5
5E3
  8
0
 62
     7
 10
71.890908999999994
 20
95.681102999999993
 30
0.0
 40
1.6874869999999991
 50
353.05117100000001
 51
11.940319000000001
  0
ARC
  5
5E4
  8
0
 62
     7
 10
71.897194999999996
 20
95.679077000000007
 30
0.0
 40
1.681759
 50
12.052185
 51
30.973831000000001
  0
ARC
  5
5E5
  8
0
 62
     7
 10
71.910326999999995
 20
95.68244399999999
 30
0.0
 40
1.6687719999999999
 50
31.106739000000001
 51
50.126902999999999
  0
ARC
  5
5E6
  8
0
 62
     7
 10
71.923556999999988
 20
95.692260000000005
 30
0.0
 40
1.6527609999999999
 50
50.260750000000002
 51
69.412405000000021
  0
ARC
  5
5E7
  8
0
 62
     7
 10
80.782124999999994
 20
80.952597999999995
 30
0.0
 40
15.392545
 50
101.86183800000001
 51
104.75861999999999
  0
ARC
  5
5E8
  8
0
 62
     7
 10
93.916780000000003
 20
29.826692999999999
 30
0.0
 40
68.17846999999999
 50
104.487267
 51
105.106235
  0
ARC
  5
5E9
  8
0
 62
     7
 10
71.416050999999996
 20
113.71382199999999
 30
0.0
 40
18.674299000000001
 50
282.61093599999998
 51
284.68098300000003
  0
ARC
  5
5EA
  8
0
 62
     7
 10
73.868414999999999
 20
103.01120400000001
 30
0.0
 40
7.6946649999999988
 50
279.87047699999999
 51
282.19018399999999
  0
ARC
  5
5EB
  8
0
 62
     7
 10
74.106390000000005
 20
101.749094
 30
0.0
 40
6.4104689999999991
 50
277.12027599999999
 51
279.70870600000001
  0
ARC
  5
5EC
  8
0
 62
     7
 10
74.406611999999996
 20
99.546247999999991
 30
0.0
 40
4.1874699999999994
 50
269.95047399999999
 51
276.78014300000001
  0
ARC
  5
5ED
  8
0
 62
     7
 10
74.431691999999984
 20
98.651165000000006
 30
0.0
 40
3.2925110000000002
 50
265.82484899999997
 51
269.50056000000001
  0
ARC
  5
5EE
  8
0
 62
     7
 10
74.451515999999984
 20
98.625288999999995
 30
0.0
 40
3.2682189999999989
 50
262.191596
 51
265.44520799999998
  0
ARC
  5
5EF
  8
0
 62
     7
 10
74.420365000000004
 20
98.298575999999997
 30
0.0
 40
2.940334
 50
256.39282500000002
 51
261.92803900000001
  0
ARC
  5
5F0
  8
0
 62
     7
 10
71.026934999999995
 20
83.679671999999997
 30
0.0
 40
12.067416
 50
77.062859000000003
 51
77.853803999999997
  0
ARC
  5
5F1
  8
0
 62
     7
 10
79.709165999999996
 20
84.237799999999979
 30
0.0
 40
12.030884
 50
78.765668000000005
 51
80.587703000000005
  0
ARC
  5
5F2
  8
0
 62
     7
 10
79.921832999999992
 20
85.510656000000012
 30
0.0
 40
10.740386000000001
 50
80.596471999999977
 51
82.696543000000005
  0
ARC
  5
5F3
  8
0
 62
     7
 10
79.840609999999998
 20
84.803826999999984
 30
0.0
 40
11.451809000000001
 50
82.743026
 51
86.848491999999993
  0
ARC
  5
5F4
  8
0
 62
     7
 10
79.808683000000002
 20
83.639056999999994
 30
0.0
 40
12.616614
 50
86.994523000000001
 51
88.931161999999986
  0
ARC
  5
5F5
  8
0
 62
     7
 10
79.872262000000006
 20
83.028446999999986
 30
0.0
 40
13.226144
 50
89.255884999999992
 51
91.112556000000012
  0
ARC
  5
5F6
  8
0
 62
     7
 10
79.876370999999992
 20
84.503745999999992
 30
0.0
 40
11.751249
 50
91.272253000000006
 51
95.471416999999988
  0
ARC
  5
5F7
  8
0
 62
     7
 10
69.86796600000001
 20
98.942309999999992
 30
0.0
 40
0.27094
 50
206.97780299999999
 51
233.44823
  0
ARC
  5
5F8
  8
0
 62
     7
 10
69.859303999999995
 20
98.939031999999997
 30
0.0
 40
0.261736
 50
179.79288399999999
 51
207.19857999999999
  0
ARC
  5
5F9
  8
0
 62
     7
 10
76.616027000000003
 20
108.170259
 30
0.0
 40
11.702966999999999
 50
233.81469100000001
 51
242.3464229999999
  0
ARC
  5
5FA
  8
0
 62
     7
 10
76.570095999999992
 20
108.08294600000001
 30
0.0
 40
11.604310999999999
 50
242.347218
 51
249.242458
  0
ARC
  5
5FB
  8
0
 62
     7
 10
72.465175000000002
 20
97.230963000000017
 30
0.0
 40
0.007868
 50
104.359707
 51
173.242332
  0
ARC
  5
5FC
  8
0
 62
     7
 10
72.487081000000003
 20
97.157245000000003
 30
0.0
 40
0.084767
 50
79.168910999999994
 51
106.34630199999999
  0
LINE
  5
5FD
  8
0
 62
     7
 10
69.706599999999995
 20
98.724699999999984
 30
0.0
 11
69.724400000000003
 21
98.726399999999998
 31
0.0
  0
LINE
  5
5FE
  8
0
 62
     7
 10
69.5976
 20
98.953800000000015
 30
0.0
 11
69.5976
 21
98.972700000000003
 31
0.0
  0
ARC
  5
5FF
  8
0
 62
     7
 10
69.869776000000002
 20
98.958302000000003
 30
0.0
 40
0.273744
 50
209.492887
 51
237.91031699999999
  0
ARC
  5
600
  8
0
 62
     7
 10
69.865316000000007
 20
98.953993999999994
 30
0.0
 40
0.267746
 50
180.05046400000001
 51
209.16046600000001
  0
ARC
  5
601
  8
0
 62
     7
 10
79.283152999999999
 20
77.391440000000003
 30
0.0
 40
20.315738
 50
88.815450999999996
 51
91.934299999999993
  0
ARC
  5
602
  8
0
 62
     7
 10
79.307981999999996
 20
77.862957999999992
 30
0.0
 40
19.843813000000001
 50
87.268956000000003
 51
88.858981999999983
  0
ARC
  5
603
  8
0
 62
     7
 10
79.284942999999998
 20
77.325302000000008
 30
0.0
 40
20.381957
 50
85.734971999999999
 51
87.276279000000017
  0
ARC
  5
604
  8
0
 62
     7
 10
79.350546999999992
 20
77.940928999999997
 30
0.0
 40
19.763165000000001
 50
82.718334999999996
 51
85.791905000000014
  0
ARC
  5
605
  8
0
 62
     7
 10
79.545968999999999
 20
79.249208999999993
 30
0.0
 40
18.440688000000002
 50
81.218603999999999
 51
82.805409999999995
  0
ARC
  5
606
  8
0
 62
     7
 10
80.383931000000004
 20
84.211971999999989
 30
0.0
 40
13.408357000000001
 50
80.448880999999986
 51
81.519864999999996
  0
ARC
  5
607
  8
0
 62
     7
 10
75.942812000000004
 20
57.622214999999997
 30
0.0
 40
40.366441999999999
 50
80.318829000000008
 51
80.494884999999996
  0
ARC
  5
608
  8
0
 62
     7
 10
80.316164000000001
 20
83.097549999999998
 30
0.0
 40
14.518485999999999
 50
79.939019999999999
 51
80.425395999999992
  0
LINE
  5
609
  8
0
 62
     7
 10
82.852500000000006
 20
97.392799999999994
 30
0.0
 11
82.858900000000006
 21
97.391400000000004
 31
0.0
  0
ARC
  5
60A
  8
0
 62
     7
 10
82.869330000000005
 20
97.375171999999992
 30
0.0
 40
0.017627
 50
87.078442000000024
 51
101.718948
  0
LINE
  5
60B
  8
0
 62
     7
 10
82.865799999999979
 20
97.392399999999995
 30
0.0
 11
82.861599999999996
 21
97.392399999999995
 31
0.0
  0
LINE
  5
60C
  8
0
 62
     7
 10
82.861599999999996
 20
97.392399999999995
 30
0.0
 11
82.859700000000004
 21
97.391700000000014
 31
0.0
  0
LINE
  5
60D
  8
0
 62
     7
 10
82.859700000000004
 20
97.391700000000014
 30
0.0
 11
82.858900000000006
 21
97.391400000000004
 31
0.0
  0
ARC
  5
60E
  8
0
 62
     7
 10
79.641225000000006
 20
76.497375000000005
 30
0.0
 40
21.224941999999999
 50
92.818826000000016
 51
96.816924000000014
  0
ARC
  5
60F
  8
0
 62
     7
 10
129.26591099999999
 20
93.802098000000015
 30
0.0
 40
2.664857
 50
0.077869
 51
30.025033000000001
  0
ARC
  5
610
  8
0
 62
     7
 10
129.2062
 20
93.747675000000001
 30
0.0
 40
2.743841999999999
 50
30.38507700000001
 51
59.614913000000008
  0
ARC
  5
611
  8
0
 62
     7
 10
129.26633699999999
 20
93.828632999999996
 30
0.0
 40
2.6436079999999991
 50
59.851746999999989
 51
90.045331000000004
  0
ARC
  5
612
  8
0
 62
     7
 10
69.741703999999999
 20
98.749428000000009
 30
0.0
 40
0.029622
 50
279.11921699999999
 51
312.98778700000003
  0
ARC
  5
613
  8
0
 62
     7
 10
69.743409
 20
98.751846999999998
 30
0.0
 40
0.031809
 50
233.18924000000001
 51
275.393508
  0
LINE
  5
614
  8
0
 62
     7
 10
69.724400000000003
 20
98.726399999999998
 30
0.0
 11
69.729200000000006
 21
98.723600000000005
 31
0.0
  0
ARC
  5
615
  8
0
 62
     7
 10
80.910274999999999
 20
116.67925200000001
 30
0.0
 40
21.152342000000001
 50
238.08918600000001
 51
238.786283
  0
ARC
  5
616
  8
0
 62
     7
 10
82.191488000000007
 20
118.718581
 30
0.0
 40
23.560455999999999
 50
238.69168500000001
 51
239.31476699999999
  0
ARC
  5
617
  8
0
 62
     7
 10
83.990786999999997
 20
121.731443
 30
0.0
 40
27.069690000000001
 50
239.29393999999999
 51
239.61821900000001
  0
LINE
  5
618
  8
0
 62
     7
 10
138.59700000000001
 20
102.806
 30
0.0
 11
138.59700000000001
 21
102.539
 31
0.0
  0
LINE
  5
619
  8
0
 62
     7
 10
70.430899999999994
 20
102.806
 30
0.0
 11
138.59700000000001
 21
102.806
 31
0.0
  0
LINE
  5
61A
  8
0
 62
     7
 10
69.5976
 20
98.972700000000003
 30
0.0
 11
69.5976
 21
102.539
 31
0.0
  0
LINE
  5
61B
  8
0
 62
     7
 10
69.864199999999997
 20
102.806
 30
0.0
 11
70.430899999999994
 21
102.806
 31
0.0
  0
ARC
  5
61C
  8
0
 62
     7
 10
69.874420999999984
 20
102.52889399999999
 30
0.0
 40
0.277038
 50
92.109700000000004
 51
177.89027100000001
  0
LINE
  5
61D
  8
0
 62
     7
 10
131.93100000000001
 20
91.805800000000005
 30
0.0
 11
131.93100000000001
 21
95.993700000000004
 31
0.0
  0
ARC
  5
61E
  8
0
 62
     7
 10
136.06114299999999
 20
76.685368999999994
 30
0.0
 40
6.1463349999999988
 50
94.82320799999998
 51
95.261673000000002
  0
ARC
  5
61F
  8
0
 62
     7
 10
136.754243
 20
68.855017000000004
 30
0.0
 40
14.007272
 50
94.40231
 51
94.955151999999984
  0
ARC
  5
620
  8
0
 62
     7
 10
136.356673
 20
73.190783999999994
 30
0.0
 40
9.6539909999999995
 50
92.785696000000002
 51
94.024923999999984
  0
ARC
  5
621
  8
0
 62
     7
 10
136.30402599999999
 20
74.84435400000001
 30
0.0
 40
7.9998639999999988
 50
91.127878999999979
 51
92.984658999999994
  0
ARC
  5
622
  8
0
 62
     7
 10
136.34013999999999
 20
71.896699999999996
 30
0.0
 40
10.94768
 50
89.552670999999975
 51
91.013187999999985
  0
ARC
  5
623
  8
0
 62
     7
 10
136.303663
 20
72.903176999999999
 30
0.0
 40
9.941616999999999
 50
87.753876000000005
 51
89.297166000000004
  0
ARC
  5
624
  8
0
 62
     7
 10
136.30976200000001
 20
73.454929000000007
 30
0.0
 40
9.3900629999999996
 50
86.269728999999998
 51
87.659114000000002
  0
ARC
  5
625
  8
0
 62
     7
 10
136.42006799999999
 20
75.028393999999992
 30
0.0
 40
7.8127579999999996
 50
85.137970999999993
 51
86.326223999999996
  0
ARC
  5
626
  8
0
 62
     7
 10
136.22915
 20
72.869228000000007
 30
0.0
 40
9.9803399999999982
 50
84.653656999999995
 51
85.096476999999993
  0
ARC
  5
627
  8
0
 62
     7
 10
137.125438
 20
82.573588000000001
 30
0.0
 40
0.234981
 50
81.769739000000001
 51
83.040956000000008
  0
LINE
  5
628
  8
0
 62
     7
 10
138.59700000000001
 20
82.805800000000005
 30
0.0
 11
138.59700000000001
 21
91.805800000000005
 31
0.0
  0
LINE
  5
629
  8
0
 62
     7
 10
131.93100000000001
 20
83.072500000000005
 30
0.0
 11
131.93100000000001
 21
91.805800000000005
 31
0.0
  0
ARC
  5
62A
  8
0
 62
     7
 10
69.869540000000001
 20
98.977568999999988
 30
0.0
 40
0.272013
 50
181.02432099999999
 51
246.689931
  0
ARC
  5
62B
  8
0
 62
     7
 10
70.094624999999994
 20
94.46085699999999
 30
0.0
 40
4.2802819999999988
 50
85.833315999999996
 51
89.014349999999993
  0
ARC
  5
62C
  8
0
 62
     7
 10
69.978467000000009
 20
90.063338999999985
 30
0.0
 40
8.6792420000000003
 50
88.747017000000014
 51
90.078710000000015
  0
ARC
  5
62D
  8
0
 62
     7
 10
69.964833999999996
 20
95.848468000000011
 30
0.0
 40
2.8941059999999998
 50
89.966175000000007
 51
91.531648000000018
  0
ARC
  5
62E
  8
0
 62
     7
 10
69.913997999999992
 20
97.014685999999998
 30
0.0
 40
1.7270570000000001
 50
90.879878000000005
 51
92.938406999999984
  0
ARC
  5
62F
  8
0
 62
     7
 10
69.838906999999992
 20
98.488212000000004
 30
0.0
 40
0.251619
 50
93.06234400000001
 51
107.820488
  0
LINE
  5
630
  8
0
 62
     7
 10
138.59700000000001
 20
91.805800000000005
 30
0.0
 11
138.59700000000001
 21
102.539
 31
0.0
  0
LINE
  5
631
  8
0
 62
     7
 10
129.26400000000001
 20
98.729100000000003
 30
0.0
 11
78.597399999999993
 21
98.729100000000003
 31
0.0
  0
ARC
  5
632
  8
0
 62
     7
 10
70.621408000000002
 20
100.472195
 30
0.0
 40
1.750318
 50
268.82308799999998
 51
274.69833
  0
ARC
  5
633
  8
0
 62
     7
 10
70.617315000000005
 20
101.615424
 30
0.0
 40
2.893352999999999
 50
265.80420800000002
 51
269.36913900000002
  0
LINE
  5
634
  8
0
 62
     7
 10
78.597399999999993
 20
98.729100000000003
 30
0.0
 11
78.064099999999996
 21
98.729100000000003
 31
0.0
  0
LINE
  5
635
  8
0
 62
     7
 10
78.064099999999996
 20
98.729100000000003
 30
0.0
 11
75.930899999999994
 21
98.728800000000021
 31
0.0
  0
LINE
  5
636
  8
0
 62
     7
 10
75.930899999999994
 20
98.728800000000021
 30
0.0
 11
70.765299999999996
 21
98.727800000000002
 31
0.0
  0
ARC
  5
637
  8
0
 62
     7
 10
129.10183599999999
 20
95.994722999999993
 30
0.0
 40
2.8289299999999988
 50
359.97957000000002
 51
5.3671249999999988
  0
ARC
  5
638
  8
0
 62
     7
 10
129.19452000000001
 20
96.003646000000003
 30
0.0
 40
2.7358180000000001
 50
5.3626230000000001
 51
10.918633
  0
ARC
  5
639
  8
0
 62
     7
 10
129.15620999999999
 20
96.006643000000011
 30
0.0
 40
2.772885
 50
10.707884
 51
16.214409
  0
ARC
  5
63A
  8
0
 62
     7
 10
128.916561
 20
95.914462999999984
 30
0.0
 40
3.0288179999999998
 50
16.622935999999999
 51
21.618396000000001
  0
ARC
  5
63B
  8
0
 62
     7
 10
129.18293899999989
 20
96.005414999999999
 30
0.0
 40
2.747703
 50
21.901688
 51
32.933115999999998
  0
ARC
  5
63C
  8
0
 62
     7
 10
129.15287799999999
 20
95.977551000000005
 30
0.0
 40
2.7880910000000001
 50
33.077863999999998
 51
43.961940999999989
  0
ARC
  5
63D
  8
0
 62
     7
 10
129.02496099999999
 20
95.841492000000002
 30
0.0
 40
2.9746290000000002
 50
44.137954000000001
 51
49.237606
  0
ARC
  5
63E
  8
0
 62
     7
 10
129.27684400000001
 20
96.137462999999997
 30
0.0
 40
2.585993999999999
 50
49.183011
 51
55.092982999999997
  0
ARC
  5
63F
  8
0
 62
     7
 10
129.26520600000001
 20
96.135559000000015
 30
0.0
 40
2.594228999999999
 50
54.906244999999991
 51
66.56995400000001
  0
ARC
  5
640
  8
0
 62
     7
 10
129.19558699999999
 20
95.953905999999989
 30
0.0
 40
2.788599
 50
66.741567000000003
 51
72.215723999999994
  0
ARC
  5
641
  8
0
 62
     7
 10
129.26393100000001
 20
96.113899000000004
 30
0.0
 40
2.6154269999999991
 50
72.570843999999994
 51
78.381582999999992
  0
ARC
  5
642
  8
0
 62
     7
 10
129.24368699999999
 20
95.974748999999989
 30
0.0
 40
2.7558150000000001
 50
78.551956000000004
 51
84.046593000000001
  0
ARC
  5
643
  8
0
 62
     7
 10
129.25965099999999
 20
96.012982999999991
 30
0.0
 40
2.7161580000000001
 50
84.297868999999992
 51
89.903079000000005
  0
ARC
  5
644
  8
0
 62
     7
 10
65.892329000000004
 20
90.752016999999995
 30
0.0
 40
8.8091100000000004
 50
59.531519999999993
 51
59.97636700000001
  0
ARC
  5
645
  8
0
 62
     7
 10
82.974622999999994
 20
120.028606
 30
0.0
 40
25.086739999999999
 50
239.80958100000001
 51
240.02463399999999
  0
LINE
  5
646
  8
0
 62
     7
 10
70.440600000000003
 20
98.297499999999999
 30
0.0
 11
70.481399999999994
 21
98.274000000000001
 31
0.0
  0
ARC
  5
647
  8
0
 62
     7
 10
82.451950999999994
 20
119.016881
 30
0.0
 40
23.949097999999999
 50
240.0111
 51
240.6892
  0
ARC
  5
648
  8
0
 62
     7
 10
62.604692000000007
 20
83.439873000000006
 30
0.0
 40
16.789760000000001
 50
60.743915999999999
 51
61.065475999999997
  0
ARC
  5
649
  8
0
 62
     7
 10
61.968209999999992
 20
82.030218999999988
 30
0.0
 40
18.331149
 50
61.014568000000011
 51
61.161568000000003
  0
ARC
  5
64A
  8
0
 62
     7
 10
1.6166679999999991
 20
-28.47777
 30
0.0
 40
144.24481399999999
 50
61.260371999999997
 51
61.315918000000003
  0
ARC
  5
64B
  8
0
 62
     7
 10
78.391799000000006
 20
111.53406099999999
 30
0.0
 40
15.435285
 50
241.276656
 51
241.96272400000001
  0
ARC
  5
64C
  8
0
 62
     7
 10
74.393734999999992
 20
103.962155
 30
0.0
 40
6.872796000000001
 50
241.71024
 51
242.09442000000001
  0
ARC
  5
64D
  8
0
 62
     7
 10
76.169976000000005
 20
107.216689
 30
0.0
 40
10.580304
 50
241.842468
 51
242.34070800000001
  0
ARC
  5
64E
  8
0
 62
     7
 10
74.818087000000006
 20
104.51759800000001
 30
0.0
 40
7.5622949999999989
 50
241.919803
 51
242.96355299999999
  0
ARC
  5
64F
  8
0
 62
     7
 10
84.134139000000005
 20
122.304822
 30
0.0
 40
27.641183999999999
 50
242.52274800000001
 51
242.90282099999999
  0
LINE
  5
650
  8
0
 62
     7
 10
71.543499999999995
 20
97.697700000000012
 30
0.0
 11
71.623599999999996
 21
97.657399999999996
 31
0.0
  0
LINE
  5
651
  8
0
 62
     7
 10
71.623599999999996
 20
97.657399999999996
 30
0.0
 11
71.703900000000004
 21
97.617099999999994
 31
0.0
  0
LINE
  5
652
  8
0
 62
     7
 10
71.703900000000004
 20
97.617099999999994
 30
0.0
 11
71.783999999999992
 21
97.577399999999997
 31
0.0
  0
ARC
  5
653
  8
0
 62
     7
 10
80.874531999999974
 20
115.970735
 30
0.0
 40
20.517091000000001
 50
243.70005499999999
 51
244.20175399999999
  0
ARC
  5
654
  8
0
 62
     7
 10
74.899532999999991
 20
103.60550600000001
 30
0.0
 40
6.783938
 50
244.18561600000001
 51
244.94439600000001
  0
ARC
  5
655
  8
0
 62
     7
 10
73.533943000000008
 20
100.583772
 30
0.0
 40
3.468494999999999
 50
244.24044499999999
 51
244.983768
  0
ARC
  5
656
  8
0
 62
     7
 10
83.909995999999978
 20
122.386523
 30
0.0
 40
27.614266000000001
 50
244.604457
 51
244.88424599999999
  0
ARC
  5
657
  8
0
 62
     7
 10
78.186785
 20
110.190257
 30
0.0
 40
14.141923999999999
 50
244.90614199999999
 51
245.82364200000001
  0
ARC
  5
658
  8
0
 62
     7
 10
73.594562999999994
 20
99.948781999999994
 30
0.0
 40
2.9180120000000001
 50
245.72686100000001
 51
246.61426499999999
  0
ARC
  5
659
  8
0
 62
     7
 10
75.340694999999997
 20
103.60875799999999
 30
0.0
 40
6.9720209999999998
 50
245.38166000000001
 51
245.993683
  0
LINE
  5
65A
  8
0
 62
     7
 10
72.504699999999985
 20
97.239500000000021
 30
0.0
 11
72.521999999999991
 21
97.236699999999999
 31
0.0
  0
LINE
  5
65B
  8
0
 62
     7
 10
72.521999999999991
 20
97.236699999999999
 30
0.0
 11
72.539500000000004
 21
97.233999999999995
 31
0.0
  0
ARC
  5
65C
  8
0
 62
     7
 10
78.665025999999997
 20
127.486199
 30
0.0
 40
30.866161999999999
 50
258.553472
 51
258.62458400000003
  0
ARC
  5
65D
  8
0
 62
     7
 10
80.097978999999995
 20
136.16786300000001
 30
0.0
 40
39.661104999999999
 50
259.068872
 51
259.20088800000002
  0
ARC
  5
65E
  8
0
 62
     7
 10
73.435956000000004
 20
101.127376
 30
0.0
 40
3.9929999999999999
 50
258.894296
 51
262.61873800000001
  0
ARC
  5
65F
  8
0
 62
     7
 10
73.391525999999999
 20
100.75101100000001
 30
0.0
 40
3.6140479999999999
 50
262.55071600000002
 51
265.34934599999991
  0
ARC
  5
660
  8
0
 62
     7
 10
73.473264
 20
101.850189
 30
0.0
 40
4.7162410000000001
 50
265.442317
 51
268.00605400000001
  0
ARC
  5
661
  8
0
 62
     7
 10
73.483473000000004
 20
102.883109
 30
0.0
 40
5.7489480000000004
 50
268.26256000000001
 51
273.64043399999991
  0
ARC
  5
662
  8
0
 62
     7
 10
73.168657999999994
 20
108.164357
 30
0.0
 40
11.039548999999999
 50
273.53065700000002
 51
275.25767300000001
  0
ARC
  5
663
  8
0
 62
     7
 10
72.990393000000012
 20
109.753761
 30
0.0
 40
12.638642000000001
 50
275.40215200000011
 51
277.05734200000001
  0
ARC
  5
664
  8
0
 62
     7
 10
71.683351000000002
 20
120.85082800000001
 30
0.0
 40
23.812311999999999
 50
276.89787899999999
 51
278.83059199999991
  0
LINE
  5
665
  8
0
 62
     7
 10
75.338899999999995
 20
97.320800000000006
 30
0.0
 11
76.208200000000005
 21
97.450999999999993
 31
0.0
  0
ARC
  5
666
  8
0
 62
     7
 10
81.750927000000004
 20
59.207371000000002
 30
0.0
 40
38.643194999999999
 50
96.880456999999993
 51
98.246512999999993
  0
LINE
  5
667
  8
0
 62
     7
 10
139.5979999999999
 20
91.805800000000005
 30
0.0
 11
139.5979999999999
 21
82.972499999999997
 31
0.0
  0
LINE
  5
668
  8
0
 62
     7
 10
139.5979999999999
 20
101.97199999999999
 30
0.0
 11
139.5979999999999
 21
91.805800000000005
 31
0.0
  0
LINE
  5
669
  8
0
 62
     7
 10
139.5979999999999
 20
102.639
 30
0.0
 11
139.5979999999999
 21
101.97199999999999
 31
0.0
  0
LINE
  5
66A
  8
0
 62
     7
 10
139.5979999999999
 20
101.97199999999999
 30
0.0
 11
138.59700000000001
 21
101.97199999999999
 31
0.0
  0
LINE
  5
66B
  8
0
 62
     7
 10
138.59700000000001
 20
102.639
 30
0.0
 11
139.5979999999999
 21
102.639
 31
0.0
  0
LINE
  5
66C
  8
0
 62
     7
 10
154.49700000000001
 20
93.638999999999996
 30
0.0
 11
139.5979999999999
 21
93.638999999999996
 31
0.0
  0
LINE
  5
66D
  8
0
 62
     7
 10
139.5979999999999
 20
91.972199999999987
 30
0.0
 11
154.49700000000001
 21
91.972199999999987
 31
0.0
  0
LINE
  5
66E
  8
0
 62
     7
 10
154.5379999999999
 20
96.638999999999996
 30
0.0
 11
140.17699999999999
 21
96.638999999999996
 31
0.0
  0
LINE
  5
66F
  8
0
 62
     7
 10
140.17699999999999
 20
88.972600000000014
 30
0.0
 11
154.17699999999999
 21
88.972600000000014
 31
0.0
  0
LINE
  5
670
  8
0
 62
     7
 10
159.09800000000001
 20
100.40600000000001
 30
0.0
 11
159.09800000000001
 21
97.639799999999994
 31
0.0
  0
LINE
  5
671
  8
0
 62
     7
 10
168.09700000000001
 20
97.2774
 30
0.0
 11
168.09700000000001
 21
100.40600000000001
 31
0.0
  0
LINE
  5
672
  8
0
 62
     7
 10
140.17699999999999
 20
95.305700000000002
 30
0.0
 11
139.5979999999999
 21
95.305700000000002
 31
0.0
  0
LINE
  5
673
  8
0
 62
     7
 10
139.5979999999999
 20
90.305800000000005
 30
0.0
 11
140.17699999999999
 21
90.305800000000005
 31
0.0
  0
ARC
  5
674
  8
0
 62
     7
 10
83.739195999999978
 20
91.738150000000005
 30
0.0
 40
0.172165
 50
261.73765800000001
 51
345.21259400000002
  0
ARC
  5
675
  8
0
 62
     7
 10
73.458546999999996
 20
93.551541999999984
 30
0.0
 40
0.172949
 50
174.99544700000001
 51
258.0904240000001
  0
LINE
  5
676
  8
0
 62
     7
 10
83.905699999999996
 20
91.694199999999995
 30
0.0
 11
84.710599999999985
 21
95.180699999999987
 31
0.0
  0
LINE
  5
677
  8
0
 62
     7
 10
73.519999999999996
 20
95.469699999999989
 30
0.0
 11
73.286299999999997
 21
93.566599999999994
 31
0.0
  0
LINE
  5
678
  8
0
 62
     7
 10
132.197
 20
82.805800000000005
 30
0.0
 11
135.49700000000001
 21
82.805800000000005
 31
0.0
  0
LINE
  5
679
  8
0
 62
     7
 10
137.154
 20
82.805800000000005
 30
0.0
 11
138.59700000000001
 21
82.805800000000005
 31
0.0
  0
ARC
  5
67A
  8
0
 62
     7
 10
132.207616
 20
83.082656
 30
0.0
 40
0.277038
 50
182.10972899999999
 51
267.89030000000002
  0
LINE
  5
67B
  8
0
 62
     7
 10
138.59700000000001
 20
82.972499999999997
 30
0.0
 11
139.5979999999999
 21
82.972499999999997
 31
0.0
  0
LINE
  5
67C
  8
_________2
 62
     7
 10
205.30099999999999
 20
127.411
 30
0.0
 11
183.55000000000001
 21
127.411
 31
0.0
  0
LINE
  5
67D
  8
_________2
 62
     7
 10
100.3
 20
-4.0910799999999998
 30
0.0
 11
100.3
 21
-21.071400000000001
 31
0.0
  0
LINE
  5
67E
  8
_________2
 62
     7
 10
100.3
 20
275.93000000000001
 30
0.0
 11
100.3
 21
258.911
 31
0.0
  0
LINE
  5
67F
  8
_________2
 62
     7
 10
17.049499999999998
 20
127.411
 30
0.0
 11
-4.70052
 21
127.411
 31
0.0
  0
LINE
  5
680
  8
_________2
 62
     7
 10
76.741
 20
29.8047
 30
0.0
 11
74.554699999999997
 21
29.8047
 31
0.0
  0
LINE
  5
681
  8
_________2
 62
     7
 10
77.233699999999999
 20
29.8047
 30
0.0
 11
76.981499999999997
 21
29.8047
 31
0.0
  0
LINE
  5
682
  8
_________2
 62
     7
 10
77.726299999999995
 20
29.8047
 30
0.0
 11
80.651200000000003
 21
29.8047
 31
0.0
  0
LINE
  5
683
  8
_________2
 62
     7
 10
77.233699999999999
 20
29.8047
 30
0.0
 11
77.485500000000002
 21
29.8047
 31
0.0
  0
LINE
  5
684
  8
_________2
 62
     7
 10
70.837100000000007
 20
29.8047
 30
0.0
 11
68.650499999999994
 21
29.8047
 31
0.0
  0
LINE
  5
685
  8
_________2
 62
     7
 10
71.329400000000007
 20
29.8047
 30
0.0
 11
71.077600000000004
 21
29.8047
 31
0.0
  0
LINE
  5
686
  8
_________2
 62
     7
 10
71.329400000000007
 20
30.2974
 30
0.0
 11
71.329400000000007
 21
32.484400000000001
 31
0.0
  0
LINE
  5
687
  8
_________2
 62
     7
 10
71.329400000000007
 20
29.8047
 30
0.0
 11
71.329400000000007
 21
30.056899999999999
 31
0.0
  0
LINE
  5
688
  8
_________2
 62
     7
 10
71.822100000000006
 20
29.8047
 30
0.0
 11
74.009
 21
29.8047
 31
0.0
  0
LINE
  5
689
  8
_________2
 62
     7
 10
71.329400000000007
 20
29.8047
 30
0.0
 11
71.581599999999995
 21
29.8047
 31
0.0
  0
LINE
  5
68A
  8
_________2
 62
     7
 10
71.329400000000007
 20
29.312799999999999
 30
0.0
 11
71.329400000000007
 21
27.125800000000002
 31
0.0
  0
LINE
  5
68B
  8
_________2
 62
     7
 10
71.329400000000007
 20
29.8047
 30
0.0
 11
71.329400000000007
 21
29.5532
 31
0.0
  0
LINE
  5
68C
  8
_________2
 62
     7
 10
75.040499999999994
 20
28.5852
 30
0.0
 11
80.218500000000006
 21
27.720400000000001
 31
0.0
  0
LINE
  5
68D
  8
_________2
 62
     7
 10
75.040499999999994
 20
31.0243
 30
0.0
 11
80.218500000000006
 21
31.889700000000001
 31
0.0
  0
LINE
  5
68E
  8
_________2
 62
     7
 10
80.218500000000006
 20
27.720400000000001
 30
0.0
 11
80.218500000000006
 21
31.889700000000001
 31
0.0
  0
LINE
  5
68F
  8
_________2
 62
     7
 10
75.040499999999994
 20
28.5852
 30
0.0
 11
75.040499999999994
 21
31.0243
 31
0.0
  0
ARC
  5
690
  8
_________2
 62
     7
 10
71.28285600000001
 20
29.757811
 30
0.0
 40
1.2673589999999999
 50
2.122214
 51
87.893958999999995
  0
ARC
  5
691
  8
_________2
 62
     7
 10
71.375959999999992
 20
29.758213000000001
 30
0.0
 40
1.2669559999999991
 50
92.104701000000006
 51
177.89526900000001
  0
ARC
  5
692
  8
_________2
 62
     7
 10
71.376357999999996
 20
29.851671
 30
0.0
 40
1.2673680000000001
 50
182.12203600000001
 51
267.877993
  0
ARC
  5
693
  8
_________2
 62
     7
 10
71.282531999999989
 20
29.851998999999999
 30
0.0
 40
1.267695999999999
 50
272.12015300000002
 51
357.863674
  0
ARC
  5
694
  8
_________2
 62
     7
 10
71.329430000000002
 20
29.804742999999998
 30
0.0
 40
2.0849849999999992
 50
0.00001
 51
89.999980000000008
  0
ARC
  5
695
  8
_________2
 62
     7
 10
71.329603000000006
 20
29.804915000000001
 30
0.0
 40
2.084813
 50
90.004733999999999
 51
180.00474399999999
  0
ARC
  5
696
  8
_________2
 62
     7
 10
71.409106000000008
 20
29.884775999999999
 30
0.0
 40
2.1657950000000001
 50
182.11776599999999
 51
267.89173399999999
  0
ARC
  5
697
  8
_________2
 62
     7
 10
71.249459000000002
 20
29.885429999999999
 30
0.0
 40
2.1664590000000001
 50
272.11546800000002
 51
357.86560400000002
  0
TEXT
  5
698
  8
_________2
 62
     7
 10
104.605
 20
1.6794899999999999
 30
0.0
 40
3.0923400000000001
  1
図番
 41
0.5
  0
LINE
  5
699
  8
_________2
 62
     7
 10
103.55
 20
5.9087199999999989
 30
0.0
 11
183.55099999999999
 21
5.9087199999999989
 31
0.0
  0
TEXT
  5
69A
  8
_________2
 62
     7
 10
104.605
 20
11.6793
 30
0.0
 40
3.0923400000000001
  1
品番
 41
0.5
  0
TEXT
  5
69B
  8
_________2
 62
     7
 10
104.605
 20
31.818100000000001
 30
0.0
 40
3.0923400000000001
  1
名称
 41
0.5
  0
TEXT
  5
69C
  8
_________2
 62
     7
 10
91.845058333333341
 20
26.821999999999999
 30
0.0
 40
3.6545800000000002
  1
mm
 41
0.5
 72
     1
 11
93.367800000000003
 21
26.821999999999999
 31
0.0
  0
TEXT
  5
69D
  8
_________2
 62
     7
 10
85.643199999999993
 20
31.818100000000001
 30
0.0
 40
3.0923400000000001
  1
単位
 41
0.5
  0
TEXT
  5
69E
  8
_________2
 62
     7
 10
85.643199999999993
 20
19.410799999999998
 30
0.0
 40
3.0923400000000001
  1
尺度
 41
0.5
  0
TEXT
  5
69F
  8
_________2
 62
     7
 10
90.548758666666686
 20
13.2179
 30
0.0
 40
3.6545800000000002
  1
1 ： 3
 41
0.5
 72
     1
 11
93.959699999999998
 21
13.2179
 31
0.0
  0
TEXT
  5
6A0
  8
_________2
 62
     7
 10
136.006575
 20
9.1078600000000005
 30
0.0
 40
3.9357000000000002
  1
CET3587T
 41
0.5
 72
     1
 11
143.55000000000001
 21
9.1078600000000005
 31
0.0
  0
TEXT
  5
6A1
  8
_________2
 62
     7
 10
136.006575
 20
-0.8926299999999999
 30
0.0
 40
3.9357000000000002
  1
CET3587T
 41
0.5
 72
     1
 11
143.55000000000001
 21
-0.8926299999999999
 31
0.0
  0
TEXT
  5
6A2
  8
_________2
 62
     7
 10
109.179
 20
24.2257
 30
0.0
 40
3.9357000000000002
  1
C1 バススパウト
 41
0.5
  0
TEXT
  5
6A3
  8
_________2
 62
     7
 10
39.425300333333333
 20
13.603
 30
0.0
 40
3.6545800000000002
  1
井田
 41
0.5
 72
     1
 11
41.313499999999998
 21
13.603
 31
0.0
  0
TEXT
  5
6A4
  8
_________2
 62
     7
 10
20.790090666666661
 20
13.603
 30
0.0
 40
3.6545800000000002
  1
恋塚
 41
0.5
 72
     1
 11
22.7392
 21
13.603
 31
0.0
  0
TEXT
  5
6A5
  8
_________2
 62
     7
 10
67.785399999999996
 20
13.2179
 30
0.0
 40
3.6545800000000002
  1
18.10.30
 41
0.5
  0
TEXT
  5
6A6
  8
_________2
 62
     7
 10
66.593100000000007
 20
19.410799999999998
 30
0.0
 40
3.0923400000000001
  1
日付
 41
0.5
  0
TEXT
  5
6A7
  8
_________2
 62
     7
 10
29.639399999999998
 20
19.410799999999998
 30
0.0
 40
3.0923400000000001
  1
検図
 41
0.5
  0
TEXT
  5
6A8
  8
_________2
 62
     7
 10
18.021100000000001
 20
5.21143
 30
0.0
 40
3.0923400000000001
  1
備考
 41
0.5
  0
TEXT
  5
6A9
  8
_________2
 62
     7
 10
18.021100000000001
 20
19.410799999999998
 30
0.0
 40
3.0923400000000001
  1
製図
 41
0.5
  0
TEXT
  5
6AA
  8
_________2
 62
     7
 10
23.788465333333338
 20
27.936800000000002
 30
0.0
 40
4.4979399999999989
  1
セラトレーディング株式会社
 41
0.5
 72
     1
 11
41.180500000000002
 21
27.936800000000002
 31
0.0
  0
LINE
  5
6AB
  8
_________2
 62
     7
 10
183.55099999999999
 20
-4.0910799999999998
 30
0.0
 11
17.049499999999998
 21
-4.0910799999999998
 31
0.0
  0
LINE
  5
6AC
  8
_________2
 62
     7
 10
17.049499999999998
 20
-4.0910799999999998
 30
0.0
 11
17.049499999999998
 21
258.911
 31
0.0
  0
LINE
  5
6AD
  8
_________2
 62
     7
 10
17.049499999999998
 20
258.911
 30
0.0
 11
183.55099999999999
 21
258.911
 31
0.0
  0
LINE
  5
6AE
  8
_________2
 62
     7
 10
183.55099999999999
 20
258.911
 30
0.0
 11
183.55099999999999
 21
-4.0910799999999998
 31
0.0
  0
LINE
  5
6AF
  8
_________2
 62
     7
 10
65.549599999999998
 20
9.4089600000000004
 30
0.0
 11
65.549599999999998
 21
35.908799999999999
 31
0.0
  0
LINE
  5
6B0
  8
_________2
 62
     7
 10
84.549700000000016
 20
9.4089600000000004
 30
0.0
 11
84.549700000000016
 21
35.908799999999999
 31
0.0
  0
LINE
  5
6B1
  8
_________2
 62
     7
 10
103.55
 20
-4.0910799999999998
 30
0.0
 11
103.55
 21
35.908799999999999
 31
0.0
  0
LINE
  5
6B2
  8
_________2
 62
     7
 10
28.549299999999999
 20
9.4089600000000004
 30
0.0
 11
28.549299999999999
 21
23.409199999999998
 31
0.0
  0
LINE
  5
6B3
  8
_________2
 62
     7
 10
17.049499999999998
 20
9.4089600000000004
 30
0.0
 11
103.55
 21
9.4089600000000004
 31
0.0
  0
LINE
  5
6B4
  8
_________2
 62
     7
 10
17.049499999999998
 20
23.409199999999998
 30
0.0
 11
103.55
 21
23.409199999999998
 31
0.0
  0
LINE
  5
6B5
  8
_________2
 62
     7
 10
103.55
 20
15.9085
 30
0.0
 11
183.55099999999999
 21
15.9085
 31
0.0
  0
LINE
  5
6B6
  8
_________2
 62
     7
 10
17.049499999999998
 20
35.908799999999999
 30
0.0
 11
183.55099999999999
 21
35.908799999999999
 31
0.0
  0
ENDSEC
  0
EOF
