  0
SECTION
  2
HEADER
  9
$ACADVER
  1
AC1009
  9
$INSBASE
 10
0.0
 20
0.0
 30
0.0
  9
$EXTMIN
 10
-4.70052
 20
-21.071400000000001
 30
0.0
  9
$EXTMAX
 10
205.30099999999999
 20
275.93099999999993
 30
0.0
  9
$LIMMIN
 10
0.0
 20
0.0
  9
$LIMMAX
 10
12.0
 20
9.0
  9
$ORTHOMODE
 70
     0
  9
$REGENMODE
 70
     1
  9
$FILLMODE
 70
     1
  9
$QTEXTMODE
 70
     0
  9
$MIRRTEXT
 70
     1
  9
$DRAGMODE
 70
     2
  9
$LTSCALE
 40
1.0
  9
$OSMODE
 70
    37
  9
$ATTMODE
 70
     1
  9
$TEXTSIZE
 40
0.0
  9
$TRACEWID
 40
0.05
  9
$TEXTSTYLE
  7
STANDARD
  9
$CLAYER
  8
0
  9
$CELTYPE
  6
CONTINUOUS
  9
$CECOLOR
 62
   256
  9
$DIMSCALE
 40
1.0
  9
$DIMASZ
 40
0.18
  9
$DIMEXO
 40
0.0625
  9
$DIMDLI
 40
0.38
  9
$DIMRND
 40
0.0
  9
$DIMDLE
 40
0.0
  9
$DIMEXE
 40
0.18
  9
$DIMTP
 40
0.0
  9
$DIMTM
 40
0.0
  9
$DIMTXT
 40
0.18
  9
$DIMCEN
 40
0.09
  9
$DIMTSZ
 40
0.0
  9
$DIMTOL
 70
     0
  9
$DIMLIM
 70
     0
  9
$DIMTIH
 70
     1
  9
$DIMTOH
 70
     1
  9
$DIMSE1
 70
     0
  9
$DIMSE2
 70
     0
  9
$DIMTAD
 70
     0
  9
$DIMZIN
 70
     0
  9
$DIMBLK
  1

  9
$DIMASO
 70
     1
  9
$DIMSHO
 70
     1
  9
$DIMPOST
  1

  9
$DIMAPOST
  1

  9
$DIMALT
 70
     0
  9
$DIMALTD
 70
     2
  9
$DIMALTF
 40
25.399999999999999
  9
$DIMLFAC
 40
1.0
  9
$DIMTOFL
 70
     0
  9
$DIMTVP
 40
0.0
  9
$DIMTIX
 70
     0
  9
$DIMSOXD
 70
     0
  9
$DIMSAH
 70
     0
  9
$DIMBLK1
  1

  9
$DIMBLK2
  1

  9
$DIMSTYLE
  2
STANDARD
  9
$DIMCLRD
 70
     0
  9
$DIMCLRE
 70
     0
  9
$DIMCLRT
 70
     0
  9
$DIMTFAC
 40
1.0
  9
$DIMGAP
 40
0.09
  9
$LUNITS
 70
     2
  9
$LUPREC
 70
     4
  9
$SKETCHINC
 40
0.1
  9
$FILLETRAD
 40
0.0
  9
$AUNITS
 70
     0
  9
$AUPREC
 70
     0
  9
$MENU
  1
.
  9
$ELEVATION
 40
0.0
  9
$PELEVATION
 40
0.0
  9
$THICKNESS
 40
0.0
  9
$LIMCHECK
 70
     0
  9
$BLIPMODE
 70
     0
  9
$CHAMFERA
 40
0.0
  9
$CHAMFERB
 40
0.0
  9
$SKPOLY
 70
     0
  9
$TDCREATE
 40
2444972.375
  9
$TDUPDATE
 40
2454198.2860100111
  9
$TDINDWG
 40
0.0000153125
  9
$TDUSRTIMER
 40
0.0000153125
  9
$USRTIMER
 70
     1
  9
$ANGBASE
 50
0.0
  9
$ANGDIR
 70
     0
  9
$PDMODE
 70
     0
  9
$PDSIZE
 40
0.0
  9
$PLINEWID
 40
0.0
  9
$COORDS
 70
     1
  9
$SPLFRAME
 70
     0
  9
$SPLINETYPE
 70
     6
  9
$SPLINESEGS
 70
     8
  9
$ATTDIA
 70
     0
  9
$ATTREQ
 70
     1
  9
$HANDLING
 70
     1
  9
$HANDSEED
  5
1BC
  9
$SURFTAB1
 70
     6
  9
$SURFTAB2
 70
     6
  9
$SURFTYPE
 70
     6
  9
$SURFU
 70
     6
  9
$SURFV
 70
     6
  9
$UCSNAME
  2

  9
$UCSORG
 10
0.0
 20
0.0
 30
0.0
  9
$UCSXDIR
 10
1.0
 20
0.0
 30
0.0
  9
$UCSYDIR
 10
0.0
 20
1.0
 30
0.0
  9
$PUCSNAME
  2

  9
$PUCSORG
 10
0.0
 20
0.0
 30
0.0
  9
$PUCSXDIR
 10
1.0
 20
0.0
 30
0.0
  9
$PUCSYDIR
 10
0.0
 20
1.0
 30
0.0
  9
$USERI1
 70
     0
  9
$USERI2
 70
     0
  9
$USERI3
 70
     0
  9
$USERI4
 70
     0
  9
$USERI5
 70
     0
  9
$USERR1
 40
0.0
  9
$USERR2
 40
0.0
  9
$USERR3
 40
0.0
  9
$USERR4
 40
0.0
  9
$USERR5
 40
0.0
  9
$WORLDVIEW
 70
     1
  9
$SHADEDGE
 70
     3
  9
$SHADEDIF
 70
    70
  9
$TILEMODE
 70
     1
  9
$MAXACTVP
 70
    48
  9
$PLIMCHECK
 70
     0
  9
$PEXTMIN
 10
1.0000000000000000E+020
 20
1.0000000000000000E+020
 30
1.0000000000000000E+020
  9
$PEXTMAX
 10
-1.0000000000000000E+020
 20
-1.0000000000000000E+020
 30
-1.0000000000000000E+020
  9
$PLIMMIN
 10
0.0
 20
0.0
  9
$PLIMMAX
 10
12.0
 20
9.0
  9
$UNITMODE
 70
     0
  9
$VISRETAIN
 70
     1
  9
$PLINEGEN
 70
     0
  9
$PSLTSCALE
 70
     1
  0
ENDSEC
  0
SECTION
  2
TABLES
  0
TABLE
  2
VPORT
 70
     2
  0
VPORT
  2
*ACTIVE
 70
     0
 10
0.0
 20
0.0
 11
1.0
 21
1.0
 12
189.56085651407921
 22
127.4297999999999
 13
0.0
 23
0.0
 14
1.0
 24
1.0
 15
0.0
 25
0.0
 16
0.0
 26
0.0
 36
1.0
 17
0.0
 27
0.0
 37
0.0
 40
299.2467506297229
 41
2.1842105263157889
 42
50.0
 43
0.0
 44
0.0
 50
0.0
 51
0.0
 71
     0
 72
   100
 73
     1
 74
     1
 75
     0
 76
     0
 77
     0
 78
     0
  0
ENDTAB
  0
TABLE
  2
LTYPE
 70
     2
  0
LTYPE
  2
CONTINUOUS
 70
     0
  3
Solid line
 72
    65
 73
     0
 40
0.0
  0
LTYPE
  2
AIGENLINE001
 70
     0
  3
generate AI->DXF Converter
 72
    65
 73
     4
 40
5.8561449999999988
 49
3.5278
 49
-0.776115
 49
0.776115
 49
-0.776115
  0
ENDTAB
  0
TABLE
  2
LAYER
 70
     2
  0
LAYER
  2
0
 70
     0
 62
     7
  6
CONTINUOUS
  0
LAYER
  2
_________2
 70
     0
 62
     7
  6
CONTINUOUS
  0
ENDTAB
  0
TABLE
  2
STYLE
 70
     1
  0
STYLE
  2
STANDARD
 70
     0
 40
0.0
 41
0.0
 50
0.0
 71
     0
 42
0.0
  3
TXT
  4
EXTFONT.SHX
  0
ENDTAB
  0
TABLE
  2
VIEW
 70
     0
  0
ENDTAB
  0
TABLE
  2
UCS
 70
     0
  0
ENDTAB
  0
TABLE
  2
APPID
 70
     1
  0
APPID
  2
ACAD
 70
     0
  0
ENDTAB
  0
TABLE
  2
DIMSTYLE
 70
     1
  0
DIMSTYLE
  2
STANDARD
 70
     0
  3

  4

  5

  6

  7

 40
1.0
 41
0.18
 42
0.0625
 43
0.38
 44
0.18
 45
0.0
 46
0.0
 47
0.0
 48
0.0
140
0.18
141
0.09
142
0.0
143
25.399999999999999
144
1.0
145
0.0
146
1.0
147
0.09
 71
     0
 72
     0
 73
     1
 74
     1
 75
     0
 76
     0
 77
     0
 78
     0
170
     0
171
     2
172
     0
173
     0
174
     0
175
     0
176
     0
177
     0
178
     0
  0
ENDTAB
  0
ENDSEC
  0
SECTION
  2
BLOCKS
  0
BLOCK
  8
0
  2
$MODEL_SPACE
 70
     0
 10
0.0
 20
0.0
 30
0.0
  3
$MODEL_SPACE
  1

  0
ENDBLK
  5
1A
  8
0
  0
BLOCK
 67
     1
  8
0
  2
$PAPER_SPACE
 70
     0
 10
0.0
 20
0.0
 30
0.0
  3
$PAPER_SPACE
  1

  0
ENDBLK
  5
17
 67
     1
  8
0
  0
ENDSEC
  0
SECTION
  2
ENTITIES
  0
TEXT
  5
22
  8
0
 62
     7
 10
135.602
 20
106.517
 30
0.0
 40
3.0923400000000001
  1
%%c5
 50
90.0
 41
0.5
  0
TEXT
  5
23
  8
0
 62
     7
 10
92.8583
 20
96.470887500000003
 30
0.0
 40
3.0923400000000001
  1
205
 50
90.0
 41
0.5
 72
     1
 11
92.8583
 21
98.403599999999997
 31
0.0
  0
TEXT
  5
24
  8
0
 62
     7
 10
131.7882875
 20
95.287800000000004
 30
0.0
 40
3.0923400000000001
  1
220
 41
0.5
 72
     1
 11
133.721
 21
95.287800000000004
 31
0.0
  0
TEXT
  5
25
  8
0
 62
     7
 10
105.00843999999999
 20
134.11299999999989
 30
0.0
 40
3.0923400000000001
  1
%%c54
 41
0.5
 72
     1
 11
107.06999999999989
 21
134.11299999999989
 31
0.0
  0
TEXT
  5
26
  8
0
 62
     7
 10
104.94844000000001
 20
66.923500000000004
 30
0.0
 40
3.0923400000000001
  1
%%c32
 41
0.5
 72
     1
 11
107.01000000000001
 21
66.923500000000004
 31
0.0
  0
TEXT
  5
27
  8
0
 62
     7
 10
119.3659999999999
 20
116.5754225
 30
0.0
 40
3.0923400000000001
  1
max.50
 50
90.0
 41
0.5
 72
     1
 11
119.3659999999999
 21
120.312
 31
0.0
  0
ARC
  5
28
  8
0
 62
     7
 10
57.128742000000003
 20
166.30209899999991
 30
0.0
 40
7.2739359999999991
 50
269.99934100000002
 51
359.99931199999997
  0
ARC
  5
29
  8
0
 62
     7
 10
57.128742000000003
 20
166.3019239999999
 30
0.0
 40
7.2737610000000004
 50
179.999292
 51
269.99934100000002
  0
ARC
  5
2A
  8
0
 62
     7
 10
57.128657999999987
 20
166.30200999999991
 30
0.0
 40
7.2736770000000002
 50
90.0
 51
179.99996999999991
  0
ARC
  5
2B
  8
0
 62
     7
 10
57.128827999999999
 20
166.30183799999989
 30
0.0
 40
7.2738500000000004
 50
0.001367
 51
90.001337000000007
  0
ARC
  5
2C
  8
0
 62
     7
 10
57.128655999999999
 20
166.3020129999999
 30
0.0
 40
6.7500189999999991
 50
270.00002000000001
 51
359.99998999999991
  0
ARC
  5
2D
  8
0
 62
     7
 10
57.128655999999999
 20
166.30200999999991
 30
0.0
 40
6.7500169999999988
 50
179.99996999999991
 51
270.00002000000001
  0
ARC
  5
2E
  8
0
 62
     7
 10
57.128657999999987
 20
166.30200999999991
 30
0.0
 40
6.7500189999999991
 50
90.0
 51
179.99996999999991
  0
ARC
  5
2F
  8
0
 62
     7
 10
57.128655999999999
 20
166.30200999999991
 30
0.0
 40
6.7500189999999991
 50
0.00001
 51
89.999980000000008
  0
ARC
  5
30
  8
0
 62
     7
 10
57.128742000000003
 20
166.30209799999989
 30
0.0
 40
4.5901889999999987
 50
269.99894499999988
 51
359.99891500000001
  0
ARC
  5
31
  8
0
 62
     7
 10
57.128742000000003
 20
166.30192500000001
 30
0.0
 40
4.5900150000000002
 50
179.998895
 51
269.99894499999988
  0
ARC
  5
32
  8
0
 62
     7
 10
57.128657999999987
 20
166.30201099999999
 30
0.0
 40
4.5899309999999991
 50
90.0
 51
179.99996999999991
  0
ARC
  5
33
  8
0
 62
     7
 10
57.128827999999999
 20
166.30183899999989
 30
0.0
 40
4.590103
 50
0.00216
 51
90.002129999999994
  0
LINE
  5
34
  8
0
  6
AIGENLINE001
 62
     7
 10
65.963000000000008
 20
166.30199999999999
 30
0.0
 11
47.572600000000001
 21
166.30199999999999
 31
0.0
  0
LINE
  5
35
  8
0
  6
AIGENLINE001
 62
     7
 10
57.128700000000002
 20
156.16499999999999
 30
0.0
 11
57.128700000000002
 21
238.845
 31
0.0
  0
LINE
  5
36
  8
0
  6
AIGENLINE001
 62
     7
 10
57.128700000000002
 20
70.906000000000006
 30
0.0
 11
57.128700000000002
 21
131.4079999999999
 31
0.0
  0
ARC
  5
37
  8
0
 62
     7
 10
52.960659
 20
127.5668159999999
 30
0.0
 40
0.348907
 50
93.777584000000004
 51
138.00837200000001
  0
ARC
  5
38
  8
0
 62
     7
 10
52.960330999999996
 20
127.571337
 30
0.0
 40
0.345653
 50
138.528941
 51
183.17478799999989
  0
ARC
  5
39
  8
0
 62
     7
 10
52.963327999999997
 20
127.57516699999999
 30
0.0
 40
0.348876
 50
183.775565
 51
228.01045099999999
  0
ARC
  5
3A
  8
0
 62
     7
 10
52.957498999999999
 20
127.572523
 30
0.0
 40
0.343021
 50
228.43870799999999
 51
266.686398
  0
LINE
  5
3B
  8
0
 62
     7
 10
52.9377
 20
127.2299999999999
 30
0.0
 11
61.319600000000001
 21
127.2299999999999
 31
0.0
  0
ARC
  5
3C
  8
0
 62
     7
 10
61.338669999999993
 20
127.5765709999999
 30
0.0
 40
0.347017
 50
266.85672999999991
 51
311.29746799999998
  0
ARC
  5
3D
  8
0
 62
     7
 10
61.33735999999999
 20
127.573678
 30
0.0
 40
0.345721
 50
311.77691399999998
 51
356.43711000000002
  0
ARC
  5
3E
  8
0
 62
     7
 10
61.334443999999998
 20
127.570348
 30
0.0
 40
0.348442
 50
357.013419
 51
41.282851000000001
  0
ARC
  5
3F
  8
0
 62
     7
 10
61.337606000000008
 20
127.5681419999999
 30
0.0
 40
0.347542
 50
41.900153000000003
 51
86.313851000000014
  0
ARC
  5
40
  8
0
 62
     7
 10
61.339795999999993
 20
127.52168899999999
 30
0.0
 40
0.393792
 50
87.066359000000006
 51
92.933620999999988
  0
ARC
  5
41
  8
0
 62
     7
 10
55.665541000000012
 20
122.8415999999999
 30
0.0
 40
6.165591
 50
92.129707999999994
 51
110.9434279999999
  0
ARC
  5
42
  8
0
 62
     7
 10
56.701788999999991
 20
111.26972499999989
 30
0.0
 40
17.778296999999991
 50
88.624150999999983
 51
94.081479000000016
  0
ARC
  5
43
  8
0
 62
     7
 10
57.562258999999997
 20
111.54401799999999
 30
0.0
 40
17.504248999999991
 50
85.875459000000006
 51
91.419421999999997
  0
ARC
  5
44
  8
0
 62
     7
 10
58.521766
 20
122.269482
 30
0.0
 40
6.7401080000000002
 50
69.919199000000006
 51
87.453383000000002
  0
LINE
  5
45
  8
0
 62
     7
 10
60.835900000000002
 20
128.59999999999999
 30
0.0
 11
61.561500000000002
 21
128.358
 31
0.0
  0
ARC
  5
46
  8
0
 62
     7
 10
61.497988999999997
 20
128.14150100000001
 30
0.0
 40
0.225625
 50
51.205886
 51
73.653825999999995
  0
ARC
  5
47
  8
0
 62
     7
 10
61.492980000000003
 20
128.13825499999999
 30
0.0
 40
0.231302
 50
6.6598529999999991
 51
50.742547999999999
  0
ARC
  5
48
  8
0
 62
     7
 10
61.491886999999991
 20
128.14233400000001
 30
0.0
 40
0.231952
 50
321.51642399999997
 51
5.627762999999999
  0
ARC
  5
49
  8
0
 62
     7
 10
61.496555999999998
 20
128.14127999999999
 30
0.0
 40
0.227651
 50
276.21007500000002
 51
320.99269199999998
  0
LINE
  5
4A
  8
0
 62
     7
 10
61.5212
 20
127.91500000000001
 30
0.0
 11
52.776400000000002
 21
127.91500000000001
 31
0.0
  0
ARC
  5
4B
  8
0
 62
     7
 10
52.759281999999992
 20
128.1381649999999
 30
0.0
 40
0.223859
 50
241.28476299999991
 51
274.39606800000001
  0
ARC
  5
4C
  8
0
 62
     7
 10
52.762890000000013
 20
128.1434129999999
 30
0.0
 40
0.230196
 50
196.798362
 51
241.12476799999999
  0
ARC
  5
4D
  8
0
 62
     7
 10
52.762526999999999
 20
128.14025699999999
 30
0.0
 40
0.228955
 50
151.6033919999999
 51
196.06850399999999
  0
ARC
  5
4E
  8
0
 62
     7
 10
52.761325999999997
 20
128.1391889999999
 30
0.0
 40
0.228411
 50
106.66458899999991
 51
151.22457
  0
LINE
  5
4F
  8
0
 62
     7
 10
52.695799999999998
 20
128.358
 30
0.0
 11
53.4617
 21
128.59999999999999
 31
0.0
  0
LINE
  5
50
  8
0
 62
     7
 10
59.667400000000001
 20
124.73099999999999
 30
0.0
 11
59.667400000000001
 21
126.827
 31
0.0
  0
LINE
  5
51
  8
0
 62
     7
 10
59.667400000000001
 20
126.827
 30
0.0
 11
57.934499999999993
 21
126.827
 31
0.0
  0
LINE
  5
52
  8
0
 62
     7
 10
61.279299999999999
 20
127.2299999999999
 30
0.0
 11
61.279299999999999
 21
126.827
 31
0.0
  0
LINE
  5
53
  8
0
 62
     7
 10
61.279299999999999
 20
126.827
 30
0.0
 11
60.070399999999992
 21
126.827
 31
0.0
  0
LINE
  5
54
  8
0
 62
     7
 10
60.070399999999992
 20
126.827
 30
0.0
 11
60.070399999999992
 21
124.73099999999999
 31
0.0
  0
LINE
  5
55
  8
0
 62
     7
 10
56.363199999999999
 20
126.827
 30
0.0
 11
56.363199999999999
 21
124.73099999999999
 31
0.0
  0
LINE
  5
56
  8
0
 62
     7
 10
54.590000000000003
 20
124.73099999999999
 30
0.0
 11
54.590000000000003
 21
126.827
 31
0.0
  0
LINE
  5
57
  8
0
 62
     7
 10
54.590000000000003
 20
126.827
 30
0.0
 11
56.363199999999999
 21
126.827
 31
0.0
  0
LINE
  5
58
  8
0
 62
     7
 10
56.363199999999999
 20
126.827
 30
0.0
 11
57.934499999999993
 21
126.827
 31
0.0
  0
LINE
  5
59
  8
0
 62
     7
 10
57.934499999999993
 20
126.827
 30
0.0
 11
57.934499999999993
 21
124.73099999999999
 31
0.0
  0
LINE
  5
5A
  8
0
 62
     7
 10
52.978000000000002
 20
127.2299999999999
 30
0.0
 11
52.978000000000002
 21
126.827
 31
0.0
  0
LINE
  5
5B
  8
0
 62
     7
 10
52.978000000000002
 20
126.827
 30
0.0
 11
54.227200000000003
 21
126.827
 31
0.0
  0
LINE
  5
5C
  8
0
 62
     7
 10
54.227200000000003
 20
126.827
 30
0.0
 11
54.227200000000003
 21
124.73099999999999
 31
0.0
  0
LINE
  5
5D
  8
0
 62
     7
 10
63.898699999999998
 20
124.40899999999991
 30
0.0
 11
50.398999999999987
 21
124.40899999999991
 31
0.0
  0
LINE
  5
5E
  8
0
 62
     7
 10
50.398999999999987
 20
124.73099999999999
 30
0.0
 11
50.398999999999987
 21
124.40899999999991
 31
0.0
  0
LINE
  5
5F
  8
0
 62
     7
 10
50.398999999999987
 20
124.40899999999991
 30
0.0
 11
52.413699999999992
 21
122.5149999999999
 31
0.0
  0
LINE
  5
60
  8
0
 62
     7
 10
52.413699999999992
 20
122.5149999999999
 30
0.0
 11
61.883600000000001
 21
122.5149999999999
 31
0.0
  0
LINE
  5
61
  8
0
 62
     7
 10
61.883600000000001
 20
122.5149999999999
 30
0.0
 11
63.898699999999998
 21
124.40899999999991
 31
0.0
  0
LINE
  5
62
  8
0
 62
     7
 10
63.898699999999998
 20
124.40899999999991
 30
0.0
 11
63.898699999999998
 21
124.73099999999999
 31
0.0
  0
LINE
  5
63
  8
0
 62
     7
 10
63.898699999999998
 20
124.73099999999999
 30
0.0
 11
50.398999999999987
 21
124.73099999999999
 31
0.0
  0
LINE
  5
64
  8
0
 62
     7
 10
55.637599999999999
 20
121.06399999999989
 30
0.0
 11
55.637599999999999
 21
118.2429999999999
 31
0.0
  0
LINE
  5
65
  8
0
 62
     7
 10
55.637599999999999
 20
118.2429999999999
 30
0.0
 11
58.619700000000002
 21
118.2429999999999
 31
0.0
  0
LINE
  5
66
  8
0
 62
     7
 10
58.619700000000002
 20
118.2429999999999
 30
0.0
 11
58.619700000000002
 21
121.06399999999989
 31
0.0
  0
LINE
  5
67
  8
0
 62
     7
 10
58.619700000000002
 20
121.06399999999989
 30
0.0
 11
55.637599999999999
 21
121.06399999999989
 31
0.0
  0
LINE
  5
68
  8
0
 62
     7
 10
54.710900000000002
 20
173.16399999999999
 30
0.0
 11
54.710900000000002
 21
174.28099999999989
 31
0.0
  0
LINE
  5
69
  8
0
 62
     7
 10
59.546399999999998
 20
173.16399999999999
 30
0.0
 11
59.546399999999998
 21
174.28099999999989
 31
0.0
  0
LINE
  5
6A
  8
0
 62
     7
 10
60.997199999999999
 20
116.148
 30
0.0
 11
60.997199999999999
 21
122.5149999999999
 31
0.0
  0
LINE
  5
6B
  8
0
 62
     7
 10
60.5944
 20
109.41799999999991
 30
0.0
 11
60.5944
 21
111.836
 31
0.0
  0
LINE
  5
6C
  8
0
 62
     7
 10
60.916899999999991
 20
109.41799999999991
 30
0.0
 11
60.916899999999991
 21
111.836
 31
0.0
  0
LINE
  5
6D
  8
0
 62
     7
 10
53.703499999999998
 20
109.41799999999991
 30
0.0
 11
53.703499999999998
 21
111.836
 31
0.0
  0
LINE
  5
6E
  8
0
 62
     7
 10
53.381100000000004
 20
109.41799999999991
 30
0.0
 11
53.381100000000004
 21
111.836
 31
0.0
  0
LINE
  5
6F
  8
0
 62
     7
 10
53.260100000000001
 20
116.148
 30
0.0
 11
53.260100000000001
 21
122.5149999999999
 31
0.0
  0
LINE
  5
70
  8
0
 62
     7
 10
53.148899999999998
 20
98.698499999999996
 30
0.0
 11
53.148899999999998
 21
73.158100000000005
 31
0.0
  0
LINE
  5
71
  8
0
 62
     7
 10
53.148899999999998
 20
73.158100000000005
 30
0.0
 11
61.148800000000001
 21
73.158100000000005
 31
0.0
  0
LINE
  5
72
  8
0
 62
     7
 10
61.148800000000001
 20
73.158100000000005
 30
0.0
 11
61.148800000000001
 21
98.698499999999996
 31
0.0
  0
LINE
  5
73
  8
0
 62
     7
 10
61.158799999999999
 20
106.43600000000001
 30
0.0
 11
61.158799999999999
 21
98.698499999999996
 31
0.0
  0
LINE
  5
74
  8
0
 62
     7
 10
53.0989
 20
106.43600000000001
 30
0.0
 11
53.0989
 21
98.698499999999996
 31
0.0
  0
LINE
  5
75
  8
0
 62
     7
 10
53.0989
 20
98.698499999999996
 30
0.0
 11
61.1584
 21
98.698499999999996
 31
0.0
  0
LINE
  5
76
  8
0
 62
     7
 10
61.359999999999999
 20
109.41799999999991
 30
0.0
 11
52.9377
 21
109.41799999999991
 31
0.0
  0
LINE
  5
77
  8
0
 62
     7
 10
52.9377
 20
109.41799999999991
 30
0.0
 11
52.9377
 21
106.43600000000001
 31
0.0
  0
LINE
  5
78
  8
0
 62
     7
 10
52.9377
 20
106.43600000000001
 30
0.0
 11
61.359999999999999
 21
106.43600000000001
 31
0.0
  0
LINE
  5
79
  8
0
 62
     7
 10
61.359999999999999
 20
106.43600000000001
 30
0.0
 11
61.359999999999999
 21
109.41799999999991
 31
0.0
  0
ARC
  5
7A
  8
0
 62
     7
 10
60.775657999999993
 20
115.326604
 30
0.0
 40
3.4881120000000001
 50
248.66262499999991
 51
291.33739500000001
  0
ARC
  5
7B
  8
0
 62
     7
 10
60.773720999999988
 20
110.21181799999989
 30
0.0
 40
3.0312450000000002
 50
65.207153000000005
 51
109.66118
  0
ARC
  5
7C
  8
0
 62
     7
 10
60.710340000000002
 20
110.41241599999999
 30
0.0
 40
2.8210269999999991
 50
109.8197279999999
 51
115.261231
  0
ARC
  5
7D
  8
0
 62
     7
 10
53.501638
 20
115.222742
 30
0.0
 40
3.3841519999999989
 50
248.33790699999989
 51
291.66211299999992
  0
ARC
  5
7E
  8
0
 62
     7
 10
53.46423699999999
 20
110.4244689999999
 30
0.0
 40
2.813540999999999
 50
109.413095
 51
115.51213300000001
  0
ARC
  5
7F
  8
0
 62
     7
 10
53.500087999999998
 20
110.303912
 30
0.0
 40
2.939166999999999
 50
64.814801000000003
 51
109.291112
  0
LINE
  5
80
  8
0
 62
     7
 10
54.750799999999998
 20
112.9639999999999
 30
0.0
 11
54.750799999999998
 21
112.0779999999999
 31
0.0
  0
ARC
  5
81
  8
0
 62
     7
 10
57.128656999999997
 20
123.67974599999999
 30
0.0
 40
11.843313999999999
 50
258.41783500000003
 51
281.58218499999992
  0
LINE
  5
82
  8
0
 62
     7
 10
59.506500000000003
 20
112.0779999999999
 30
0.0
 11
59.506500000000003
 21
112.9639999999999
 31
0.0
  0
ARC
  5
83
  8
0
 62
     7
 10
57.128656999999997
 20
103.041397
 30
0.0
 40
10.203215
 50
76.523512999999994
 51
103.4764669999999
  0
LINE
  5
84
  8
0
 62
     7
 10
52.252400000000002
 20
113.246
 30
0.0
 11
52.252400000000002
 21
111.836
 31
0.0
  0
LINE
  5
85
  8
0
 62
     7
 10
52.252400000000002
 20
111.836
 30
0.0
 11
62.044800000000002
 21
111.836
 31
0.0
  0
LINE
  5
86
  8
0
 62
     7
 10
62.044800000000002
 20
111.836
 30
0.0
 11
62.044800000000002
 21
113.246
 31
0.0
  0
LINE
  5
87
  8
0
 62
     7
 10
51.124200000000002
 20
114.1729999999999
 30
0.0
 11
52.857100000000003
 21
116.148
 31
0.0
  0
LINE
  5
88
  8
0
 62
     7
 10
52.857100000000003
 20
116.148
 30
0.0
 11
61.400300000000001
 21
116.148
 31
0.0
  0
LINE
  5
89
  8
0
 62
     7
 10
61.400300000000001
 20
116.148
 30
0.0
 11
63.173499999999997
 21
114.1729999999999
 31
0.0
  0
LINE
  5
8A
  8
0
 62
     7
 10
51.043500000000002
 20
113.68899999999989
 30
0.0
 11
51.043500000000002
 21
113.246
 31
0.0
  0
LINE
  5
8B
  8
0
 62
     7
 10
51.043500000000002
 20
113.246
 30
0.0
 11
63.254100000000001
 21
113.246
 31
0.0
  0
LINE
  5
8C
  8
0
 62
     7
 10
63.254100000000001
 20
113.246
 30
0.0
 11
63.254100000000001
 21
113.68899999999989
 31
0.0
  0
LINE
  5
8D
  8
0
 62
     7
 10
49.875
 20
114.1729999999999
 30
0.0
 11
49.875
 21
113.68899999999989
 31
0.0
  0
LINE
  5
8E
  8
0
 62
     7
 10
49.875
 20
113.68899999999989
 30
0.0
 11
64.422700000000006
 21
113.68899999999989
 31
0.0
  0
LINE
  5
8F
  8
0
 62
     7
 10
64.422700000000006
 20
113.68899999999989
 30
0.0
 11
64.422700000000006
 21
114.1729999999999
 31
0.0
  0
LINE
  5
90
  8
0
 62
     7
 10
64.422700000000006
 20
114.1729999999999
 30
0.0
 11
49.875
 21
114.1729999999999
 31
0.0
  0
LINE
  5
91
  8
0
 62
     7
 10
57.753599999999999
 20
177.38399999999999
 30
0.0
 11
57.753599999999999
 21
237.55199999999999
 31
0.0
  0
LINE
  5
92
  8
0
 62
     7
 10
56.503700000000002
 20
177.38399999999999
 30
0.0
 11
56.503700000000002
 21
237.55199999999999
 31
0.0
  0
LINE
  5
93
  8
0
 62
     7
 10
56.503700000000002
 20
237.10900000000001
 30
0.0
 11
57.753599999999999
 21
237.10900000000001
 31
0.0
  0
LINE
  5
94
  8
0
 62
     7
 10
57.753599999999999
 20
237.10900000000001
 30
0.0
 11
57.753599999999999
 21
237.55199999999999
 31
0.0
  0
LINE
  5
95
  8
0
 62
     7
 10
57.753599999999999
 20
237.55199999999999
 30
0.0
 11
56.503700000000002
 21
237.55199999999999
 31
0.0
  0
LINE
  5
96
  8
0
 62
     7
 10
56.503700000000002
 20
237.55199999999999
 30
0.0
 11
56.503700000000002
 21
237.10900000000001
 31
0.0
  0
LINE
  5
97
  8
0
 62
     7
 10
54.38839999999999
 20
175.2879999999999
 30
0.0
 11
54.38839999999999
 21
176.61799999999999
 31
0.0
  0
LINE
  5
98
  8
0
 62
     7
 10
54.710900000000002
 20
175.2879999999999
 30
0.0
 11
54.710900000000002
 21
176.61799999999999
 31
0.0
  0
LINE
  5
99
  8
0
 62
     7
 10
55.033000000000001
 20
175.2879999999999
 30
0.0
 11
55.033000000000001
 21
176.61799999999999
 31
0.0
  0
LINE
  5
9A
  8
0
 62
     7
 10
55.355800000000002
 20
175.2879999999999
 30
0.0
 11
55.355800000000002
 21
176.61799999999999
 31
0.0
  0
LINE
  5
9B
  8
0
 62
     7
 10
55.677900000000001
 20
175.2879999999999
 30
0.0
 11
55.677900000000001
 21
176.61799999999999
 31
0.0
  0
LINE
  5
9C
  8
0
 62
     7
 10
56.000399999999992
 20
175.2879999999999
 30
0.0
 11
56.000399999999992
 21
176.61799999999999
 31
0.0
  0
LINE
  5
9D
  8
0
 62
     7
 10
56.322800000000001
 20
175.2879999999999
 30
0.0
 11
56.322800000000001
 21
176.61799999999999
 31
0.0
  0
LINE
  5
9E
  8
0
 62
     7
 10
56.645000000000003
 20
175.2879999999999
 30
0.0
 11
56.645000000000003
 21
176.61799999999999
 31
0.0
  0
LINE
  5
9F
  8
0
 62
     7
 10
56.967399999999998
 20
175.2879999999999
 30
0.0
 11
56.967399999999998
 21
176.61799999999999
 31
0.0
  0
LINE
  5
A0
  8
0
 62
     7
 10
57.289900000000003
 20
175.2879999999999
 30
0.0
 11
57.289900000000003
 21
176.61799999999999
 31
0.0
  0
LINE
  5
A1
  8
0
 62
     7
 10
57.612400000000001
 20
175.2879999999999
 30
0.0
 11
57.612400000000001
 21
176.61799999999999
 31
0.0
  0
LINE
  5
A2
  8
0
 62
     7
 10
57.934499999999993
 20
175.2879999999999
 30
0.0
 11
57.934499999999993
 21
176.61799999999999
 31
0.0
  0
LINE
  5
A3
  8
0
 62
     7
 10
58.256900000000002
 20
175.2879999999999
 30
0.0
 11
58.256900000000002
 21
176.61799999999999
 31
0.0
  0
LINE
  5
A4
  8
0
 62
     7
 10
58.5794
 20
175.2879999999999
 30
0.0
 11
58.5794
 21
176.61799999999999
 31
0.0
  0
LINE
  5
A5
  8
0
 62
     7
 10
58.901899999999998
 20
175.2879999999999
 30
0.0
 11
58.901899999999998
 21
176.61799999999999
 31
0.0
  0
LINE
  5
A6
  8
0
 62
     7
 10
59.224299999999999
 20
175.2879999999999
 30
0.0
 11
59.224299999999999
 21
176.61799999999999
 31
0.0
  0
LINE
  5
A7
  8
0
 62
     7
 10
59.546399999999998
 20
175.2879999999999
 30
0.0
 11
59.546399999999998
 21
176.61799999999999
 31
0.0
  0
LINE
  5
A8
  8
0
 62
     7
 10
59.869199999999999
 20
175.2879999999999
 30
0.0
 11
59.869199999999999
 21
176.61799999999999
 31
0.0
  0
LINE
  5
A9
  8
0
 62
     7
 10
60.191400000000002
 20
175.2879999999999
 30
0.0
 11
60.191400000000002
 21
176.61799999999999
 31
0.0
  0
LINE
  5
AA
  8
0
 62
     7
 10
60.191400000000002
 20
176.61799999999999
 30
0.0
 11
54.065899999999999
 21
176.61799999999999
 31
0.0
  0
LINE
  5
AB
  8
0
 62
     7
 10
54.065899999999999
 20
176.61799999999999
 30
0.0
 11
54.065899999999999
 21
175.2879999999999
 31
0.0
  0
LINE
  5
AC
  8
0
 62
     7
 10
54.065899999999999
 20
175.2879999999999
 30
0.0
 11
60.191400000000002
 21
175.2879999999999
 31
0.0
  0
LINE
  5
AD
  8
0
 62
     7
 10
59.828600000000002
 20
176.61799999999999
 30
0.0
 11
59.828600000000002
 21
177.38399999999999
 31
0.0
  0
LINE
  5
AE
  8
0
 62
     7
 10
59.828600000000002
 20
177.38399999999999
 30
0.0
 11
54.428699999999999
 21
177.38399999999999
 31
0.0
  0
LINE
  5
AF
  8
0
 62
     7
 10
54.428699999999999
 20
177.38399999999999
 30
0.0
 11
54.428699999999999
 21
176.61799999999999
 31
0.0
  0
LINE
  5
B0
  8
0
 62
     7
 10
54.428699999999999
 20
175.2879999999999
 30
0.0
 11
54.428699999999999
 21
174.28099999999989
 31
0.0
  0
LINE
  5
B1
  8
0
 62
     7
 10
54.428699999999999
 20
174.28099999999989
 30
0.0
 11
59.828600000000002
 21
174.28099999999989
 31
0.0
  0
LINE
  5
B2
  8
0
 62
     7
 10
59.828600000000002
 20
174.28099999999989
 30
0.0
 11
59.828600000000002
 21
175.2879999999999
 31
0.0
  0
LINE
  5
B3
  8
0
 62
     7
 10
118.1689999999999
 20
104.03700000000001
 30
0.0
 11
162.08699999999999
 21
104.03700000000001
 31
0.0
  0
LINE
  5
B4
  8
0
 62
     7
 10
118.1689999999999
 20
105.28699999999991
 30
0.0
 11
162.08699999999999
 21
105.28699999999991
 31
0.0
  0
LINE
  5
B5
  8
0
  6
AIGENLINE001
 62
     7
 10
107.0869999999999
 20
72.351900000000001
 30
0.0
 11
107.0869999999999
 21
129.97
 31
0.0
  0
LINE
  5
B6
  8
0
  6
AIGENLINE001
 62
     7
 10
107.089
 20
104.66200000000001
 30
0.0
 11
162.85199999999989
 21
104.66200000000001
 31
0.0
  0
LINE
  5
B7
  8
0
 62
     7
 10
161.64400000000001
 20
105.28699999999991
 30
0.0
 11
161.64400000000001
 21
104.03700000000001
 31
0.0
  0
LINE
  5
B8
  8
0
 62
     7
 10
161.64400000000001
 20
104.03700000000001
 30
0.0
 11
162.08699999999999
 21
104.03700000000001
 31
0.0
  0
LINE
  5
B9
  8
0
 62
     7
 10
162.08699999999999
 20
104.03700000000001
 30
0.0
 11
162.08699999999999
 21
105.28699999999991
 31
0.0
  0
LINE
  5
BA
  8
0
 62
     7
 10
162.08699999999999
 20
105.28699999999991
 30
0.0
 11
161.64400000000001
 21
105.28699999999991
 31
0.0
  0
LINE
  5
BB
  8
0
 62
     7
 10
116.07299999999999
 20
107.40300000000001
 30
0.0
 11
117.40299999999991
 21
107.40300000000001
 31
0.0
  0
LINE
  5
BC
  8
0
 62
     7
 10
116.07299999999999
 20
107.0799999999999
 30
0.0
 11
117.40299999999991
 21
107.0799999999999
 31
0.0
  0
LINE
  5
BD
  8
0
 62
     7
 10
116.07299999999999
 20
106.7579999999999
 30
0.0
 11
117.40299999999991
 21
106.7579999999999
 31
0.0
  0
LINE
  5
BE
  8
0
 62
     7
 10
116.07299999999999
 20
106.43600000000001
 30
0.0
 11
117.40299999999991
 21
106.43600000000001
 31
0.0
  0
LINE
  5
BF
  8
0
 62
     7
 10
116.07299999999999
 20
106.1129999999999
 30
0.0
 11
117.40299999999991
 21
106.1129999999999
 31
0.0
  0
LINE
  5
C0
  8
0
 62
     7
 10
116.07299999999999
 20
105.7909999999999
 30
0.0
 11
117.40299999999991
 21
105.7909999999999
 31
0.0
  0
LINE
  5
C1
  8
0
 62
     7
 10
116.07299999999999
 20
105.4679999999999
 30
0.0
 11
117.40299999999991
 21
105.4679999999999
 31
0.0
  0
LINE
  5
C2
  8
0
 62
     7
 10
116.07299999999999
 20
105.146
 30
0.0
 11
117.40299999999991
 21
105.146
 31
0.0
  0
LINE
  5
C3
  8
0
 62
     7
 10
116.07299999999999
 20
104.824
 30
0.0
 11
117.40299999999991
 21
104.824
 31
0.0
  0
LINE
  5
C4
  8
0
 62
     7
 10
116.07299999999999
 20
104.50099999999991
 30
0.0
 11
117.40299999999991
 21
104.50099999999991
 31
0.0
  0
LINE
  5
C5
  8
0
 62
     7
 10
116.07299999999999
 20
104.1789999999999
 30
0.0
 11
117.40299999999991
 21
104.1789999999999
 31
0.0
  0
LINE
  5
C6
  8
0
 62
     7
 10
116.07299999999999
 20
103.857
 30
0.0
 11
117.40299999999991
 21
103.857
 31
0.0
  0
LINE
  5
C7
  8
0
 62
     7
 10
116.07299999999999
 20
103.53399999999991
 30
0.0
 11
117.40299999999991
 21
103.53399999999991
 31
0.0
  0
LINE
  5
C8
  8
0
 62
     7
 10
116.07299999999999
 20
103.212
 30
0.0
 11
117.40299999999991
 21
103.212
 31
0.0
  0
LINE
  5
C9
  8
0
 62
     7
 10
116.07299999999999
 20
102.889
 30
0.0
 11
117.40299999999991
 21
102.889
 31
0.0
  0
LINE
  5
CA
  8
0
 62
     7
 10
116.07299999999999
 20
102.56699999999999
 30
0.0
 11
117.40299999999991
 21
102.56699999999999
 31
0.0
  0
LINE
  5
CB
  8
0
 62
     7
 10
116.07299999999999
 20
102.245
 30
0.0
 11
117.40299999999991
 21
102.245
 31
0.0
  0
LINE
  5
CC
  8
0
 62
     7
 10
116.07299999999999
 20
101.922
 30
0.0
 11
117.40299999999991
 21
101.922
 31
0.0
  0
LINE
  5
CD
  8
0
 62
     7
 10
116.07299999999999
 20
101.59999999999999
 30
0.0
 11
117.40299999999991
 21
101.59999999999999
 31
0.0
  0
LINE
  5
CE
  8
0
 62
     7
 10
117.40299999999991
 20
101.59999999999999
 30
0.0
 11
117.40299999999991
 21
107.72499999999999
 31
0.0
  0
LINE
  5
CF
  8
0
 62
     7
 10
117.40299999999991
 20
107.72499999999999
 30
0.0
 11
116.07299999999999
 21
107.72499999999999
 31
0.0
  0
LINE
  5
D0
  8
0
 62
     7
 10
116.07299999999999
 20
107.72499999999999
 30
0.0
 11
116.07299999999999
 21
101.59999999999999
 31
0.0
  0
LINE
  5
D1
  8
0
 62
     7
 10
117.40299999999991
 20
101.96299999999999
 30
0.0
 11
118.1689999999999
 21
101.96299999999999
 31
0.0
  0
LINE
  5
D2
  8
0
 62
     7
 10
118.1689999999999
 20
101.96299999999999
 30
0.0
 11
118.1689999999999
 21
107.363
 31
0.0
  0
LINE
  5
D3
  8
0
 62
     7
 10
118.1689999999999
 20
107.363
 30
0.0
 11
117.40299999999991
 21
107.363
 31
0.0
  0
LINE
  5
D4
  8
0
 62
     7
 10
116.07299999999999
 20
107.363
 30
0.0
 11
115.066
 21
107.363
 31
0.0
  0
LINE
  5
D5
  8
0
 62
     7
 10
115.066
 20
107.363
 30
0.0
 11
115.066
 21
101.96299999999999
 31
0.0
  0
LINE
  5
D6
  8
0
 62
     7
 10
115.066
 20
101.96299999999999
 30
0.0
 11
116.07299999999999
 21
101.96299999999999
 31
0.0
  0
LINE
  5
D7
  8
0
 62
     7
 10
111.1169999999999
 20
106.43600000000001
 30
0.0
 11
111.1169999999999
 21
101.479
 31
0.0
  0
ARC
  5
D8
  8
0
 62
     7
 10
102.91897899999989
 20
127.566846
 30
0.0
 40
0.348876
 50
93.775534999999991
 51
138.01042100000001
  0
ARC
  5
D9
  8
0
 62
     7
 10
102.918666
 20
127.571337
 30
0.0
 40
0.345653
 50
138.528941
 51
183.17478799999989
  0
ARC
  5
DA
  8
0
 62
     7
 10
102.9184639999999
 20
127.57361400000001
 30
0.0
 40
0.345585
 50
183.55365699999999
 51
228.23235899999989
  0
ARC
  5
DB
  8
0
 62
     7
 10
102.914821
 20
127.57007299999999
 30
0.0
 40
0.340517
 50
228.292552
 51
266.8325529999999
  0
LINE
  5
DC
  8
0
 62
     7
 10
102.896
 20
127.2299999999999
 30
0.0
 11
111.27799999999991
 21
127.2299999999999
 31
0.0
  0
ARC
  5
DD
  8
0
 62
     7
 10
111.297011
 20
127.575557
 30
0.0
 40
0.346025
 50
266.78957300000002
 51
311.36462599999987
  0
ARC
  5
DE
  8
0
 62
     7
 10
111.29477299999991
 20
127.57446299999989
 30
0.0
 40
0.34669
 50
311.761686
 51
356.31722799999989
  0
ARC
  5
DF
  8
0
 62
     7
 10
111.292779
 20
127.570348
 30
0.0
 40
0.348442
 50
357.013419
 51
41.282851000000001
  0
ARC
  5
E0
  8
0
 62
     7
 10
111.29491299999999
 20
127.566024
 30
0.0
 40
0.349723
 50
42.045943999999999
 51
86.168059999999997
  0
ARC
  5
E1
  8
0
 62
     7
 10
111.29795799999999
 20
127.514799
 30
0.0
 40
0.4006820000000001
 50
87.092185000000001
 51
92.907794999999993
  0
ARC
  5
E2
  8
0
 62
     7
 10
105.62296499999989
 20
122.8460639999999
 30
0.0
 40
6.1610969999999989
 50
92.122782999999984
 51
110.95035300000001
  0
ARC
  5
E3
  8
0
 62
     7
 10
106.66037799999999
 20
111.25894199999991
 30
0.0
 40
17.789071
 50
88.625804999999986
 51
94.079825000000014
  0
ARC
  5
E4
  8
0
 62
     7
 10
107.52059299999991
 20
111.54401799999999
 30
0.0
 40
17.504248999999991
 50
85.875459000000006
 51
91.419421999999997
  0
ARC
  5
E5
  8
0
 62
     7
 10
108.47996599999991
 20
122.268807
 30
0.0
 40
6.7407869999999992
 50
69.920089000000004
 51
87.452492000000007
  0
LINE
  5
E6
  8
0
 62
     7
 10
110.7939999999999
 20
128.59999999999999
 30
0.0
 11
111.51899999999991
 21
128.358
 31
0.0
  0
ARC
  5
E7
  8
0
 62
     7
 10
111.45722600000001
 20
128.14269999999991
 30
0.0
 40
0.224126
 50
51.193649000000001
 51
73.873369999999994
  0
ARC
  5
E8
  8
0
 62
     7
 10
111.45230100000001
 20
128.13931199999999
 30
0.0
 40
0.229859
 50
6.4365680000000003
 51
50.766179000000008
  0
ARC
  5
E9
  8
0
 62
     7
 10
111.44926599999999
 20
128.1421379999999
 30
0.0
 40
0.232579
 50
321.70059300000003
 51
5.6610899999999988
  0
ARC
  5
EA
  8
0
 62
     7
 10
111.45382099999991
 20
128.1432409999999
 30
0.0
 40
0.229717
 50
276.42220499999991
 51
320.78056199999997
  0
LINE
  5
EB
  8
0
 62
     7
 10
111.48
 20
127.91500000000001
 30
0.0
 11
102.7349999999999
 21
127.91500000000001
 31
0.0
  0
ARC
  5
EC
  8
0
 62
     7
 10
102.7175689999999
 20
128.13932600000001
 30
0.0
 40
0.2250199999999999
 50
241.36044000000001
 51
274.385401
  0
ARC
  5
ED
  8
0
 62
     7
 10
102.721648
 20
128.14347100000001
 30
0.0
 40
0.230618
 50
196.7816949999999
 51
240.96446999999989
  0
ARC
  5
EE
  8
0
 62
     7
 10
102.720662
 20
128.140278
 30
0.0
 40
0.228769
 50
151.5843999999999
 51
196.0874969999999
  0
ARC
  5
EF
  8
0
 62
     7
 10
102.7181609999999
 20
128.14104499999991
 30
0.0
 40
0.226205
 50
106.435502
 51
151.45365699999991
  0
LINE
  5
F0
  8
0
 62
     7
 10
102.654
 20
128.358
 30
0.0
 11
103.42
 21
128.59999999999999
 31
0.0
  0
LINE
  5
F1
  8
0
 62
     7
 10
109.6249999999999
 20
124.73099999999999
 30
0.0
 11
109.6249999999999
 21
126.827
 31
0.0
  0
LINE
  5
F2
  8
0
 62
     7
 10
109.6249999999999
 20
126.827
 30
0.0
 11
107.8929999999999
 21
126.827
 31
0.0
  0
LINE
  5
F3
  8
0
 62
     7
 10
111.2379999999999
 20
127.2299999999999
 30
0.0
 11
111.2379999999999
 21
126.827
 31
0.0
  0
LINE
  5
F4
  8
0
 62
     7
 10
111.2379999999999
 20
126.827
 30
0.0
 11
110.02799999999991
 21
126.827
 31
0.0
  0
LINE
  5
F5
  8
0
 62
     7
 10
110.02799999999991
 20
126.827
 30
0.0
 11
110.02799999999991
 21
124.73099999999999
 31
0.0
  0
LINE
  5
F6
  8
0
 62
     7
 10
106.3209999999999
 20
126.827
 30
0.0
 11
106.3209999999999
 21
124.73099999999999
 31
0.0
  0
LINE
  5
F7
  8
0
 62
     7
 10
104.5479999999999
 20
124.73099999999999
 30
0.0
 11
104.5479999999999
 21
126.827
 31
0.0
  0
LINE
  5
F8
  8
0
 62
     7
 10
104.5479999999999
 20
126.827
 30
0.0
 11
106.3209999999999
 21
126.827
 31
0.0
  0
LINE
  5
F9
  8
0
 62
     7
 10
106.3209999999999
 20
126.827
 30
0.0
 11
107.8929999999999
 21
126.827
 31
0.0
  0
LINE
  5
FA
  8
0
 62
     7
 10
107.8929999999999
 20
126.827
 30
0.0
 11
107.8929999999999
 21
124.73099999999999
 31
0.0
  0
LINE
  5
FB
  8
0
 62
     7
 10
102.93600000000001
 20
127.2299999999999
 30
0.0
 11
102.93600000000001
 21
126.827
 31
0.0
  0
LINE
  5
FC
  8
0
 62
     7
 10
102.93600000000001
 20
126.827
 30
0.0
 11
104.18600000000001
 21
126.827
 31
0.0
  0
LINE
  5
FD
  8
0
 62
     7
 10
104.18600000000001
 20
126.827
 30
0.0
 11
104.18600000000001
 21
124.73099999999999
 31
0.0
  0
LINE
  5
FE
  8
0
 62
     7
 10
113.857
 20
124.40899999999991
 30
0.0
 11
100.357
 21
124.40899999999991
 31
0.0
  0
LINE
  5
FF
  8
0
 62
     7
 10
100.357
 20
124.73099999999999
 30
0.0
 11
100.357
 21
124.40899999999991
 31
0.0
  0
LINE
  5
100
  8
0
 62
     7
 10
100.357
 20
124.40899999999991
 30
0.0
 11
102.372
 21
122.5149999999999
 31
0.0
  0
LINE
  5
101
  8
0
 62
     7
 10
102.372
 20
122.5149999999999
 30
0.0
 11
111.842
 21
122.5149999999999
 31
0.0
  0
LINE
  5
102
  8
0
 62
     7
 10
111.842
 20
122.5149999999999
 30
0.0
 11
113.857
 21
124.40899999999991
 31
0.0
  0
LINE
  5
103
  8
0
 62
     7
 10
113.857
 20
124.40899999999991
 30
0.0
 11
113.857
 21
124.73099999999999
 31
0.0
  0
LINE
  5
104
  8
0
 62
     7
 10
113.857
 20
124.73099999999999
 30
0.0
 11
100.357
 21
124.73099999999999
 31
0.0
  0
LINE
  5
105
  8
0
 62
     7
 10
105.596
 20
121.06399999999989
 30
0.0
 11
105.596
 21
118.2429999999999
 31
0.0
  0
LINE
  5
106
  8
0
 62
     7
 10
105.596
 20
118.2429999999999
 30
0.0
 11
108.5779999999999
 21
118.2429999999999
 31
0.0
  0
LINE
  5
107
  8
0
 62
     7
 10
108.5779999999999
 20
118.2429999999999
 30
0.0
 11
108.5779999999999
 21
121.06399999999989
 31
0.0
  0
LINE
  5
108
  8
0
 62
     7
 10
108.5779999999999
 20
121.06399999999989
 30
0.0
 11
105.596
 21
121.06399999999989
 31
0.0
  0
LINE
  5
109
  8
0
 62
     7
 10
110.956
 20
116.148
 30
0.0
 11
110.956
 21
122.5149999999999
 31
0.0
  0
LINE
  5
10A
  8
0
 62
     7
 10
110.5529999999999
 20
109.41799999999991
 30
0.0
 11
110.5529999999999
 21
111.836
 31
0.0
  0
LINE
  5
10B
  8
0
 62
     7
 10
110.875
 20
109.41799999999991
 30
0.0
 11
110.875
 21
111.836
 31
0.0
  0
LINE
  5
10C
  8
0
 62
     7
 10
103.66200000000001
 20
109.41799999999991
 30
0.0
 11
103.66200000000001
 21
111.836
 31
0.0
  0
LINE
  5
10D
  8
0
 62
     7
 10
103.339
 20
109.41799999999991
 30
0.0
 11
103.339
 21
111.836
 31
0.0
  0
LINE
  5
10E
  8
0
 62
     7
 10
103.2179999999999
 20
116.148
 30
0.0
 11
103.2179999999999
 21
122.5149999999999
 31
0.0
  0
LINE
  5
10F
  8
0
 62
     7
 10
103.107
 20
98.698499999999996
 30
0.0
 11
103.107
 21
73.158100000000005
 31
0.0
  0
LINE
  5
110
  8
0
 62
     7
 10
103.107
 20
73.158100000000005
 30
0.0
 11
111.107
 21
73.158100000000005
 31
0.0
  0
LINE
  5
111
  8
0
 62
     7
 10
111.107
 20
73.158100000000005
 30
0.0
 11
111.107
 21
98.698499999999996
 31
0.0
  0
LINE
  5
112
  8
0
 62
     7
 10
103.0569999999999
 20
106.43600000000001
 30
0.0
 11
103.0569999999999
 21
98.698499999999996
 31
0.0
  0
LINE
  5
113
  8
0
 62
     7
 10
103.0569999999999
 20
98.698499999999996
 30
0.0
 11
111.1169999999999
 21
98.698499999999996
 31
0.0
  0
LINE
  5
114
  8
0
 62
     7
 10
111.1169999999999
 20
98.698499999999996
 30
0.0
 11
111.1169999999999
 21
101.479
 31
0.0
  0
ARC
  5
115
  8
0
 62
     7
 10
111.85247199999991
 20
101.489633
 30
0.0
 40
0.735803
 50
176.396871
 51
180.82569599999991
  0
ARC
  5
116
  8
0
 62
     7
 10
111.88391300000001
 20
101.483582
 30
0.0
 40
0.767573
 50
131.689358
 51
176.09356699999989
  0
ARC
  5
117
  8
0
 62
     7
 10
111.87832399999991
 20
101.476958
 30
0.0
 40
0.7688500000000001
 50
86.701785999999984
 51
131.05004
  0
LINE
  5
118
  8
0
 62
     7
 10
111.9229999999999
 20
102.245
 30
0.0
 11
115.066
 21
102.245
 31
0.0
  0
LINE
  5
119
  8
0
 62
     7
 10
115.066
 20
107.0799999999999
 30
0.0
 11
112.124
 21
107.0799999999999
 31
0.0
  0
ARC
  5
11A
  8
0
 62
     7
 10
112.07525200000001
 20
107.9222249999999
 30
0.0
 40
0.843195
 50
269.456481
 51
273.32097199999998
  0
ARC
  5
11B
  8
0
 62
     7
 10
112.080259
 20
107.84622999999991
 30
0.0
 40
0.7672720000000001
 50
224.60086699999999
 51
269.02878199999992
  0
ARC
  5
11C
  8
0
 62
     7
 10
112.0842509999999
 20
107.840309
 30
0.0
 40
0.76599
 50
179.5522179999999
 51
224.07585800000001
  0
LINE
  5
11D
  8
0
 62
     7
 10
111.318
 20
107.8459999999999
 30
0.0
 11
111.318
 21
109.41799999999991
 31
0.0
  0
LINE
  5
11E
  8
0
 62
     7
 10
111.318
 20
109.41799999999991
 30
0.0
 11
102.896
 21
109.41799999999991
 31
0.0
  0
LINE
  5
11F
  8
0
 62
     7
 10
102.896
 20
109.41799999999991
 30
0.0
 11
102.896
 21
106.43600000000001
 31
0.0
  0
LINE
  5
120
  8
0
 62
     7
 10
102.896
 20
106.43600000000001
 30
0.0
 11
111.318
 21
106.43600000000001
 31
0.0
  0
LINE
  5
121
  8
0
 62
     7
 10
111.318
 20
106.43600000000001
 30
0.0
 11
111.318
 21
107.8459999999999
 31
0.0
  0
ARC
  5
122
  8
0
 62
     7
 10
110.7339929999999
 20
115.32837499999989
 30
0.0
 40
3.4897610000000001
 50
248.67320499999991
 51
291.32681500000001
  0
ARC
  5
123
  8
0
 62
     7
 10
110.73201399999989
 20
110.21087900000001
 30
0.0
 40
3.0321150000000001
 50
65.213872999999992
 51
109.654461
  0
ARC
  5
124
  8
0
 62
     7
 10
110.67137099999989
 20
110.405919
 30
0.0
 40
2.8280539999999998
 50
109.826494
 51
115.25446599999989
  0
ARC
  5
125
  8
0
 62
     7
 10
103.45997199999989
 20
115.222742
 30
0.0
 40
3.3841519999999989
 50
248.33790699999989
 51
291.66211299999992
  0
ARC
  5
126
  8
0
 62
     7
 10
103.4339129999999
 20
110.399888
 30
0.0
 40
2.840609999999999
 50
109.4706179999999
 51
115.50505200000001
  0
ARC
  5
127
  8
0
 62
     7
 10
103.45817099999989
 20
110.30195000000001
 30
0.0
 40
2.9410489999999991
 50
64.826629000000011
 51
109.2801959999999
  0
LINE
  5
128
  8
0
 62
     7
 10
104.709
 20
112.9639999999999
 30
0.0
 11
104.709
 21
112.0779999999999
 31
0.0
  0
ARC
  5
129
  8
0
 62
     7
 10
107.086992
 20
123.6780729999999
 30
0.0
 40
11.841675
 50
258.41620899999992
 51
281.58381099999991
  0
LINE
  5
12A
  8
0
 62
     7
 10
109.465
 20
112.0779999999999
 30
0.0
 11
109.465
 21
112.9639999999999
 31
0.0
  0
ARC
  5
12B
  8
0
 62
     7
 10
107.086992
 20
103.03853099999991
 30
0.0
 40
10.206002
 50
76.527263000000005
 51
103.4727169999999
  0
LINE
  5
12C
  8
0
 62
     7
 10
102.211
 20
113.246
 30
0.0
 11
102.211
 21
111.836
 31
0.0
  0
LINE
  5
12D
  8
0
 62
     7
 10
102.211
 20
111.836
 30
0.0
 11
112.0029999999999
 21
111.836
 31
0.0
  0
LINE
  5
12E
  8
0
 62
     7
 10
112.0029999999999
 20
111.836
 30
0.0
 11
112.0029999999999
 21
113.246
 31
0.0
  0
LINE
  5
12F
  8
0
 62
     7
 10
101.08199999999999
 20
114.1729999999999
 30
0.0
 11
102.8149999999999
 21
116.148
 31
0.0
  0
LINE
  5
130
  8
0
 62
     7
 10
102.8149999999999
 20
116.148
 30
0.0
 11
111.358
 21
116.148
 31
0.0
  0
LINE
  5
131
  8
0
 62
     7
 10
111.358
 20
116.148
 30
0.0
 11
113.13200000000001
 21
114.1729999999999
 31
0.0
  0
LINE
  5
132
  8
0
 62
     7
 10
101.002
 20
113.68899999999989
 30
0.0
 11
101.002
 21
113.246
 31
0.0
  0
LINE
  5
133
  8
0
 62
     7
 10
101.002
 20
113.246
 30
0.0
 11
113.212
 21
113.246
 31
0.0
  0
LINE
  5
134
  8
0
 62
     7
 10
113.212
 20
113.246
 30
0.0
 11
113.212
 21
113.68899999999989
 31
0.0
  0
LINE
  5
135
  8
0
 62
     7
 10
99.833299999999994
 20
114.1729999999999
 30
0.0
 11
99.833299999999994
 21
113.68899999999989
 31
0.0
  0
LINE
  5
136
  8
0
 62
     7
 10
99.833299999999994
 20
113.68899999999989
 30
0.0
 11
114.3809999999999
 21
113.68899999999989
 31
0.0
  0
LINE
  5
137
  8
0
 62
     7
 10
114.3809999999999
 20
113.68899999999989
 30
0.0
 11
114.3809999999999
 21
114.1729999999999
 31
0.0
  0
LINE
  5
138
  8
0
 62
     7
 10
114.3809999999999
 20
114.1729999999999
 30
0.0
 11
99.833299999999994
 21
114.1729999999999
 31
0.0
  0
LINE
  5
139
  8
0
 62
     7
 10
136.6939999999999
 20
106.3929999999999
 30
0.0
 11
136.99000000000001
 21
105.28699999999991
 31
0.0
  0
LINE
  5
13A
  8
0
 62
     7
 10
136.99000000000001
 20
105.28699999999991
 30
0.0
 11
137.28599999999989
 21
106.3929999999999
 31
0.0
  0
LINE
  5
13B
  8
0
 62
     7
 10
137.28599999999989
 20
106.3929999999999
 30
0.0
 11
136.6939999999999
 21
106.3929999999999
 31
0.0
  0
LINE
  5
13C
  8
0
 62
     7
 10
137.27899999999991
 20
102.84399999999999
 30
0.0
 11
136.983
 21
103.95
 31
0.0
  0
LINE
  5
13D
  8
0
 62
     7
 10
136.983
 20
103.95
 30
0.0
 11
136.68700000000001
 21
102.84399999999999
 31
0.0
  0
LINE
  5
13E
  8
0
 62
     7
 10
136.68700000000001
 20
102.84399999999999
 30
0.0
 11
137.27899999999991
 21
102.84399999999999
 31
0.0
  0
LINE
  5
13F
  8
0
 62
     7
 10
136.9859999999999
 20
101.655
 30
0.0
 11
136.9859999999999
 21
111.169
 31
0.0
  0
LINE
  5
140
  8
0
 62
     7
 10
101.4459999999999
 20
133.346
 30
0.0
 11
100.34
 21
133.05000000000001
 31
0.0
  0
LINE
  5
141
  8
0
 62
     7
 10
100.34
 20
133.05000000000001
 30
0.0
 11
101.4459999999999
 21
132.75399999999991
 31
0.0
  0
LINE
  5
142
  8
0
 62
     7
 10
101.4459999999999
 20
132.75399999999991
 30
0.0
 11
101.4459999999999
 21
133.346
 31
0.0
  0
LINE
  5
143
  8
0
 62
     7
 10
112.7269999999999
 20
132.76099999999991
 30
0.0
 11
113.83199999999989
 21
133.05699999999999
 31
0.0
  0
LINE
  5
144
  8
0
 62
     7
 10
113.83199999999989
 20
133.05699999999999
 30
0.0
 11
112.7269999999999
 21
133.35299999999989
 31
0.0
  0
LINE
  5
145
  8
0
 62
     7
 10
112.7269999999999
 20
133.35299999999989
 30
0.0
 11
112.7269999999999
 21
132.76099999999991
 31
0.0
  0
LINE
  5
146
  8
0
 62
     7
 10
100.34
 20
133.05299999999991
 30
0.0
 11
113.83199999999989
 21
133.05299999999991
 31
0.0
  0
LINE
  5
147
  8
0
 62
     7
 10
93.222099999999998
 20
74.266000000000005
 30
0.0
 11
93.518400000000014
 21
73.160899999999984
 31
0.0
  0
LINE
  5
148
  8
0
 62
     7
 10
93.518400000000014
 20
73.160899999999984
 30
0.0
 11
93.814700000000002
 21
74.266000000000005
 31
0.0
  0
LINE
  5
149
  8
0
 62
     7
 10
93.814700000000002
 20
74.266000000000005
 30
0.0
 11
93.222099999999998
 21
74.266000000000005
 31
0.0
  0
LINE
  5
14A
  8
0
 62
     7
 10
93.807100000000005
 20
123.26000000000001
 30
0.0
 11
93.511199999999988
 21
124.3659999999999
 31
0.0
  0
LINE
  5
14B
  8
0
 62
     7
 10
93.511199999999988
 20
124.3659999999999
 30
0.0
 11
93.2149
 21
123.26000000000001
 31
0.0
  0
LINE
  5
14C
  8
0
 62
     7
 10
93.2149
 20
123.26000000000001
 30
0.0
 11
93.807100000000005
 21
123.26000000000001
 31
0.0
  0
LINE
  5
14D
  8
0
 62
     7
 10
93.514600000000016
 20
73.419200000000004
 30
0.0
 11
93.514600000000016
 21
124.1179999999999
 31
0.0
  0
LINE
  5
14E
  8
0
 62
     7
 10
160.9199999999999
 20
94.270799999999994
 30
0.0
 11
162.02600000000001
 21
94.566400000000002
 31
0.0
  0
LINE
  5
14F
  8
0
 62
     7
 10
162.02600000000001
 20
94.566400000000002
 30
0.0
 11
160.9199999999999
 21
94.862700000000004
 31
0.0
  0
LINE
  5
150
  8
0
 62
     7
 10
160.9199999999999
 20
94.862700000000004
 30
0.0
 11
160.9199999999999
 21
94.270799999999994
 31
0.0
  0
LINE
  5
151
  8
0
 62
     7
 10
108.193
 20
94.855800000000002
 30
0.0
 11
107.0869999999999
 21
94.559499999999986
 31
0.0
  0
LINE
  5
152
  8
0
 62
     7
 10
107.0869999999999
 20
94.559499999999986
 30
0.0
 11
108.193
 21
94.263199999999998
 31
0.0
  0
LINE
  5
153
  8
0
 62
     7
 10
108.193
 20
94.263199999999998
 30
0.0
 11
108.193
 21
94.855800000000002
 31
0.0
  0
LINE
  5
154
  8
0
 62
     7
 10
162.02600000000001
 20
94.562999999999974
 30
0.0
 11
107.0869999999999
 21
94.562999999999974
 31
0.0
  0
LINE
  5
155
  8
0
 62
     7
 10
113.857
 20
133.66
 30
0.0
 11
113.857
 21
125.398
 31
0.0
  0
LINE
  5
156
  8
0
 62
     7
 10
100.357
 20
125.398
 30
0.0
 11
100.357
 21
133.66
 31
0.0
  0
LINE
  5
157
  8
0
 62
     7
 10
112.62299999999991
 20
116.148
 30
0.0
 11
120.6639999999999
 21
116.148
 31
0.0
  0
LINE
  5
158
  8
0
 62
     7
 10
119.85299999999989
 20
117.25
 30
0.0
 11
120.1489999999999
 21
116.145
 31
0.0
  0
LINE
  5
159
  8
0
 62
     7
 10
120.1489999999999
 20
116.145
 30
0.0
 11
120.44499999999999
 21
117.25
 31
0.0
  0
LINE
  5
15A
  8
0
 62
     7
 10
120.44499999999999
 20
117.25
 30
0.0
 11
119.85299999999989
 21
117.25
 31
0.0
  0
LINE
  5
15B
  8
0
 62
     7
 10
120.438
 20
123.285
 30
0.0
 11
120.142
 21
124.3889999999999
 31
0.0
  0
LINE
  5
15C
  8
0
 62
     7
 10
120.142
 20
124.3889999999999
 30
0.0
 11
119.846
 21
123.285
 31
0.0
  0
LINE
  5
15D
  8
0
 62
     7
 10
119.846
 20
123.285
 30
0.0
 11
120.438
 21
123.285
 31
0.0
  0
LINE
  5
15E
  8
0
 62
     7
 10
120.1449999999999
 20
116.148
 30
0.0
 11
120.1449999999999
 21
124.3889999999999
 31
0.0
  0
LINE
  5
15F
  8
0
 62
     7
 10
115.121
 20
124.40899999999991
 30
0.0
 11
120.627
 21
124.40899999999991
 31
0.0
  0
LINE
  5
160
  8
0
 62
     7
 10
93.138099999999994
 20
124.40899999999991
 30
0.0
 11
99.167699999999996
 21
124.40899999999991
 31
0.0
  0
LINE
  5
161
  8
0
 62
     7
 10
162.09200000000001
 20
102.94499999999989
 30
0.0
 11
162.09200000000001
 21
94.010400000000004
 31
0.0
  0
LINE
  5
162
  8
0
 62
     7
 10
101.857
 20
73.158100000000005
 30
0.0
 11
93.077100000000002
 21
73.158100000000005
 31
0.0
  0
LINE
  5
163
  8
0
 62
     7
 10
111.107
 20
65.471699999999998
 30
0.0
 11
111.107
 21
72.223799999999997
 31
0.0
  0
LINE
  5
164
  8
0
 62
     7
 10
109.946
 20
65.649500000000003
 30
0.0
 11
111.051
 21
65.945700000000002
 31
0.0
  0
LINE
  5
165
  8
0
 62
     7
 10
111.051
 20
65.945700000000002
 30
0.0
 11
109.946
 21
66.242000000000004
 31
0.0
  0
LINE
  5
166
  8
0
 62
     7
 10
109.946
 20
66.242000000000004
 30
0.0
 11
109.946
 21
65.649500000000003
 31
0.0
  0
LINE
  5
167
  8
0
 62
     7
 10
104.246
 20
66.234399999999994
 30
0.0
 11
103.14100000000001
 21
65.938900000000004
 31
0.0
  0
LINE
  5
168
  8
0
 62
     7
 10
103.14100000000001
 20
65.938900000000004
 30
0.0
 11
104.246
 21
65.642600000000002
 31
0.0
  0
LINE
  5
169
  8
0
 62
     7
 10
104.246
 20
65.642600000000002
 30
0.0
 11
104.246
 21
66.234399999999994
 31
0.0
  0
LINE
  5
16A
  8
0
 62
     7
 10
111.051
 20
65.942300000000003
 30
0.0
 11
103.14100000000001
 21
65.942300000000003
 31
0.0
  0
LINE
  5
16B
  8
0
 62
     7
 10
103.107
 20
72.223799999999997
 30
0.0
 11
103.107
 21
65.471699999999998
 31
0.0
  0
LINE
  5
16C
  8
_________2
 62
     7
 10
205.30099999999999
 20
127.411
 30
0.0
 11
183.55000000000001
 21
127.411
 31
0.0
  0
LINE
  5
16D
  8
_________2
 62
     7
 10
100.2999999999999
 20
-4.0910799999999998
 30
0.0
 11
100.2999999999999
 21
-21.071400000000001
 31
0.0
  0
LINE
  5
16E
  8
_________2
 62
     7
 10
100.2999999999999
 20
275.93099999999993
 30
0.0
 11
100.2999999999999
 21
258.911
 31
0.0
  0
LINE
  5
16F
  8
_________2
 62
     7
 10
17.049499999999998
 20
127.411
 30
0.0
 11
-4.70052
 21
127.411
 31
0.0
  0
LINE
  5
170
  8
_________2
 62
     7
 10
76.741
 20
29.8047
 30
0.0
 11
74.554699999999997
 21
29.8047
 31
0.0
  0
LINE
  5
171
  8
_________2
 62
     7
 10
77.233699999999999
 20
29.8047
 30
0.0
 11
76.981499999999997
 21
29.8047
 31
0.0
  0
LINE
  5
172
  8
_________2
 62
     7
 10
77.726299999999995
 20
29.8047
 30
0.0
 11
80.651200000000003
 21
29.8047
 31
0.0
  0
LINE
  5
173
  8
_________2
 62
     7
 10
77.233699999999999
 20
29.8047
 30
0.0
 11
77.485500000000002
 21
29.8047
 31
0.0
  0
LINE
  5
174
  8
_________2
 62
     7
 10
70.837100000000007
 20
29.8047
 30
0.0
 11
68.650499999999994
 21
29.8047
 31
0.0
  0
LINE
  5
175
  8
_________2
 62
     7
 10
71.329400000000007
 20
29.8047
 30
0.0
 11
71.077600000000004
 21
29.8047
 31
0.0
  0
LINE
  5
176
  8
_________2
 62
     7
 10
71.329400000000007
 20
30.2974
 30
0.0
 11
71.329400000000007
 21
32.484400000000001
 31
0.0
  0
LINE
  5
177
  8
_________2
 62
     7
 10
71.329400000000007
 20
29.8047
 30
0.0
 11
71.329400000000007
 21
30.056899999999992
 31
0.0
  0
LINE
  5
178
  8
_________2
 62
     7
 10
71.822100000000006
 20
29.8047
 30
0.0
 11
74.009
 21
29.8047
 31
0.0
  0
LINE
  5
179
  8
_________2
 62
     7
 10
71.329400000000007
 20
29.8047
 30
0.0
 11
71.581599999999995
 21
29.8047
 31
0.0
  0
LINE
  5
17A
  8
_________2
 62
     7
 10
71.329400000000007
 20
29.312799999999999
 30
0.0
 11
71.329400000000007
 21
27.125800000000002
 31
0.0
  0
LINE
  5
17B
  8
_________2
 62
     7
 10
71.329400000000007
 20
29.8047
 30
0.0
 11
71.329400000000007
 21
29.5532
 31
0.0
  0
LINE
  5
17C
  8
_________2
 62
     7
 10
75.040499999999994
 20
28.5852
 30
0.0
 11
80.218500000000006
 21
27.720400000000001
 31
0.0
  0
LINE
  5
17D
  8
_________2
 62
     7
 10
75.040499999999994
 20
31.0243
 30
0.0
 11
80.218500000000006
 21
31.889700000000001
 31
0.0
  0
LINE
  5
17E
  8
_________2
 62
     7
 10
80.218500000000006
 20
27.720400000000001
 30
0.0
 11
80.218500000000006
 21
31.889700000000001
 31
0.0
  0
LINE
  5
17F
  8
_________2
 62
     7
 10
75.040499999999994
 20
28.5852
 30
0.0
 11
75.040499999999994
 21
31.0243
 31
0.0
  0
ARC
  5
180
  8
_________2
 62
     7
 10
71.28285600000001
 20
29.757811
 30
0.0
 40
1.2673589999999999
 50
2.122214
 51
87.893958999999995
  0
ARC
  5
181
  8
_________2
 62
     7
 10
71.375959999999992
 20
29.758213000000001
 30
0.0
 40
1.2669559999999991
 50
92.104701000000006
 51
177.8952689999999
  0
ARC
  5
182
  8
_________2
 62
     7
 10
71.376357999999996
 20
29.851671
 30
0.0
 40
1.2673680000000001
 50
182.12203600000001
 51
267.877993
  0
ARC
  5
183
  8
_________2
 62
     7
 10
71.282531999999989
 20
29.851998999999989
 30
0.0
 40
1.267695999999999
 50
272.12015300000002
 51
357.863674
  0
ARC
  5
184
  8
_________2
 62
     7
 10
71.329430000000002
 20
29.804742999999998
 30
0.0
 40
2.0849849999999992
 50
0.00001
 51
89.999980000000008
  0
ARC
  5
185
  8
_________2
 62
     7
 10
71.329603000000006
 20
29.804915000000001
 30
0.0
 40
2.084813
 50
90.004733999999999
 51
180.00474399999999
  0
ARC
  5
186
  8
_________2
 62
     7
 10
71.409106000000008
 20
29.884775999999999
 30
0.0
 40
2.1657950000000001
 50
182.11776599999999
 51
267.89173399999999
  0
ARC
  5
187
  8
_________2
 62
     7
 10
71.249459000000002
 20
29.885429999999989
 30
0.0
 40
2.1664590000000001
 50
272.11546800000002
 51
357.86560400000002
  0
TEXT
  5
188
  8
_________2
 62
     7
 10
104.605
 20
1.6794899999999999
 30
0.0
 40
3.0923400000000001
  1
図番
 41
0.5
  0
LINE
  5
189
  8
_________2
 62
     7
 10
103.55
 20
5.9087199999999989
 30
0.0
 11
183.55099999999999
 21
5.9087199999999989
 31
0.0
  0
TEXT
  5
18A
  8
_________2
 62
     7
 10
104.605
 20
11.679299999999991
 30
0.0
 40
3.0923400000000001
  1
品番
 41
0.5
  0
TEXT
  5
18B
  8
_________2
 62
     7
 10
104.605
 20
31.818100000000001
 30
0.0
 40
3.0923400000000001
  1
名称
 41
0.5
  0
TEXT
  5
18C
  8
_________2
 62
     7
 10
91.845058333333341
 20
26.821999999999989
 30
0.0
 40
3.6545800000000002
  1
mm
 41
0.5
 72
     1
 11
93.367800000000003
 21
26.821999999999989
 31
0.0
  0
TEXT
  5
18D
  8
_________2
 62
     7
 10
85.643199999999993
 20
31.818100000000001
 30
0.0
 40
3.0923400000000001
  1
単位
 41
0.5
  0
TEXT
  5
18E
  8
_________2
 62
     7
 10
85.643199999999993
 20
19.410799999999991
 30
0.0
 40
3.0923400000000001
  1
尺度
 41
0.5
  0
TEXT
  5
18F
  8
_________2
 62
     7
 10
90.548758666666686
 20
13.2179
 30
0.0
 40
3.6545800000000002
  1
1 ： 4
 41
0.5
 72
     1
 11
93.959699999999998
 21
13.2179
 31
0.0
  0
TEXT
  5
190
  8
_________2
 62
     7
 10
137.97442499999991
 20
9.1078600000000005
 30
0.0
 40
3.9357000000000002
  1
CET372
 41
0.5
 72
     1
 11
143.55000000000001
 21
9.1078600000000005
 31
0.0
  0
TEXT
  5
191
  8
_________2
 62
     7
 10
137.97442499999991
 20
-0.8926299999999999
 30
0.0
 40
3.9357000000000002
  1
CET372
 41
0.5
 72
     1
 11
143.55000000000001
 21
-0.8926299999999999
 31
0.0
  0
TEXT
  5
192
  8
_________2
 62
     7
 10
24.5868
 20
0.707283
 30
0.0
 40
3.9357000000000002
  1
国産洗面器用
 41
0.5
  0
TEXT
  5
193
  8
_________2
 62
     7
 10
109.179
 20
24.2257
 30
0.0
 40
3.9357000000000002
  1
ポップアップ式排水ヘッド部
 41
0.5
  0
TEXT
  5
194
  8
_________2
 62
     7
 10
39.425300333333333
 20
13.603
 30
0.0
 40
3.6545800000000002
  1
福田
 41
0.5
 72
     1
 11
41.313499999999998
 21
13.603
 31
0.0
  0
TEXT
  5
195
  8
_________2
 62
     7
 10
20.790090666666661
 20
13.603
 30
0.0
 40
3.6545800000000002
  1
石原
 41
0.5
 72
     1
 11
22.73919999999999
 21
13.603
 31
0.0
  0
TEXT
  5
196
  8
_________2
 62
     7
 10
67.785399999999996
 20
13.2179
 30
0.0
 40
3.6545800000000002
  1
05.04.08
 41
0.5
  0
TEXT
  5
197
  8
_________2
 62
     7
 10
66.593100000000007
 20
19.410799999999991
 30
0.0
 40
3.0923400000000001
  1
日付
 41
0.5
  0
TEXT
  5
198
  8
_________2
 62
     7
 10
29.639399999999998
 20
19.410799999999991
 30
0.0
 40
3.0923400000000001
  1
検図
 41
0.5
  0
TEXT
  5
199
  8
_________2
 62
     7
 10
18.021100000000001
 20
5.21143
 30
0.0
 40
3.0923400000000001
  1
備考
 41
0.5
  0
TEXT
  5
19A
  8
_________2
 62
     7
 10
18.021100000000001
 20
19.410799999999991
 30
0.0
 40
3.0923400000000001
  1
製図
 41
0.5
  0
TEXT
  5
19B
  8
_________2
 62
     7
 10
23.788465333333338
 20
27.936800000000002
 30
0.0
 40
4.4979399999999989
  1
セラトレーディング株式会社
 41
0.5
 72
     1
 11
41.180500000000002
 21
27.936800000000002
 31
0.0
  0
LINE
  5
19C
  8
_________2
 62
     7
 10
183.55099999999999
 20
-4.0910799999999998
 30
0.0
 11
17.049499999999998
 21
-4.0910799999999998
 31
0.0
  0
LINE
  5
19D
  8
_________2
 62
     7
 10
17.049499999999998
 20
-4.0910799999999998
 30
0.0
 11
17.049499999999998
 21
258.911
 31
0.0
  0
LINE
  5
19E
  8
_________2
 62
     7
 10
17.049499999999998
 20
258.911
 30
0.0
 11
183.55099999999999
 21
258.911
 31
0.0
  0
LINE
  5
19F
  8
_________2
 62
     7
 10
183.55099999999999
 20
258.911
 30
0.0
 11
183.55099999999999
 21
-4.0910799999999998
 31
0.0
  0
LINE
  5
1A0
  8
_________2
 62
     7
 10
65.549599999999998
 20
9.4089600000000004
 30
0.0
 11
65.549599999999998
 21
35.908799999999999
 31
0.0
  0
LINE
  5
1A1
  8
_________2
 62
     7
 10
84.549700000000016
 20
9.4089600000000004
 30
0.0
 11
84.549700000000016
 21
35.908799999999999
 31
0.0
  0
LINE
  5
1A2
  8
_________2
 62
     7
 10
103.55
 20
-4.0910799999999998
 30
0.0
 11
103.55
 21
35.908799999999999
 31
0.0
  0
LINE
  5
1A3
  8
_________2
 62
     7
 10
28.549299999999992
 20
9.4089600000000004
 30
0.0
 11
28.549299999999992
 21
23.409199999999998
 31
0.0
  0
LINE
  5
1A4
  8
_________2
 62
     7
 10
17.049499999999998
 20
9.4089600000000004
 30
0.0
 11
103.55
 21
9.4089600000000004
 31
0.0
  0
LINE
  5
1A5
  8
_________2
 62
     7
 10
17.049499999999998
 20
23.409199999999998
 30
0.0
 11
103.55
 21
23.409199999999998
 31
0.0
  0
LINE
  5
1A6
  8
_________2
 62
     7
 10
103.55
 20
15.9085
 30
0.0
 11
183.55099999999999
 21
15.9085
 31
0.0
  0
LINE
  5
1A7
  8
_________2
 62
     7
 10
17.049499999999998
 20
35.908799999999999
 30
0.0
 11
183.55099999999999
 21
35.908799999999999
 31
0.0
  0
ENDSEC
  0
EOF
