  0
SECTION
  2
HEADER
  9
$ACADVER
  1
AC1009
  9
$INSBASE
 10
0.0
 20
0.0
 30
0.0
  9
$EXTMIN
 10
-4.70052
 20
-21.071400000000001
 30
0.0
  9
$EXTMAX
 10
205.30099999999999
 20
275.93099999999993
 30
0.0
  9
$LIMMIN
 10
0.0
 20
0.0
  9
$LIMMAX
 10
12.0
 20
9.0
  9
$ORTHOMODE
 70
     0
  9
$REGENMODE
 70
     1
  9
$FILLMODE
 70
     1
  9
$QTEXTMODE
 70
     0
  9
$MIRRTEXT
 70
     1
  9
$DRAGMODE
 70
     2
  9
$LTSCALE
 40
1.0
  9
$OSMODE
 70
    37
  9
$ATTMODE
 70
     1
  9
$TEXTSIZE
 40
0.0
  9
$TRACEWID
 40
0.05
  9
$TEXTSTYLE
  7
STANDARD
  9
$CLAYER
  8
0
  9
$CELTYPE
  6
CONTINUOUS
  9
$CECOLOR
 62
   256
  9
$DIMSCALE
 40
1.0
  9
$DIMASZ
 40
0.18
  9
$DIMEXO
 40
0.0625
  9
$DIMDLI
 40
0.38
  9
$DIMRND
 40
0.0
  9
$DIMDLE
 40
0.0
  9
$DIMEXE
 40
0.18
  9
$DIMTP
 40
0.0
  9
$DIMTM
 40
0.0
  9
$DIMTXT
 40
0.18
  9
$DIMCEN
 40
0.09
  9
$DIMTSZ
 40
0.0
  9
$DIMTOL
 70
     0
  9
$DIMLIM
 70
     0
  9
$DIMTIH
 70
     1
  9
$DIMTOH
 70
     1
  9
$DIMSE1
 70
     0
  9
$DIMSE2
 70
     0
  9
$DIMTAD
 70
     0
  9
$DIMZIN
 70
     0
  9
$DIMBLK
  1

  9
$DIMASO
 70
     1
  9
$DIMSHO
 70
     1
  9
$DIMPOST
  1

  9
$DIMAPOST
  1

  9
$DIMALT
 70
     0
  9
$DIMALTD
 70
     2
  9
$DIMALTF
 40
25.399999999999999
  9
$DIMLFAC
 40
1.0
  9
$DIMTOFL
 70
     0
  9
$DIMTVP
 40
0.0
  9
$DIMTIX
 70
     0
  9
$DIMSOXD
 70
     0
  9
$DIMSAH
 70
     0
  9
$DIMBLK1
  1

  9
$DIMBLK2
  1

  9
$DIMSTYLE
  2
STANDARD
  9
$DIMCLRD
 70
     0
  9
$DIMCLRE
 70
     0
  9
$DIMCLRT
 70
     0
  9
$DIMTFAC
 40
1.0
  9
$DIMGAP
 40
0.09
  9
$LUNITS
 70
     2
  9
$LUPREC
 70
     4
  9
$SKETCHINC
 40
0.1
  9
$FILLETRAD
 40
0.0
  9
$AUNITS
 70
     0
  9
$AUPREC
 70
     0
  9
$MENU
  1
.
  9
$ELEVATION
 40
0.0
  9
$PELEVATION
 40
0.0
  9
$THICKNESS
 40
0.0
  9
$LIMCHECK
 70
     0
  9
$BLIPMODE
 70
     0
  9
$CHAMFERA
 40
0.0
  9
$CHAMFERB
 40
0.0
  9
$SKPOLY
 70
     0
  9
$TDCREATE
 40
2444972.375
  9
$TDUPDATE
 40
2454072.2561921291
  9
$TDINDWG
 40
0.0000151852
  9
$TDUSRTIMER
 40
0.0000151852
  9
$USRTIMER
 70
     1
  9
$ANGBASE
 50
0.0
  9
$ANGDIR
 70
     0
  9
$PDMODE
 70
     0
  9
$PDSIZE
 40
0.0
  9
$PLINEWID
 40
0.0
  9
$COORDS
 70
     1
  9
$SPLFRAME
 70
     0
  9
$SPLINETYPE
 70
     6
  9
$SPLINESEGS
 70
     8
  9
$ATTDIA
 70
     0
  9
$ATTREQ
 70
     1
  9
$HANDLING
 70
     1
  9
$HANDSEED
  5
1D7
  9
$SURFTAB1
 70
     6
  9
$SURFTAB2
 70
     6
  9
$SURFTYPE
 70
     6
  9
$SURFU
 70
     6
  9
$SURFV
 70
     6
  9
$UCSNAME
  2

  9
$UCSORG
 10
0.0
 20
0.0
 30
0.0
  9
$UCSXDIR
 10
1.0
 20
0.0
 30
0.0
  9
$UCSYDIR
 10
0.0
 20
1.0
 30
0.0
  9
$PUCSNAME
  2

  9
$PUCSORG
 10
0.0
 20
0.0
 30
0.0
  9
$PUCSXDIR
 10
1.0
 20
0.0
 30
0.0
  9
$PUCSYDIR
 10
0.0
 20
1.0
 30
0.0
  9
$USERI1
 70
     0
  9
$USERI2
 70
     0
  9
$USERI3
 70
     0
  9
$USERI4
 70
     0
  9
$USERI5
 70
     0
  9
$USERR1
 40
0.0
  9
$USERR2
 40
0.0
  9
$USERR3
 40
0.0
  9
$USERR4
 40
0.0
  9
$USERR5
 40
0.0
  9
$WORLDVIEW
 70
     1
  9
$SHADEDGE
 70
     3
  9
$SHADEDIF
 70
    70
  9
$TILEMODE
 70
     1
  9
$MAXACTVP
 70
    48
  9
$PLIMCHECK
 70
     0
  9
$PEXTMIN
 10
1.0000000000000000E+020
 20
1.0000000000000000E+020
 30
1.0000000000000000E+020
  9
$PEXTMAX
 10
-1.0000000000000000E+020
 20
-1.0000000000000000E+020
 30
-1.0000000000000000E+020
  9
$PLIMMIN
 10
0.0
 20
0.0
  9
$PLIMMAX
 10
12.0
 20
9.0
  9
$UNITMODE
 70
     0
  9
$VISRETAIN
 70
     1
  9
$PLINEGEN
 70
     0
  9
$PSLTSCALE
 70
     1
  0
ENDSEC
  0
SECTION
  2
TABLES
  0
TABLE
  2
VPORT
 70
     2
  0
VPORT
  2
*ACTIVE
 70
     0
 10
0.0
 20
0.0
 11
1.0
 21
1.0
 12
189.56085651407921
 22
127.4297999999999
 13
0.0
 23
0.0
 14
1.0
 24
1.0
 15
0.0
 25
0.0
 16
0.0
 26
0.0
 36
1.0
 17
0.0
 27
0.0
 37
0.0
 40
299.2467506297229
 41
2.1842105263157889
 42
50.0
 43
0.0
 44
0.0
 50
0.0
 51
0.0
 71
     0
 72
   100
 73
     1
 74
     1
 75
     0
 76
     0
 77
     0
 78
     0
  0
ENDTAB
  0
TABLE
  2
LTYPE
 70
     3
  0
LTYPE
  2
CONTINUOUS
 70
     0
  3
Solid line
 72
    65
 73
     0
 40
0.0
  0
LTYPE
  2
AIGENLINE001
 70
     0
  3
generate AI->DXF Converter
 72
    65
 73
     4
 40
5.8561449999999988
 49
3.5278
 49
-0.776115
 49
0.776115
 49
-0.776115
  0
LTYPE
  2
AIGENLINE002
 70
     0
  3
generate AI->DXF Converter
 72
    65
 73
     2
 40
1.5522299999999991
 49
0.776115
 49
-0.776115
  0
ENDTAB
  0
TABLE
  2
LAYER
 70
     2
  0
LAYER
  2
0
 70
     0
 62
     7
  6
CONTINUOUS
  0
LAYER
  2
_________2
 70
     0
 62
     7
  6
CONTINUOUS
  0
ENDTAB
  0
TABLE
  2
STYLE
 70
     1
  0
STYLE
  2
STANDARD
 70
     0
 40
0.0
 41
0.0
 50
0.0
 71
     0
 42
0.0
  3
TXT
  4
EXTFONT.SHX
  0
ENDTAB
  0
TABLE
  2
VIEW
 70
     0
  0
ENDTAB
  0
TABLE
  2
UCS
 70
     0
  0
ENDTAB
  0
TABLE
  2
APPID
 70
     1
  0
APPID
  2
ACAD
 70
     0
  0
ENDTAB
  0
TABLE
  2
DIMSTYLE
 70
     1
  0
DIMSTYLE
  2
STANDARD
 70
     0
  3

  4

  5

  6

  7

 40
1.0
 41
0.18
 42
0.0625
 43
0.38
 44
0.18
 45
0.0
 46
0.0
 47
0.0
 48
0.0
140
0.18
141
0.09
142
0.0
143
25.399999999999999
144
1.0
145
0.0
146
1.0
147
0.09
 71
     0
 72
     0
 73
     1
 74
     1
 75
     0
 76
     0
 77
     0
 78
     0
170
     0
171
     2
172
     0
173
     0
174
     0
175
     0
176
     0
177
     0
178
     0
  0
ENDTAB
  0
ENDSEC
  0
SECTION
  2
BLOCKS
  0
BLOCK
  8
0
  2
$MODEL_SPACE
 70
     0
 10
0.0
 20
0.0
 30
0.0
  3
$MODEL_SPACE
  1

  0
ENDBLK
  5
1A
  8
0
  0
BLOCK
 67
     1
  8
0
  2
$PAPER_SPACE
 70
     0
 10
0.0
 20
0.0
 30
0.0
  3
$PAPER_SPACE
  1

  0
ENDBLK
  5
17
 67
     1
  8
0
  0
ENDSEC
  0
SECTION
  2
ENTITIES
  0
TEXT
  5
23
  8
0
 62
     7
 10
115.664355
 20
70.514300000000006
 30
0.0
 40
3.0923400000000001
  1
199.5
 41
0.5
 72
     1
 11
118.4989999999999
 21
70.514300000000006
 31
0.0
  0
TEXT
  5
24
  8
0
 62
     7
 10
122.76598250000001
 20
77.216399999999993
 30
0.0
 40
3.0923400000000001
  1
150
 41
0.5
 72
     1
 11
124.441
 21
77.216399999999993
 31
0.0
  0
TEXT
  5
25
  8
0
 62
     7
 10
123.1285004999999
 20
85.403800000000004
 30
0.0
 40
3.0923400000000001
  1
M8×30
 41
0.5
 72
     1
 11
126.7619999999999
 21
85.403800000000004
 31
0.0
  0
TEXT
  5
26
  8
0
 62
     7
 10
117.7715005
 20
89.521699999999996
 30
0.0
 40
3.0923400000000001
  1
M8×20
 41
0.5
 72
     1
 11
121.405
 21
89.521699999999996
 31
0.0
  0
TEXT
  5
27
  8
0
 62
     7
 10
133.17099999999991
 20
127.27800000000001
 30
0.0
 40
3.0923400000000001
  1
皿頭木ねじ%%c6×50
 41
0.5
  0
TEXT
  5
28
  8
0
 62
     7
 10
67.003962000000001
 20
138.423
 30
0.0
 40
3.0923400000000001
  1
（1箇所2本×3箇所）
 41
0.5
 72
     2
 11
84.630300000000005
 21
138.423
 31
0.0
  0
TEXT
  5
29
  8
0
 62
     7
 10
68.123657999999992
 20
143.87100000000001
 30
0.0
 40
3.0923400000000001
  1
イモねじ M6×6
 41
0.5
 72
     2
 11
82.451499999999996
 21
143.87100000000001
 31
0.0
  0
TEXT
  5
2A
  8
0
 62
     7
 10
103.78444
 20
115.301
 30
0.0
 40
3.0923400000000001
  1
%%c99
 41
0.5
 72
     1
 11
105.8459999999999
 21
115.301
 31
0.0
  0
TEXT
  5
2B
  8
0
 62
     7
 10
57.661425000000001
 20
219.91099999999989
 30
0.0
 40
3.0923400000000001
  1
43
 41
0.5
 72
     1
 11
58.949899999999992
 21
219.91099999999989
 31
0.0
  0
TEXT
  5
2C
  8
0
 62
     7
 10
46.846024999999997
 20
219.91099999999989
 30
0.0
 40
3.0923400000000001
  1
43
 41
0.5
 72
     1
 11
48.134500000000003
 21
219.91099999999989
 31
0.0
  0
TEXT
  5
2D
  8
0
 62
     7
 10
87.046899999999994
 20
99.525372500000003
 30
0.0
 40
3.0923400000000001
  1
30
 50
90.0
 41
0.5
 72
     1
 11
87.046899999999994
 21
100.685
 31
0.0
  0
TEXT
  5
2E
  8
0
 62
     7
 10
168.41099999999989
 20
96.954544999999996
 30
0.0
 40
3.0923400000000001
  1
%%c119
 50
90.0
 41
0.5
 72
     1
 11
168.41099999999989
 21
99.273799999999994
 31
0.0
  0
TEXT
  5
2F
  8
0
 62
     7
 10
161.8539999999999
 20
93.438472500000003
 30
0.0
 40
3.0923400000000001
  1
50
 50
90.0
 41
0.5
 72
     1
 11
161.8539999999999
 21
94.598100000000002
 31
0.0
  0
TEXT
  5
30
  8
0
 62
     7
 10
161.8539999999999
 20
102.7295249999999
 30
0.0
 40
3.0923400000000001
  1
25
 50
90.0
 41
0.5
 72
     1
 11
161.8539999999999
 21
104.0179999999999
 31
0.0
  0
ARC
  5
31
  8
0
 62
     7
 10
118.19024899999989
 20
96.587738999999985
 30
0.0
 40
0.9828139999999999
 50
279.17816099999999
 51
304.59789599999988
  0
ARC
  5
32
  8
0
 62
     7
 10
118.290205
 20
96.360768999999991
 30
0.0
 40
0.740694
 50
308.20474799999988
 51
343.65726100000001
  0
ARC
  5
33
  8
0
 62
     7
 10
117.5052919999999
 20
96.640752000000006
 30
0.0
 40
1.573401
 50
341.915999
 51
353.30620800000003
  0
ARC
  5
34
  8
0
 62
     7
 10
114.29506599999991
 20
96.995568999999989
 30
0.0
 40
4.803151999999999
 50
353.56620099999998
 51
1.4547749999999999
  0
ARC
  5
35
  8
0
 62
     7
 10
116.503585
 20
96.587995000000006
 30
0.0
 40
0.983075
 50
235.40648300000001
 51
260.821754
  0
ARC
  5
36
  8
0
 62
     7
 10
116.40356899999991
 20
96.361052999999998
 30
0.0
 40
0.740933
 50
196.360229
 51
231.80725200000001
  0
ARC
  5
37
  8
0
 62
     7
 10
117.186424
 20
96.640721999999997
 30
0.0
 40
1.5715950000000001
 50
186.70045200000001
 51
198.10439099999991
  0
ARC
  5
38
  8
0
 62
     7
 10
120.38643999999999
 20
96.995671000000016
 30
0.0
 40
4.7912140000000001
 50
178.5428
 51
186.45114599999999
  0
LINE
  5
39
  8
0
 62
     7
 10
116.34699999999999
 20
95.617500000000007
 30
0.0
 11
118.34699999999999
 21
95.617500000000007
 31
0.0
  0
LINE
  5
3A
  8
0
 62
     7
 10
115.59699999999999
 20
97.117500000000021
 30
0.0
 11
119.09699999999999
 21
97.117500000000021
 31
0.0
  0
ARC
  5
3B
  8
0
 62
     7
 10
140.940426
 20
96.837854000000007
 30
0.0
 40
0.9828139999999999
 50
279.17816099999999
 51
304.59789599999988
  0
ARC
  5
3C
  8
0
 62
     7
 10
141.040381
 20
96.610884999999996
 30
0.0
 40
0.740694
 50
308.20474799999988
 51
343.65726100000001
  0
ARC
  5
3D
  8
0
 62
     7
 10
140.25546900000001
 20
96.890867
 30
0.0
 40
1.573401
 50
341.915999
 51
353.30620800000003
  0
ARC
  5
3E
  8
0
 62
     7
 10
137.045242
 20
97.245684999999995
 30
0.0
 40
4.803151999999999
 50
353.56620099999998
 51
1.4547749999999999
  0
ARC
  5
3F
  8
0
 62
     7
 10
139.25376099999991
 20
96.838110999999984
 30
0.0
 40
0.983075
 50
235.40648300000001
 51
260.821754
  0
ARC
  5
40
  8
0
 62
     7
 10
139.1537449999999
 20
96.61116899999999
 30
0.0
 40
0.740933
 50
196.360229
 51
231.80725200000001
  0
ARC
  5
41
  8
0
 62
     7
 10
139.936601
 20
96.890838000000002
 30
0.0
 40
1.5715950000000001
 50
186.70045200000001
 51
198.10439099999991
  0
ARC
  5
42
  8
0
 62
     7
 10
143.13661699999989
 20
97.245787000000007
 30
0.0
 40
4.7912140000000001
 50
178.5428
 51
186.45114599999999
  0
LINE
  5
43
  8
0
  6
AIGENLINE001
 62
     7
 10
65.694299999999998
 20
104.7649999999999
 30
0.0
 11
62.9602
 21
109.501
 31
0.0
  0
ARC
  5
44
  8
0
 62
     7
 10
64.435756000000012
 20
107.08878199999999
 30
0.0
 40
1.9487599999999989
 50
122.119305
 51
207.86922699999991
  0
ARC
  5
45
  8
0
 62
     7
 10
64.363050000000001
 20
107.213742
 30
0.0
 40
1.948261
 50
212.12131400000001
 51
297.89792299999988
  0
ARC
  5
46
  8
0
 62
     7
 10
64.239087999999995
 20
107.1417659999999
 30
0.0
 40
1.947924999999999
 50
302.11474700000002
 51
27.891501999999999
  0
ARC
  5
47
  8
0
 62
     7
 10
64.310661999999994
 20
107.01711400000001
 30
0.0
 40
1.94828
 50
32.119954
 51
117.87908400000001
  0
LINE
  5
48
  8
0
  6
AIGENLINE001
 62
     7
 10
66.829899999999995
 20
108.55500000000001
 30
0.0
 11
61.890700000000002
 21
105.7029999999999
 31
0.0
  0
LINE
  5
49
  8
0
 62
     7
 10
63.781399999999998
 20
106.5779999999999
 30
0.0
 11
63.687600000000003
 21
106.7409999999999
 31
0.0
  0
LINE
  5
4A
  8
0
 62
     7
 10
63.687600000000003
 20
106.7409999999999
 30
0.0
 11
63.593899999999998
 21
106.90299999999991
 31
0.0
  0
LINE
  5
4B
  8
0
 62
     7
 10
63.781399999999998
 20
106.5779999999999
 30
0.0
 11
64.268500000000003
 21
106.8599999999999
 31
0.0
  0
LINE
  5
4C
  8
0
 62
     7
 10
64.593000000000004
 20
107.047
 30
0.0
 11
65.080500000000001
 21
107.328
 31
0.0
  0
LINE
  5
4D
  8
0
 62
     7
 10
64.893100000000004
 20
107.65299999999991
 30
0.0
 11
64.405600000000007
 21
107.372
 31
0.0
  0
LINE
  5
4E
  8
0
 62
     7
 10
64.081100000000006
 20
107.1839999999999
 30
0.0
 11
63.593899999999998
 21
106.90299999999991
 31
0.0
  0
LINE
  5
4F
  8
0
 62
     7
 10
65.080500000000001
 20
107.328
 30
0.0
 11
64.986800000000002
 21
107.491
 31
0.0
  0
LINE
  5
50
  8
0
 62
     7
 10
64.986800000000002
 20
107.491
 30
0.0
 11
64.893100000000004
 21
107.65299999999991
 31
0.0
  0
LINE
  5
51
  8
0
 62
     7
 10
63.79999999999999
 20
107.67100000000001
 30
0.0
 11
63.962200000000003
 21
107.7649999999999
 31
0.0
  0
LINE
  5
52
  8
0
 62
     7
 10
63.962200000000003
 20
107.7649999999999
 30
0.0
 11
64.124499999999983
 21
107.8589999999999
 31
0.0
  0
LINE
  5
53
  8
0
 62
     7
 10
63.79999999999999
 20
107.67100000000001
 30
0.0
 11
64.081100000000006
 21
107.1839999999999
 31
0.0
  0
LINE
  5
54
  8
0
 62
     7
 10
64.268500000000003
 20
106.8599999999999
 30
0.0
 11
64.549999999999997
 21
106.372
 31
0.0
  0
LINE
  5
55
  8
0
 62
     7
 10
64.874499999999983
 20
106.56
 30
0.0
 11
64.593000000000004
 21
107.047
 31
0.0
  0
LINE
  5
56
  8
0
 62
     7
 10
64.405600000000007
 20
107.372
 30
0.0
 11
64.124499999999983
 21
107.8589999999999
 31
0.0
  0
LINE
  5
57
  8
0
 62
     7
 10
64.549999999999997
 20
106.372
 30
0.0
 11
64.712199999999996
 21
106.46599999999999
 31
0.0
  0
LINE
  5
58
  8
0
 62
     7
 10
64.712199999999996
 20
106.46599999999999
 30
0.0
 11
64.874499999999983
 21
106.56
 31
0.0
  0
LINE
  5
59
  8
0
  6
AIGENLINE001
 62
     7
 10
44.045299999999997
 20
109.4679999999999
 30
0.0
 11
41.31089999999999
 21
104.7329999999999
 31
0.0
  0
ARC
  5
5A
  8
0
 62
     7
 10
42.662106999999999
 20
107.216431
 30
0.0
 40
1.9487339999999991
 50
242.114991
 51
327.86581100000001
  0
ARC
  5
5B
  8
0
 62
     7
 10
42.590626999999998
 20
107.0909939999999
 30
0.0
 40
1.9478899999999999
 50
332.11245200000002
 51
57.913393999999997
  0
ARC
  5
5C
  8
0
 62
     7
 10
42.714331999999992
 20
107.0195419999999
 30
0.0
 40
1.947954999999999
 50
62.116315
 51
147.88653400000001
  0
ARC
  5
5D
  8
0
 62
     7
 10
42.786609999999989
 20
107.144049
 30
0.0
 40
1.9483069999999989
 50
152.12160900000001
 51
237.879333
  0
LINE
  5
5E
  8
0
  6
AIGENLINE001
 62
     7
 10
40.194999999999993
 20
108.557
 30
0.0
 11
45.134500000000003
 21
105.705
 31
0.0
  0
LINE
  5
5F
  8
0
 62
     7
 10
43.431399999999996
 20
106.905
 30
0.0
 11
43.337299999999999
 21
106.742
 31
0.0
  0
LINE
  5
60
  8
0
 62
     7
 10
43.337299999999999
 20
106.742
 30
0.0
 11
43.2438
 21
106.58
 31
0.0
  0
LINE
  5
61
  8
0
 62
     7
 10
43.431399999999996
 20
106.905
 30
0.0
 11
42.944099999999999
 21
107.18600000000001
 31
0.0
  0
LINE
  5
62
  8
0
 62
     7
 10
42.619500000000002
 20
107.37299999999991
 30
0.0
 11
42.13219999999999
 21
107.655
 31
0.0
  0
LINE
  5
63
  8
0
 62
     7
 10
41.944600000000001
 20
107.3299999999999
 30
0.0
 11
42.432099999999998
 21
107.04899999999989
 31
0.0
  0
LINE
  5
64
  8
0
 62
     7
 10
42.756700000000002
 20
106.86199999999999
 30
0.0
 11
43.2438
 21
106.58
 31
0.0
  0
LINE
  5
65
  8
0
 62
     7
 10
42.13219999999999
 20
107.655
 30
0.0
 11
42.038400000000003
 21
107.492
 31
0.0
  0
LINE
  5
66
  8
0
 62
     7
 10
42.038400000000003
 20
107.492
 30
0.0
 11
41.944600000000001
 21
107.3299999999999
 31
0.0
  0
LINE
  5
67
  8
0
 62
     7
 10
42.475399999999993
 20
106.3749999999999
 30
0.0
 11
42.313099999999991
 21
106.4679999999999
 31
0.0
  0
LINE
  5
68
  8
0
 62
     7
 10
42.313099999999991
 20
106.4679999999999
 30
0.0
 11
42.15079999999999
 21
106.562
 31
0.0
  0
LINE
  5
69
  8
0
 62
     7
 10
42.475399999999993
 20
106.3749999999999
 30
0.0
 11
42.756700000000002
 21
106.86199999999999
 31
0.0
  0
LINE
  5
6A
  8
0
 62
     7
 10
42.944099999999999
 20
107.18600000000001
 30
0.0
 11
43.225199999999987
 21
107.6729999999999
 31
0.0
  0
LINE
  5
6B
  8
0
 62
     7
 10
42.900700000000001
 20
107.861
 30
0.0
 11
42.619500000000002
 21
107.37299999999991
 31
0.0
  0
LINE
  5
6C
  8
0
 62
     7
 10
42.432099999999998
 20
107.04899999999989
 30
0.0
 11
42.15079999999999
 21
106.562
 31
0.0
  0
LINE
  5
6D
  8
0
 62
     7
 10
43.225199999999987
 20
107.6729999999999
 30
0.0
 11
43.062899999999992
 21
107.767
 31
0.0
  0
LINE
  5
6E
  8
0
 62
     7
 10
43.062899999999992
 20
107.767
 30
0.0
 11
42.900700000000001
 21
107.861
 31
0.0
  0
LINE
  5
6F
  8
0
  6
AIGENLINE001
 62
     7
 10
50.404600000000002
 20
88.367300000000014
 30
0.0
 11
56.603799999999993
 21
88.367300000000014
 31
0.0
  0
ARC
  5
70
  8
0
 62
     7
 10
53.439278000000002
 20
88.29561600000001
 30
0.0
 40
1.9485009999999989
 50
2.10711
 51
87.877090999999993
  0
ARC
  5
71
  8
0
 62
     7
 10
53.583539999999999
 20
88.295710999999997
 30
0.0
 40
1.948402999999999
 50
92.120200999999994
 51
177.89555899999999
  0
ARC
  5
72
  8
0
 62
     7
 10
53.511369999999992
 20
88.367343999999989
 30
0.0
 40
1.8749189999999989
 50
180.0026419999999
 51
270.00265200000001
  0
ARC
  5
73
  8
0
 62
     7
 10
53.511541999999999
 20
88.367343999999989
 30
0.0
 40
1.8749189999999989
 50
269.99738799999989
 51
359.99735800000002
  0
LINE
  5
74
  8
0
  6
AIGENLINE001
 62
     7
 10
53.511499999999998
 20
82.125399999999999
 30
0.0
 11
53.511499999999998
 21
119.47799999999989
 31
0.0
  0
LINE
  5
75
  8
0
 62
     7
 10
53.323999999999991
 20
89.1173
 30
0.0
 11
53.511499999999998
 21
89.1173
 31
0.0
  0
LINE
  5
76
  8
0
 62
     7
 10
53.511499999999998
 20
89.1173
 30
0.0
 11
53.698900000000002
 21
89.1173
 31
0.0
  0
LINE
  5
77
  8
0
 62
     7
 10
53.323999999999991
 20
89.1173
 30
0.0
 11
53.323999999999991
 21
88.554699999999997
 31
0.0
  0
LINE
  5
78
  8
0
 62
     7
 10
53.323999999999991
 20
88.1798
 30
0.0
 11
53.323999999999991
 21
87.6173
 31
0.0
  0
LINE
  5
79
  8
0
 62
     7
 10
53.698900000000002
 20
87.6173
 30
0.0
 11
53.698900000000002
 21
88.1798
 31
0.0
  0
LINE
  5
7A
  8
0
 62
     7
 10
53.698900000000002
 20
88.554699999999997
 30
0.0
 11
53.698900000000002
 21
89.1173
 31
0.0
  0
LINE
  5
7B
  8
0
 62
     7
 10
53.323999999999991
 20
87.6173
 30
0.0
 11
53.511499999999998
 21
87.6173
 31
0.0
  0
LINE
  5
7C
  8
0
 62
     7
 10
53.511499999999998
 20
87.6173
 30
0.0
 11
53.698900000000002
 21
87.6173
 31
0.0
  0
LINE
  5
7D
  8
0
 62
     7
 10
54.261499999999991
 20
88.554699999999997
 30
0.0
 11
54.261499999999991
 21
88.367300000000014
 31
0.0
  0
LINE
  5
7E
  8
0
 62
     7
 10
54.261499999999991
 20
88.367300000000014
 30
0.0
 11
54.261499999999991
 21
88.1798
 31
0.0
  0
LINE
  5
7F
  8
0
 62
     7
 10
54.261499999999991
 20
88.554699999999997
 30
0.0
 11
53.698900000000002
 21
88.554699999999997
 31
0.0
  0
LINE
  5
80
  8
0
 62
     7
 10
53.323999999999991
 20
88.554699999999997
 30
0.0
 11
52.761499999999998
 21
88.554699999999997
 31
0.0
  0
LINE
  5
81
  8
0
 62
     7
 10
52.761499999999998
 20
88.1798
 30
0.0
 11
53.323999999999991
 21
88.1798
 31
0.0
  0
LINE
  5
82
  8
0
 62
     7
 10
53.698900000000002
 20
88.1798
 30
0.0
 11
54.261499999999991
 21
88.1798
 31
0.0
  0
LINE
  5
83
  8
0
 62
     7
 10
52.761499999999998
 20
88.554699999999997
 30
0.0
 11
52.761499999999998
 21
88.367300000000014
 31
0.0
  0
LINE
  5
84
  8
0
 62
     7
 10
52.761499999999998
 20
88.367300000000014
 30
0.0
 11
52.761499999999998
 21
88.1798
 31
0.0
  0
LINE
  5
85
  8
0
 62
     7
 10
139.4439999999999
 20
93.674099999999996
 30
0.0
 11
140.09700000000001
 21
95.867599999999996
 31
0.0
  0
LINE
  5
86
  8
0
 62
     7
 10
140.09700000000001
 20
95.867599999999996
 30
0.0
 11
138.43499999999989
 21
94.294200000000004
 31
0.0
  0
LINE
  5
87
  8
0
 62
     7
 10
138.43499999999989
 20
94.294200000000004
 30
0.0
 11
139.4439999999999
 21
93.674099999999996
 31
0.0
  0
LINE
  5
88
  8
0
 62
     7
 10
140.09700000000001
 20
95.867599999999996
 30
0.0
 11
132.976
 21
84.545900000000003
 31
0.0
  0
LINE
  5
89
  8
0
 62
     7
 10
121.37299999999991
 20
84.545900000000003
 30
0.0
 11
132.976
 21
84.545900000000003
 31
0.0
  0
LINE
  5
8A
  8
0
 62
     7
 10
110.33199999999999
 20
88.636300000000006
 30
0.0
 11
126.68000000000001
 21
88.636300000000006
 31
0.0
  0
LINE
  5
8B
  8
0
 62
     7
 10
116.196
 20
93.640000000000001
 30
0.0
 11
117.34699999999999
 21
95.617500000000007
 31
0.0
  0
LINE
  5
8C
  8
0
 62
     7
 10
117.34699999999999
 20
95.617500000000007
 30
0.0
 11
115.3599999999999
 21
94.479900000000001
 31
0.0
  0
LINE
  5
8D
  8
0
 62
     7
 10
115.3599999999999
 20
94.479900000000001
 30
0.0
 11
116.196
 21
93.640000000000001
 31
0.0
  0
LINE
  5
8E
  8
0
 62
     7
 10
110.33199999999999
 20
88.636300000000006
 30
0.0
 11
117.34699999999999
 21
95.617500000000007
 31
0.0
  0
LINE
  5
8F
  8
0
 62
     7
 10
156.93299999999991
 20
125.621
 30
0.0
 11
133.304
 21
125.621
 31
0.0
  0
LINE
  5
90
  8
0
 62
     7
 10
149.23500000000001
 20
109.84399999999989
 30
0.0
 11
148.87
 21
107.58499999999989
 31
0.0
  0
LINE
  5
91
  8
0
 62
     7
 10
148.87
 20
107.58499999999989
 30
0.0
 11
150.316
 21
109.35899999999999
 31
0.0
  0
LINE
  5
92
  8
0
 62
     7
 10
150.316
 20
109.35899999999999
 30
0.0
 11
149.23500000000001
 21
109.84399999999989
 31
0.0
  0
LINE
  5
93
  8
0
 62
     7
 10
156.93299999999991
 20
125.621
 30
0.0
 11
148.96700000000001
 21
107.867
 31
0.0
  0
LINE
  5
94
  8
0
 62
     7
 10
82.604399999999998
 20
142.70599999999999
 30
0.0
 11
59.99410000000001
 21
142.70599999999999
 31
0.0
  0
LINE
  5
95
  8
0
 62
     7
 10
56.006100000000004
 20
149.51099999999991
 30
0.0
 11
54.261299999999999
 21
150.99199999999999
 31
0.0
  0
LINE
  5
96
  8
0
 62
     7
 10
54.261299999999999
 20
150.99199999999999
 30
0.0
 11
55.031799999999997
 21
148.83699999999999
 31
0.0
  0
LINE
  5
97
  8
0
 62
     7
 10
55.031799999999997
 20
148.83699999999999
 30
0.0
 11
56.006100000000004
 21
149.51099999999991
 31
0.0
  0
LINE
  5
98
  8
0
 62
     7
 10
54.261299999999999
 20
150.99199999999999
 30
0.0
 11
59.99410000000001
 21
142.70599999999999
 31
0.0
  0
LINE
  5
99
  8
0
  6
AIGENLINE002
 62
     7
 10
44.165499999999987
 20
168.47900000000001
 30
0.0
 11
45.771999999999998
 21
167.55199999999999
 31
0.0
  0
LINE
  5
9A
  8
0
  6
AIGENLINE002
 62
     7
 10
43.415399999999998
 20
167.18000000000001
 30
0.0
 11
45.021799999999999
 21
166.2529999999999
 31
0.0
  0
LINE
  5
9B
  8
0
  6
AIGENLINE001
 62
     7
 10
42.910699999999999
 20
168.33799999999991
 30
0.0
 11
46.374599999999987
 21
166.33799999999999
 31
0.0
  0
LINE
  5
9C
  8
0
  6
AIGENLINE002
 62
     7
 10
63.607700000000001
 20
167.18000000000001
 30
0.0
 11
62.001300000000001
 21
166.25200000000001
 31
0.0
  0
LINE
  5
9D
  8
0
  6
AIGENLINE002
 62
     7
 10
62.857900000000001
 20
168.47900000000001
 30
0.0
 11
61.251399999999997
 21
167.5509999999999
 31
0.0
  0
LINE
  5
9E
  8
0
  6
AIGENLINE001
 62
     7
 10
64.450400000000002
 20
168.53200000000001
 30
0.0
 11
60.534700000000001
 21
166.27199999999999
 31
0.0
  0
LINE
  5
9F
  8
0
  6
AIGENLINE002
 62
     7
 10
52.761299999999999
 20
150.99199999999999
 30
0.0
 11
52.761299999999999
 21
152.84700000000001
 31
0.0
  0
LINE
  5
A0
  8
0
  6
AIGENLINE002
 62
     7
 10
54.261299999999999
 20
150.99199999999999
 30
0.0
 11
54.261299999999999
 21
152.84700000000001
 31
0.0
  0
LINE
  5
A1
  8
0
  6
AIGENLINE001
 62
     7
 10
39.780299999999997
 20
162.21700000000001
 30
0.0
 11
66.962599999999995
 21
162.21700000000001
 31
0.0
  0
ARC
  5
A2
  8
0
 62
     7
 10
53.511541000000001
 20
162.21704800000001
 30
0.0
 40
8.9375830000000001
 50
0.000562
 51
90.000531999999993
  0
ARC
  5
A3
  8
0
 62
     7
 10
53.511457999999998
 20
162.21713399999999
 30
0.0
 40
8.9374970000000005
 50
90.0
 51
179.99996999999991
  0
ARC
  5
A4
  8
0
 62
     7
 10
53.511541000000001
 20
162.21704800000001
 30
0.0
 40
8.9375800000000005
 50
179.99941799999991
 51
269.99946799999998
  0
ARC
  5
A5
  8
0
 62
     7
 10
53.511455000000012
 20
162.21713799999989
 30
0.0
 40
8.9376689999999996
 50
270.00002000000001
 51
359.99998999999991
  0
ARC
  5
A6
  8
0
 62
     7
 10
53.511455000000012
 20
162.21713399999999
 30
0.0
 40
9.4000039999999991
 50
0.00001
 51
89.999980000000008
  0
ARC
  5
A7
  8
0
 62
     7
 10
53.511457999999998
 20
162.21713399999999
 30
0.0
 40
9.4000039999999991
 50
90.0
 51
179.99996999999991
  0
ARC
  5
A8
  8
0
 62
     7
 10
53.511541000000001
 20
162.21704800000001
 30
0.0
 40
9.4000869999999992
 50
179.99944499999989
 51
269.99949500000002
  0
ARC
  5
A9
  8
0
 62
     7
 10
53.511367999999997
 20
162.217052
 30
0.0
 40
9.4000899999999987
 50
270.00054499999999
 51
0.000515
  0
LINE
  5
AA
  8
0
 62
     7
 10
155.05000000000001
 20
88.835099999999997
 30
0.0
 11
143.971
 21
88.835099999999997
 31
0.0
  0
LINE
  5
AB
  8
0
 62
     7
 10
155.05000000000001
 20
87.900099999999995
 30
0.0
 11
143.971
 21
87.900099999999995
 31
0.0
  0
LINE
  5
AC
  8
0
 62
     7
 10
155.80199999999999
 20
87.617599999999996
 30
0.0
 11
155.36699999999999
 21
89.117599999999996
 31
0.0
  0
LINE
  5
AD
  8
0
 62
     7
 10
154.88800000000001
 20
87.617599999999996
 30
0.0
 11
154.45299999999989
 21
89.117599999999996
 31
0.0
  0
LINE
  5
AE
  8
0
 62
     7
 10
153.9739999999999
 20
87.617599999999996
 30
0.0
 11
153.5379999999999
 21
89.117599999999996
 31
0.0
  0
LINE
  5
AF
  8
0
 62
     7
 10
153.059
 20
87.617599999999996
 30
0.0
 11
152.624
 21
89.117599999999996
 31
0.0
  0
LINE
  5
B0
  8
0
 62
     7
 10
152.14500000000001
 20
87.617599999999996
 30
0.0
 11
151.71000000000001
 21
89.117599999999996
 31
0.0
  0
LINE
  5
B1
  8
0
 62
     7
 10
151.23099999999999
 20
87.617599999999996
 30
0.0
 11
150.7949999999999
 21
89.117599999999996
 31
0.0
  0
LINE
  5
B2
  8
0
 62
     7
 10
150.316
 20
87.617599999999996
 30
0.0
 11
149.88099999999989
 21
89.117599999999996
 31
0.0
  0
LINE
  5
B3
  8
0
 62
     7
 10
149.40199999999999
 20
87.617599999999996
 30
0.0
 11
148.96700000000001
 21
89.117599999999996
 31
0.0
  0
LINE
  5
B4
  8
0
 62
     7
 10
148.48799999999989
 20
87.617599999999996
 30
0.0
 11
148.05199999999999
 21
89.117599999999996
 31
0.0
  0
LINE
  5
B5
  8
0
 62
     7
 10
147.57299999999989
 20
87.617599999999996
 30
0.0
 11
147.13800000000001
 21
89.117599999999996
 31
0.0
  0
LINE
  5
B6
  8
0
 62
     7
 10
146.65899999999991
 20
87.617599999999996
 30
0.0
 11
146.2239999999999
 21
89.117599999999996
 31
0.0
  0
LINE
  5
B7
  8
0
 62
     7
 10
145.745
 20
87.617599999999996
 30
0.0
 11
145.30899999999991
 21
89.117599999999996
 31
0.0
  0
LINE
  5
B8
  8
0
 62
     7
 10
156.471
 20
88.367300000000014
 30
0.0
 11
155.05000000000001
 21
87.900099999999995
 31
0.0
  0
LINE
  5
B9
  8
0
 62
     7
 10
156.471
 20
88.367300000000014
 30
0.0
 11
155.05000000000001
 21
88.835099999999997
 31
0.0
  0
LINE
  5
BA
  8
0
 62
     7
 10
144.83000000000001
 20
87.617599999999996
 30
0.0
 11
144.39500000000001
 21
89.117599999999996
 31
0.0
  0
LINE
  5
BB
  8
0
  6
AIGENLINE001
 62
     7
 10
157.37200000000001
 20
88.367300000000014
 30
0.0
 11
141.61000000000001
 21
88.367300000000014
 31
0.0
  0
LINE
  5
BC
  8
0
 62
     7
 10
155.05000000000001
 20
107.58499999999989
 30
0.0
 11
143.971
 21
107.58499999999989
 31
0.0
  0
LINE
  5
BD
  8
0
 62
     7
 10
155.05000000000001
 20
106.65000000000001
 30
0.0
 11
143.971
 21
106.65000000000001
 31
0.0
  0
LINE
  5
BE
  8
0
 62
     7
 10
155.80199999999999
 20
106.367
 30
0.0
 11
155.36699999999999
 21
107.867
 31
0.0
  0
LINE
  5
BF
  8
0
 62
     7
 10
154.88800000000001
 20
106.367
 30
0.0
 11
154.45299999999989
 21
107.867
 31
0.0
  0
LINE
  5
C0
  8
0
 62
     7
 10
153.9739999999999
 20
106.367
 30
0.0
 11
153.5379999999999
 21
107.867
 31
0.0
  0
LINE
  5
C1
  8
0
 62
     7
 10
153.059
 20
106.367
 30
0.0
 11
152.624
 21
107.867
 31
0.0
  0
LINE
  5
C2
  8
0
 62
     7
 10
152.14500000000001
 20
106.367
 30
0.0
 11
151.71000000000001
 21
107.867
 31
0.0
  0
LINE
  5
C3
  8
0
 62
     7
 10
151.23099999999999
 20
106.367
 30
0.0
 11
150.7949999999999
 21
107.867
 31
0.0
  0
LINE
  5
C4
  8
0
 62
     7
 10
150.316
 20
106.367
 30
0.0
 11
149.88099999999989
 21
107.867
 31
0.0
  0
LINE
  5
C5
  8
0
 62
     7
 10
149.40199999999999
 20
106.367
 30
0.0
 11
148.96700000000001
 21
107.867
 31
0.0
  0
LINE
  5
C6
  8
0
 62
     7
 10
148.48799999999989
 20
106.367
 30
0.0
 11
148.05199999999999
 21
107.867
 31
0.0
  0
LINE
  5
C7
  8
0
 62
     7
 10
147.57299999999989
 20
106.367
 30
0.0
 11
147.13800000000001
 21
107.867
 31
0.0
  0
LINE
  5
C8
  8
0
 62
     7
 10
146.65899999999991
 20
106.367
 30
0.0
 11
146.2239999999999
 21
107.867
 31
0.0
  0
LINE
  5
C9
  8
0
 62
     7
 10
145.745
 20
106.367
 30
0.0
 11
145.30899999999991
 21
107.867
 31
0.0
  0
LINE
  5
CA
  8
0
 62
     7
 10
156.471
 20
107.11799999999999
 30
0.0
 11
155.05000000000001
 21
106.65000000000001
 31
0.0
  0
LINE
  5
CB
  8
0
 62
     7
 10
156.471
 20
107.11799999999999
 30
0.0
 11
155.05000000000001
 21
107.58499999999989
 31
0.0
  0
LINE
  5
CC
  8
0
 62
     7
 10
144.83000000000001
 20
106.367
 30
0.0
 11
144.39500000000001
 21
107.867
 31
0.0
  0
LINE
  5
CD
  8
0
  6
AIGENLINE001
 62
     7
 10
157.37200000000001
 20
107.11799999999999
 30
0.0
 11
141.84
 21
107.11799999999999
 31
0.0
  0
LINE
  5
CE
  8
0
 62
     7
 10
63.793900000000001
 20
211.92099999999991
 30
0.0
 11
63.793900000000001
 21
200.84200000000001
 31
0.0
  0
LINE
  5
CF
  8
0
 62
     7
 10
64.728800000000007
 20
211.92099999999991
 30
0.0
 11
64.728800000000007
 21
200.84200000000001
 31
0.0
  0
LINE
  5
D0
  8
0
 62
     7
 10
65.011300000000006
 20
212.673
 30
0.0
 11
63.511299999999999
 21
212.238
 31
0.0
  0
LINE
  5
D1
  8
0
 62
     7
 10
65.011300000000006
 20
211.75899999999999
 30
0.0
 11
63.511299999999999
 21
211.32299999999989
 31
0.0
  0
LINE
  5
D2
  8
0
 62
     7
 10
65.011300000000006
 20
210.84499999999991
 30
0.0
 11
63.511299999999999
 21
210.40899999999999
 31
0.0
  0
LINE
  5
D3
  8
0
 62
     7
 10
65.011300000000006
 20
209.92999999999989
 30
0.0
 11
63.511299999999999
 21
209.49499999999989
 31
0.0
  0
LINE
  5
D4
  8
0
 62
     7
 10
65.011300000000006
 20
209.01599999999999
 30
0.0
 11
63.511299999999999
 21
208.58000000000001
 31
0.0
  0
LINE
  5
D5
  8
0
 62
     7
 10
65.011300000000006
 20
208.102
 30
0.0
 11
63.511299999999999
 21
207.66599999999991
 31
0.0
  0
LINE
  5
D6
  8
0
 62
     7
 10
65.011300000000006
 20
207.18700000000001
 30
0.0
 11
63.511299999999999
 21
206.75200000000001
 31
0.0
  0
LINE
  5
D7
  8
0
 62
     7
 10
65.011300000000006
 20
206.273
 30
0.0
 11
63.511299999999999
 21
205.83699999999999
 31
0.0
  0
LINE
  5
D8
  8
0
 62
     7
 10
65.011300000000006
 20
205.35900000000001
 30
0.0
 11
63.511299999999999
 21
204.923
 31
0.0
  0
LINE
  5
D9
  8
0
 62
     7
 10
65.011300000000006
 20
204.44399999999999
 30
0.0
 11
63.511299999999999
 21
204.00899999999999
 31
0.0
  0
LINE
  5
DA
  8
0
 62
     7
 10
65.011300000000006
 20
203.52999999999989
 30
0.0
 11
63.511299999999999
 21
203.09399999999999
 31
0.0
  0
LINE
  5
DB
  8
0
 62
     7
 10
65.011300000000006
 20
202.6159999999999
 30
0.0
 11
63.511299999999999
 21
202.18000000000001
 31
0.0
  0
LINE
  5
DC
  8
0
 62
     7
 10
64.261300000000006
 20
213.34200000000001
 30
0.0
 11
64.728800000000007
 21
211.92099999999991
 31
0.0
  0
LINE
  5
DD
  8
0
 62
     7
 10
64.261300000000006
 20
213.34200000000001
 30
0.0
 11
63.793900000000001
 21
211.92099999999991
 31
0.0
  0
LINE
  5
DE
  8
0
 62
     7
 10
65.011300000000006
 20
201.70099999999991
 30
0.0
 11
63.511299999999999
 21
201.26599999999991
 31
0.0
  0
LINE
  5
DF
  8
0
  6
AIGENLINE001
 62
     7
 10
64.261300000000006
 20
214.24299999999999
 30
0.0
 11
64.261300000000006
 21
198.70699999999991
 31
0.0
  0
LINE
  5
E0
  8
0
 62
     7
 10
42.29379999999999
 20
211.92099999999991
 30
0.0
 11
42.29379999999999
 21
200.84200000000001
 31
0.0
  0
LINE
  5
E1
  8
0
 62
     7
 10
43.2286
 20
211.92099999999991
 30
0.0
 11
43.2286
 21
200.84200000000001
 31
0.0
  0
LINE
  5
E2
  8
0
 62
     7
 10
43.511099999999999
 20
212.673
 30
0.0
 11
42.011099999999992
 21
212.238
 31
0.0
  0
LINE
  5
E3
  8
0
 62
     7
 10
43.511099999999999
 20
211.75899999999999
 30
0.0
 11
42.011099999999992
 21
211.32299999999989
 31
0.0
  0
LINE
  5
E4
  8
0
 62
     7
 10
43.511099999999999
 20
210.84499999999991
 30
0.0
 11
42.011099999999992
 21
210.40899999999999
 31
0.0
  0
LINE
  5
E5
  8
0
 62
     7
 10
43.511099999999999
 20
209.92999999999989
 30
0.0
 11
42.011099999999992
 21
209.49499999999989
 31
0.0
  0
LINE
  5
E6
  8
0
 62
     7
 10
43.511099999999999
 20
209.01599999999999
 30
0.0
 11
42.011099999999992
 21
208.58000000000001
 31
0.0
  0
LINE
  5
E7
  8
0
 62
     7
 10
43.511099999999999
 20
208.102
 30
0.0
 11
42.011099999999992
 21
207.66599999999991
 31
0.0
  0
LINE
  5
E8
  8
0
 62
     7
 10
43.511099999999999
 20
207.18700000000001
 30
0.0
 11
42.011099999999992
 21
206.75200000000001
 31
0.0
  0
LINE
  5
E9
  8
0
 62
     7
 10
43.511099999999999
 20
206.273
 30
0.0
 11
42.011099999999992
 21
205.83699999999999
 31
0.0
  0
LINE
  5
EA
  8
0
 62
     7
 10
43.511099999999999
 20
205.35900000000001
 30
0.0
 11
42.011099999999992
 21
204.923
 31
0.0
  0
LINE
  5
EB
  8
0
 62
     7
 10
43.511099999999999
 20
204.44399999999999
 30
0.0
 11
42.011099999999992
 21
204.00899999999999
 31
0.0
  0
LINE
  5
EC
  8
0
 62
     7
 10
43.511099999999999
 20
203.52999999999989
 30
0.0
 11
42.011099999999992
 21
203.09399999999999
 31
0.0
  0
LINE
  5
ED
  8
0
 62
     7
 10
43.511099999999999
 20
202.6159999999999
 30
0.0
 11
42.011099999999992
 21
202.18000000000001
 31
0.0
  0
LINE
  5
EE
  8
0
 62
     7
 10
42.761099999999999
 20
213.34200000000001
 30
0.0
 11
43.2286
 21
211.92099999999991
 31
0.0
  0
LINE
  5
EF
  8
0
 62
     7
 10
42.761099999999999
 20
213.34200000000001
 30
0.0
 11
42.29379999999999
 21
211.92099999999991
 31
0.0
  0
LINE
  5
F0
  8
0
 62
     7
 10
43.511099999999999
 20
201.70099999999991
 30
0.0
 11
42.011099999999992
 21
201.26599999999991
 31
0.0
  0
LINE
  5
F1
  8
0
  6
AIGENLINE001
 62
     7
 10
42.761099999999999
 20
214.24299999999999
 30
0.0
 11
42.761099999999999
 21
198.70699999999991
 31
0.0
  0
LINE
  5
F2
  8
0
  6
AIGENLINE001
 62
     7
 10
53.511299999999999
 20
147.80299999999991
 30
0.0
 11
53.511299999999999
 21
214.352
 31
0.0
  0
LINE
  5
F3
  8
0
 62
     7
 10
55.721699999999991
 20
219.67799999999991
 30
0.0
 11
53.511299999999999
 21
219.0859999999999
 31
0.0
  0
LINE
  5
F4
  8
0
 62
     7
 10
53.511299999999999
 20
219.0859999999999
 30
0.0
 11
55.721699999999991
 21
218.49299999999999
 31
0.0
  0
LINE
  5
F5
  8
0
 62
     7
 10
55.721699999999991
 20
218.49299999999999
 30
0.0
 11
55.721699999999991
 21
219.67799999999991
 31
0.0
  0
LINE
  5
F6
  8
0
 62
     7
 10
44.971499999999999
 20
219.67799999999991
 30
0.0
 11
42.761099999999999
 21
219.0859999999999
 31
0.0
  0
LINE
  5
F7
  8
0
 62
     7
 10
42.761099999999999
 20
219.0859999999999
 30
0.0
 11
44.971499999999999
 21
218.49299999999999
 31
0.0
  0
LINE
  5
F8
  8
0
 62
     7
 10
44.971499999999999
 20
218.49299999999999
 30
0.0
 11
44.971499999999999
 21
219.67799999999991
 31
0.0
  0
LINE
  5
F9
  8
0
 62
     7
 10
51.300699999999992
 20
218.5079999999999
 30
0.0
 11
53.511299999999999
 21
219.09999999999991
 31
0.0
  0
LINE
  5
FA
  8
0
 62
     7
 10
53.511299999999999
 20
219.09999999999991
 30
0.0
 11
51.300699999999992
 21
219.69199999999989
 31
0.0
  0
LINE
  5
FB
  8
0
 62
     7
 10
51.300699999999992
 20
219.69199999999989
 30
0.0
 11
51.300699999999992
 21
218.5079999999999
 31
0.0
  0
LINE
  5
FC
  8
0
 62
     7
 10
62.050699999999999
 20
218.5079999999999
 30
0.0
 11
64.261300000000006
 21
219.09999999999991
 31
0.0
  0
LINE
  5
FD
  8
0
 62
     7
 10
64.261300000000006
 20
219.09999999999991
 30
0.0
 11
62.050699999999999
 21
219.69199999999989
 31
0.0
  0
LINE
  5
FE
  8
0
 62
     7
 10
62.050699999999999
 20
219.69199999999989
 30
0.0
 11
62.050699999999999
 21
218.5079999999999
 31
0.0
  0
LINE
  5
FF
  8
0
 62
     7
 10
42.761099999999999
 20
219.0929999999999
 30
0.0
 11
64.261300000000006
 21
219.0929999999999
 31
0.0
  0
LINE
  5
100
  8
0
 62
     7
 10
42.761099999999999
 20
219.803
 30
0.0
 11
42.761099999999999
 21
214.75999999999999
 31
0.0
  0
LINE
  5
101
  8
0
 62
     7
 10
53.043799999999997
 20
211.92099999999991
 30
0.0
 11
53.043799999999997
 21
200.84200000000001
 31
0.0
  0
LINE
  5
102
  8
0
 62
     7
 10
53.9786
 20
211.92099999999991
 30
0.0
 11
53.9786
 21
200.84200000000001
 31
0.0
  0
LINE
  5
103
  8
0
 62
     7
 10
54.261299999999999
 20
212.673
 30
0.0
 11
52.761299999999999
 21
212.238
 31
0.0
  0
LINE
  5
104
  8
0
 62
     7
 10
54.261299999999999
 20
211.75899999999999
 30
0.0
 11
52.761299999999999
 21
211.32299999999989
 31
0.0
  0
LINE
  5
105
  8
0
 62
     7
 10
54.261299999999999
 20
210.84499999999991
 30
0.0
 11
52.761299999999999
 21
210.40899999999999
 31
0.0
  0
LINE
  5
106
  8
0
 62
     7
 10
54.261299999999999
 20
209.92999999999989
 30
0.0
 11
52.761299999999999
 21
209.49499999999989
 31
0.0
  0
LINE
  5
107
  8
0
 62
     7
 10
54.261299999999999
 20
209.01599999999999
 30
0.0
 11
52.761299999999999
 21
208.58000000000001
 31
0.0
  0
LINE
  5
108
  8
0
 62
     7
 10
54.261299999999999
 20
208.102
 30
0.0
 11
52.761299999999999
 21
207.66599999999991
 31
0.0
  0
LINE
  5
109
  8
0
 62
     7
 10
54.261299999999999
 20
207.18700000000001
 30
0.0
 11
52.761299999999999
 21
206.75200000000001
 31
0.0
  0
LINE
  5
10A
  8
0
 62
     7
 10
54.261299999999999
 20
206.273
 30
0.0
 11
52.761299999999999
 21
205.83699999999999
 31
0.0
  0
LINE
  5
10B
  8
0
 62
     7
 10
54.261299999999999
 20
205.35900000000001
 30
0.0
 11
52.761299999999999
 21
204.923
 31
0.0
  0
LINE
  5
10C
  8
0
 62
     7
 10
54.261299999999999
 20
204.44399999999999
 30
0.0
 11
52.761299999999999
 21
204.00899999999999
 31
0.0
  0
LINE
  5
10D
  8
0
 62
     7
 10
54.261299999999999
 20
203.52999999999989
 30
0.0
 11
52.761299999999999
 21
203.09399999999999
 31
0.0
  0
LINE
  5
10E
  8
0
 62
     7
 10
54.261299999999999
 20
202.6159999999999
 30
0.0
 11
52.761299999999999
 21
202.18000000000001
 31
0.0
  0
LINE
  5
10F
  8
0
 62
     7
 10
53.511299999999999
 20
213.34200000000001
 30
0.0
 11
53.9786
 21
211.92099999999991
 31
0.0
  0
LINE
  5
110
  8
0
 62
     7
 10
53.511299999999999
 20
213.34200000000001
 30
0.0
 11
53.043799999999997
 21
211.92099999999991
 31
0.0
  0
LINE
  5
111
  8
0
 62
     7
 10
54.261299999999999
 20
201.70099999999991
 30
0.0
 11
52.761299999999999
 21
201.26599999999991
 31
0.0
  0
LINE
  5
112
  8
0
 62
     7
 10
57.511200000000002
 20
199.59200000000001
 30
0.0
 11
68.386399999999995
 21
199.59200000000001
 31
0.0
  0
LINE
  5
113
  8
0
 62
     7
 10
57.011400000000002
 20
195.46700000000001
 30
0.0
 11
57.011400000000002
 21
199.09200000000001
 31
0.0
  0
ARC
  5
114
  8
0
 62
     7
 10
57.530676999999997
 20
199.07303200000001
 30
0.0
 40
0.5196830000000001
 50
92.143753999999987
 51
177.875957
  0
LINE
  5
115
  8
0
 62
     7
 10
38.636099999999992
 20
199.59200000000001
 30
0.0
 11
49.511200000000002
 21
199.59200000000001
 31
0.0
  0
LINE
  5
116
  8
0
 62
     7
 10
50.011200000000002
 20
195.46700000000001
 30
0.0
 11
50.011200000000002
 21
199.09200000000001
 31
0.0
  0
ARC
  5
117
  8
0
 62
     7
 10
49.511158000000002
 20
199.0922929999999
 30
0.0
 40
0.5000590000000001
 50
0.00001
 51
89.999980000000008
  0
LINE
  5
118
  8
0
 62
     7
 10
64.261300000000006
 20
219.803
 30
0.0
 11
64.261300000000006
 21
214.75999999999999
 31
0.0
  0
LINE
  5
119
  8
0
 62
     7
 10
53.511299999999999
 20
219.803
 30
0.0
 11
53.511299999999999
 21
214.75999999999999
 31
0.0
  0
LINE
  5
11A
  8
0
 62
     7
 10
57.011400000000002
 20
195.46700000000001
 30
0.0
 11
50.011200000000002
 21
195.46700000000001
 31
0.0
  0
LINE
  5
11B
  8
0
 62
     7
 10
51.261299999999991
 20
173.24000000000001
 30
0.0
 11
51.261299999999991
 21
195.46700000000001
 31
0.0
  0
LINE
  5
11C
  8
0
 62
     7
 10
55.761299999999999
 20
173.24000000000001
 30
0.0
 11
55.761299999999999
 21
195.46700000000001
 31
0.0
  0
LINE
  5
11D
  8
0
 62
     7
 10
68.386399999999995
 20
200.84200000000001
 30
0.0
 11
68.386399999999995
 21
199.59200000000001
 31
0.0
  0
LINE
  5
11E
  8
0
 62
     7
 10
38.636099999999992
 20
199.59200000000001
 30
0.0
 11
38.636099999999992
 21
200.84200000000001
 31
0.0
  0
LINE
  5
11F
  8
0
 62
     7
 10
38.636099999999992
 20
200.84200000000001
 30
0.0
 11
68.386399999999995
 21
200.84200000000001
 31
0.0
  0
ARC
  5
120
  8
0
 62
     7
 10
53.511454000000001
 20
162.21713399999999
 30
0.0
 40
11.250031999999999
 50
0.00001
 51
89.999980000000008
  0
ARC
  5
121
  8
0
 62
     7
 10
53.511457999999998
 20
162.21713399999999
 30
0.0
 40
11.250031999999999
 50
90.0
 51
179.99996999999991
  0
ARC
  5
122
  8
0
 62
     7
 10
53.511454000000001
 20
162.21713399999999
 30
0.0
 40
11.250028
 50
179.99996999999991
 51
270.00002000000001
  0
ARC
  5
123
  8
0
 62
     7
 10
53.511454000000001
 20
162.21713799999989
 30
0.0
 40
11.250031999999999
 50
270.00002000000001
 51
359.99998999999991
  0
LINE
  5
124
  8
0
 62
     7
 10
142.721
 20
96.867400000000004
 30
0.0
 11
142.721
 21
85.992199999999997
 31
0.0
  0
LINE
  5
125
  8
0
 62
     7
 10
138.59700000000001
 20
97.367599999999996
 30
0.0
 11
142.22200000000001
 21
97.367599999999996
 31
0.0
  0
ARC
  5
126
  8
0
 62
     7
 10
142.201964
 20
96.848400000000012
 30
0.0
 40
0.519601
 50
2.0951369999999989
 51
87.825879000000015
  0
LINE
  5
127
  8
0
 62
     7
 10
142.721
 20
115.7429999999999
 30
0.0
 11
142.721
 21
104.86799999999999
 31
0.0
  0
LINE
  5
128
  8
0
 62
     7
 10
138.59700000000001
 20
104.367
 30
0.0
 11
142.22200000000001
 21
104.367
 31
0.0
  0
ARC
  5
129
  8
0
 62
     7
 10
142.20275699999999
 20
104.885851
 30
0.0
 40
0.5187800000000001
 50
272.089877
 51
357.98910699999988
  0
ARC
  5
12A
  8
0
 62
     7
 10
53.483217000000003
 20
100.83892400000001
 30
0.0
 40
0.7787670000000001
 50
2.104419
 51
87.921895999999975
  0
ARC
  5
12B
  8
0
 62
     7
 10
53.540412000000003
 20
100.83820799999999
 30
0.0
 40
0.779509
 50
92.128793999999999
 51
177.84485100000001
  0
ARC
  5
12C
  8
0
 62
     7
 10
53.540391999999997
 20
100.8960999999999
 30
0.0
 40
0.779462
 50
182.10119900000001
 51
267.87251800000001
  0
ARC
  5
12D
  8
0
 62
     7
 10
53.482456999999989
 20
100.8961629999999
 30
0.0
 40
0.779528
 50
272.13196499999992
 51
357.89435800000001
  0
LINE
  5
12E
  8
0
 62
     7
 10
41.136600000000001
 20
104.617
 30
0.0
 11
65.886700000000005
 21
104.617
 31
0.0
  0
LINE
  5
12F
  8
0
 62
     7
 10
41.136299999999991
 20
97.117500000000021
 30
0.0
 11
65.886700000000005
 21
97.117500000000021
 31
0.0
  0
LINE
  5
130
  8
0
 62
     7
 10
41.136400000000002
 20
104.617
 30
0.0
 11
41.136400000000002
 21
97.117500000000021
 31
0.0
  0
LINE
  5
131
  8
0
 62
     7
 10
65.886700000000005
 20
104.617
 30
0.0
 11
65.886700000000005
 21
97.117500000000021
 31
0.0
  0
LINE
  5
132
  8
0
  6
AIGENLINE001
 62
     7
 10
35.281300000000002
 20
100.86799999999999
 30
0.0
 11
72.357100000000003
 21
100.86799999999999
 31
0.0
  0
ARC
  5
133
  8
0
 62
     7
 10
53.511367000000007
 20
100.867605
 30
0.0
 40
14.875244
 50
359.9996779999999
 51
89.999647999999979
  0
ARC
  5
134
  8
0
 62
     7
 10
53.511631000000001
 20
100.86769099999999
 30
0.0
 40
14.87515799999999
 50
90.000663000000003
 51
180.00067299999989
  0
ARC
  5
135
  8
0
 62
     7
 10
53.511626
 20
100.867346
 30
0.0
 40
14.875151999999989
 50
179.99930699999999
 51
269.99935599999992
  0
ARC
  5
136
  8
0
 62
     7
 10
53.511367000000007
 20
100.86743799999989
 30
0.0
 40
14.875244
 50
270.00035200000002
 51
0.000322
  0
LINE
  5
137
  8
0
 62
     7
 10
141.75999999999999
 20
68.9709
 30
0.0
 11
143.971
 21
69.562799999999996
 31
0.0
  0
LINE
  5
138
  8
0
 62
     7
 10
143.971
 20
69.562799999999996
 30
0.0
 11
141.75999999999999
 21
70.155299999999997
 31
0.0
  0
LINE
  5
139
  8
0
 62
     7
 10
141.75999999999999
 20
70.155299999999997
 30
0.0
 11
141.75999999999999
 21
68.9709
 31
0.0
  0
LINE
  5
13A
  8
0
 62
     7
 10
96.306900000000013
 20
70.140900000000002
 30
0.0
 11
94.096500000000006
 21
69.548299999999998
 31
0.0
  0
LINE
  5
13B
  8
0
 62
     7
 10
94.096500000000006
 20
69.548299999999998
 30
0.0
 11
96.306900000000013
 21
68.956400000000002
 31
0.0
  0
LINE
  5
13C
  8
0
 62
     7
 10
96.306900000000013
 20
68.956400000000002
 30
0.0
 11
96.306900000000013
 21
70.140900000000002
 31
0.0
  0
LINE
  5
13D
  8
0
 62
     7
 10
143.971
 20
69.555899999999994
 30
0.0
 11
94.096299999999985
 21
69.555899999999994
 31
0.0
  0
LINE
  5
13E
  8
0
 62
     7
 10
94.096299999999985
 20
68.846199999999996
 30
0.0
 11
94.096299999999985
 21
96.287200000000013
 31
0.0
  0
LINE
  5
13F
  8
0
 62
     7
 10
108.682
 20
76.954599999999999
 30
0.0
 11
106.471
 21
76.362099999999998
 31
0.0
  0
LINE
  5
140
  8
0
 62
     7
 10
106.471
 20
76.362099999999998
 30
0.0
 11
108.682
 21
75.770200000000003
 31
0.0
  0
LINE
  5
141
  8
0
 62
     7
 10
108.682
 20
75.770200000000003
 30
0.0
 11
108.682
 21
76.954599999999999
 31
0.0
  0
LINE
  5
142
  8
0
 62
     7
 10
141.76099999999991
 20
75.784700000000001
 30
0.0
 11
143.97200000000001
 21
76.376499999999993
 31
0.0
  0
LINE
  5
143
  8
0
 62
     7
 10
143.97200000000001
 20
76.376499999999993
 30
0.0
 11
141.76099999999991
 21
76.969099999999983
 31
0.0
  0
LINE
  5
144
  8
0
 62
     7
 10
141.76099999999991
 20
76.969099999999983
 30
0.0
 11
141.76099999999991
 21
75.784700000000001
 31
0.0
  0
LINE
  5
145
  8
0
 62
     7
 10
106.471
 20
76.369600000000005
 30
0.0
 11
143.97200000000001
 21
76.369600000000005
 31
0.0
  0
LINE
  5
146
  8
0
 62
     7
 10
143.971
 20
68.845500000000001
 30
0.0
 11
143.971
 21
85.231499999999997
 31
0.0
  0
LINE
  5
147
  8
0
 62
     7
 10
106.471
 20
75.659300000000002
 30
0.0
 11
106.471
 21
94.700400000000002
 31
0.0
  0
LINE
  5
148
  8
0
 62
     7
 10
118.84699999999999
 20
114.541
 30
0.0
 11
118.84699999999999
 21
105.44499999999989
 31
0.0
  0
LINE
  5
149
  8
0
 62
     7
 10
94.096299999999985
 20
114.541
 30
0.0
 11
94.096299999999985
 21
105.44499999999989
 31
0.0
  0
LINE
  5
14A
  8
0
 62
     7
 10
96.306900000000013
 20
114.416
 30
0.0
 11
94.096500000000006
 21
113.8239999999999
 31
0.0
  0
LINE
  5
14B
  8
0
 62
     7
 10
94.096500000000006
 20
113.8239999999999
 30
0.0
 11
96.306900000000013
 21
113.232
 31
0.0
  0
LINE
  5
14C
  8
0
 62
     7
 10
96.306900000000013
 20
113.232
 30
0.0
 11
96.306900000000013
 21
114.416
 31
0.0
  0
LINE
  5
14D
  8
0
 62
     7
 10
116.636
 20
113.247
 30
0.0
 11
118.84699999999999
 21
113.83799999999989
 31
0.0
  0
LINE
  5
14E
  8
0
 62
     7
 10
118.84699999999999
 20
113.83799999999989
 30
0.0
 11
116.636
 21
114.4309999999999
 31
0.0
  0
LINE
  5
14F
  8
0
 62
     7
 10
116.636
 20
114.4309999999999
 30
0.0
 11
116.636
 21
113.247
 31
0.0
  0
LINE
  5
150
  8
0
 62
     7
 10
94.096299999999985
 20
113.831
 30
0.0
 11
118.84699999999999
 21
113.831
 31
0.0
  0
LINE
  5
151
  8
0
 62
     7
 10
162.34999999999991
 20
103.07899999999989
 30
0.0
 11
162.94200000000001
 21
100.86799999999999
 31
0.0
  0
LINE
  5
152
  8
0
 62
     7
 10
162.94200000000001
 20
100.86799999999999
 30
0.0
 11
163.53399999999999
 21
103.07899999999989
 31
0.0
  0
LINE
  5
153
  8
0
 62
     7
 10
163.53399999999999
 20
103.07899999999989
 30
0.0
 11
162.34999999999991
 21
103.07899999999989
 31
0.0
  0
LINE
  5
154
  8
0
 62
     7
 10
162.34999999999991
 20
90.578299999999999
 30
0.0
 11
162.94200000000001
 21
88.367300000000014
 31
0.0
  0
LINE
  5
155
  8
0
 62
     7
 10
162.94200000000001
 20
88.367300000000014
 30
0.0
 11
163.53399999999999
 21
90.578299999999999
 31
0.0
  0
LINE
  5
156
  8
0
 62
     7
 10
163.53399999999999
 20
90.578299999999999
 30
0.0
 11
162.34999999999991
 21
90.578299999999999
 31
0.0
  0
LINE
  5
157
  8
0
 62
     7
 10
163.52000000000001
 20
98.657099999999986
 30
0.0
 11
162.928
 21
100.86799999999999
 31
0.0
  0
LINE
  5
158
  8
0
 62
     7
 10
162.928
 20
100.86799999999999
 30
0.0
 11
162.33500000000001
 21
98.657099999999986
 31
0.0
  0
LINE
  5
159
  8
0
 62
     7
 10
162.33500000000001
 20
98.657099999999986
 30
0.0
 11
163.52000000000001
 21
98.657099999999986
 31
0.0
  0
LINE
  5
15A
  8
0
 62
     7
 10
163.52000000000001
 20
104.907
 30
0.0
 11
162.928
 21
107.11799999999999
 31
0.0
  0
LINE
  5
15B
  8
0
 62
     7
 10
162.928
 20
107.11799999999999
 30
0.0
 11
162.33500000000001
 21
104.907
 31
0.0
  0
LINE
  5
15C
  8
0
 62
     7
 10
162.33500000000001
 20
104.907
 30
0.0
 11
163.52000000000001
 21
104.907
 31
0.0
  0
LINE
  5
15D
  8
0
 62
     7
 10
162.935
 20
88.367300000000014
 30
0.0
 11
162.935
 21
107.11799999999999
 31
0.0
  0
LINE
  5
15E
  8
0
 62
     7
 10
163.64500000000001
 20
88.367300000000014
 30
0.0
 11
157.88900000000001
 21
88.367300000000014
 31
0.0
  0
LINE
  5
15F
  8
0
 62
     7
 10
163.64500000000001
 20
100.86799999999999
 30
0.0
 11
146.042
 21
100.86799999999999
 31
0.0
  0
LINE
  5
160
  8
0
 62
     7
 10
163.64500000000001
 20
107.11799999999999
 30
0.0
 11
157.88900000000001
 21
107.11799999999999
 31
0.0
  0
LINE
  5
161
  8
0
 62
     7
 10
170.589
 20
85.992199999999997
 30
0.0
 11
144.69499999999999
 21
85.992199999999997
 31
0.0
  0
LINE
  5
162
  8
0
 62
     7
 10
170.589
 20
115.7429999999999
 30
0.0
 11
144.69499999999999
 21
115.7429999999999
 31
0.0
  0
LINE
  5
163
  8
0
 62
     7
 10
170.464
 20
113.532
 30
0.0
 11
169.87200000000001
 21
115.7429999999999
 31
0.0
  0
LINE
  5
164
  8
0
 62
     7
 10
169.87200000000001
 20
115.7429999999999
 30
0.0
 11
169.28
 21
113.532
 31
0.0
  0
LINE
  5
165
  8
0
 62
     7
 10
169.28
 20
113.532
 30
0.0
 11
170.464
 21
113.532
 31
0.0
  0
LINE
  5
166
  8
0
 62
     7
 10
169.29400000000001
 20
88.203299999999999
 30
0.0
 11
169.887
 21
85.992199999999997
 31
0.0
  0
LINE
  5
167
  8
0
 62
     7
 10
169.887
 20
85.992199999999997
 30
0.0
 11
170.47900000000001
 21
88.203299999999999
 31
0.0
  0
LINE
  5
168
  8
0
 62
     7
 10
170.47900000000001
 20
88.203299999999999
 30
0.0
 11
169.29400000000001
 21
88.203299999999999
 31
0.0
  0
LINE
  5
169
  8
0
 62
     7
 10
169.87899999999999
 20
115.7429999999999
 30
0.0
 11
169.87899999999999
 21
85.992199999999997
 31
0.0
  0
LINE
  5
16A
  8
0
 62
     7
 10
87.417999999999992
 20
97.117500000000021
 30
0.0
 11
93.212299999999985
 21
97.117500000000021
 31
0.0
  0
LINE
  5
16B
  8
0
 62
     7
 10
87.417999999999992
 20
104.617
 30
0.0
 11
93.212299999999985
 21
104.617
 31
0.0
  0
LINE
  5
16C
  8
0
 62
     7
 10
88.712999999999994
 20
102.407
 30
0.0
 11
88.120799999999988
 21
104.617
 31
0.0
  0
LINE
  5
16D
  8
0
 62
     7
 10
88.120799999999988
 20
104.617
 30
0.0
 11
87.528400000000005
 21
102.407
 31
0.0
  0
LINE
  5
16E
  8
0
 62
     7
 10
87.528400000000005
 20
102.407
 30
0.0
 11
88.712999999999994
 21
102.407
 31
0.0
  0
LINE
  5
16F
  8
0
 62
     7
 10
87.542999999999978
 20
99.328599999999994
 30
0.0
 11
88.135199999999998
 21
97.117500000000021
 31
0.0
  0
LINE
  5
170
  8
0
 62
     7
 10
88.135199999999998
 20
97.117500000000021
 30
0.0
 11
88.727599999999995
 21
99.328599999999994
 31
0.0
  0
LINE
  5
171
  8
0
 62
     7
 10
88.727599999999995
 20
99.328599999999994
 30
0.0
 11
87.542999999999978
 21
99.328599999999994
 31
0.0
  0
LINE
  5
172
  8
0
 62
     7
 10
88.127999999999986
 20
104.617
 30
0.0
 11
88.127999999999986
 21
97.117500000000021
 31
0.0
  0
LINE
  5
173
  8
0
  6
AIGENLINE001
 62
     7
 10
117.34699999999999
 20
102.33199999999999
 30
0.0
 11
117.34699999999999
 21
93.726799999999997
 31
0.0
  0
LINE
  5
174
  8
0
  6
AIGENLINE002
 62
     7
 10
115.871
 20
103.117
 30
0.0
 11
115.40899999999991
 21
97.117500000000021
 31
0.0
  0
LINE
  5
175
  8
0
  6
AIGENLINE002
 62
     7
 10
97.533699999999996
 20
97.117500000000021
 30
0.0
 11
97.071299999999994
 21
103.117
 31
0.0
  0
LINE
  5
176
  8
0
  6
AIGENLINE002
 62
     7
 10
118.84699999999999
 20
104.617
 30
0.0
 11
115.871
 21
103.117
 31
0.0
  0
LINE
  5
177
  8
0
  6
AIGENLINE002
 62
     7
 10
94.096299999999985
 20
104.617
 30
0.0
 11
97.071299999999994
 21
103.117
 31
0.0
  0
LINE
  5
178
  8
0
  6
AIGENLINE002
 62
     7
 10
97.071299999999994
 20
103.117
 30
0.0
 11
115.871
 21
103.117
 31
0.0
  0
LINE
  5
179
  8
0
 62
     7
 10
94.096299999999985
 20
104.617
 30
0.0
 11
118.84699999999999
 21
104.617
 31
0.0
  0
LINE
  5
17A
  8
0
 62
     7
 10
139.09700000000001
 20
95.867599999999996
 30
0.0
 11
141.09700000000001
 21
95.867599999999996
 31
0.0
  0
LINE
  5
17B
  8
0
 62
     7
 10
138.34700000000001
 20
97.367599999999996
 30
0.0
 11
141.84700000000001
 21
97.367599999999996
 31
0.0
  0
LINE
  5
17C
  8
0
 62
     7
 10
94.096299999999985
 20
97.117500000000021
 30
0.0
 11
118.84699999999999
 21
97.117500000000021
 31
0.0
  0
LINE
  5
17D
  8
0
 62
     7
 10
118.84699999999999
 20
104.617
 30
0.0
 11
118.84699999999999
 21
97.117500000000021
 31
0.0
  0
LINE
  5
17E
  8
0
  6
AIGENLINE001
 62
     7
 10
92.689800000000005
 20
100.86799999999999
 30
0.0
 11
145.52600000000001
 21
100.86799999999999
 31
0.0
  0
LINE
  5
17F
  8
0
 62
     7
 10
94.096100000000007
 20
104.617
 30
0.0
 11
94.096100000000007
 21
97.117500000000021
 31
0.0
  0
LINE
  5
180
  8
0
  6
AIGENLINE001
 62
     7
 10
106.471
 20
106.5329999999999
 30
0.0
 11
106.471
 21
95.461100000000002
 31
0.0
  0
LINE
  5
181
  8
0
  6
AIGENLINE001
 62
     7
 10
140.09700000000001
 20
94.726900000000001
 30
0.0
 11
140.09700000000001
 21
102.03699999999991
 31
0.0
  0
LINE
  5
182
  8
0
 62
     7
 10
138.59700000000001
 20
97.367599999999996
 30
0.0
 11
138.59700000000001
 21
104.367
 31
0.0
  0
LINE
  5
183
  8
0
 62
     7
 10
118.84699999999999
 20
103.117
 30
0.0
 11
138.59700000000001
 21
103.117
 31
0.0
  0
LINE
  5
184
  8
0
 62
     7
 10
118.84699999999999
 20
98.617199999999997
 30
0.0
 11
138.59700000000001
 21
98.617199999999997
 31
0.0
  0
LINE
  5
185
  8
0
 62
     7
 10
143.971
 20
85.992199999999997
 30
0.0
 11
142.721
 21
85.992199999999997
 31
0.0
  0
LINE
  5
186
  8
0
 62
     7
 10
142.721
 20
115.7429999999999
 30
0.0
 11
143.971
 21
115.7429999999999
 31
0.0
  0
LINE
  5
187
  8
0
 62
     7
 10
143.971
 20
115.7429999999999
 30
0.0
 11
143.971
 21
85.992199999999997
 31
0.0
  0
LINE
  5
188
  8
_________2
 62
     7
 10
205.30099999999999
 20
127.411
 30
0.0
 11
183.55000000000001
 21
127.411
 31
0.0
  0
LINE
  5
189
  8
_________2
 62
     7
 10
100.2999999999999
 20
-4.0910799999999998
 30
0.0
 11
100.2999999999999
 21
-21.071400000000001
 31
0.0
  0
LINE
  5
18A
  8
_________2
 62
     7
 10
100.2999999999999
 20
275.93099999999993
 30
0.0
 11
100.2999999999999
 21
258.911
 31
0.0
  0
LINE
  5
18B
  8
_________2
 62
     7
 10
17.049499999999998
 20
127.411
 30
0.0
 11
-4.70052
 21
127.411
 31
0.0
  0
LINE
  5
18C
  8
_________2
 62
     7
 10
76.741
 20
29.8047
 30
0.0
 11
74.554699999999997
 21
29.8047
 31
0.0
  0
LINE
  5
18D
  8
_________2
 62
     7
 10
77.233699999999999
 20
29.8047
 30
0.0
 11
76.981499999999997
 21
29.8047
 31
0.0
  0
LINE
  5
18E
  8
_________2
 62
     7
 10
77.726299999999995
 20
29.8047
 30
0.0
 11
80.651200000000003
 21
29.8047
 31
0.0
  0
LINE
  5
18F
  8
_________2
 62
     7
 10
77.233699999999999
 20
29.8047
 30
0.0
 11
77.485500000000002
 21
29.8047
 31
0.0
  0
LINE
  5
190
  8
_________2
 62
     7
 10
70.837100000000007
 20
29.8047
 30
0.0
 11
68.650499999999994
 21
29.8047
 31
0.0
  0
LINE
  5
191
  8
_________2
 62
     7
 10
71.329400000000007
 20
29.8047
 30
0.0
 11
71.077600000000004
 21
29.8047
 31
0.0
  0
LINE
  5
192
  8
_________2
 62
     7
 10
71.329400000000007
 20
30.2974
 30
0.0
 11
71.329400000000007
 21
32.484400000000001
 31
0.0
  0
LINE
  5
193
  8
_________2
 62
     7
 10
71.329400000000007
 20
29.8047
 30
0.0
 11
71.329400000000007
 21
30.056899999999992
 31
0.0
  0
LINE
  5
194
  8
_________2
 62
     7
 10
71.822100000000006
 20
29.8047
 30
0.0
 11
74.009
 21
29.8047
 31
0.0
  0
LINE
  5
195
  8
_________2
 62
     7
 10
71.329400000000007
 20
29.8047
 30
0.0
 11
71.581599999999995
 21
29.8047
 31
0.0
  0
LINE
  5
196
  8
_________2
 62
     7
 10
71.329400000000007
 20
29.312799999999999
 30
0.0
 11
71.329400000000007
 21
27.125800000000002
 31
0.0
  0
LINE
  5
197
  8
_________2
 62
     7
 10
71.329400000000007
 20
29.8047
 30
0.0
 11
71.329400000000007
 21
29.5532
 31
0.0
  0
LINE
  5
198
  8
_________2
 62
     7
 10
75.040499999999994
 20
28.5852
 30
0.0
 11
80.218500000000006
 21
27.720400000000001
 31
0.0
  0
LINE
  5
199
  8
_________2
 62
     7
 10
75.040499999999994
 20
31.0243
 30
0.0
 11
80.218500000000006
 21
31.889700000000001
 31
0.0
  0
LINE
  5
19A
  8
_________2
 62
     7
 10
80.218500000000006
 20
27.720400000000001
 30
0.0
 11
80.218500000000006
 21
31.889700000000001
 31
0.0
  0
LINE
  5
19B
  8
_________2
 62
     7
 10
75.040499999999994
 20
28.5852
 30
0.0
 11
75.040499999999994
 21
31.0243
 31
0.0
  0
ARC
  5
19C
  8
_________2
 62
     7
 10
71.28285600000001
 20
29.757811
 30
0.0
 40
1.2673589999999999
 50
2.122214
 51
87.893958999999995
  0
ARC
  5
19D
  8
_________2
 62
     7
 10
71.375959999999992
 20
29.758213000000001
 30
0.0
 40
1.2669559999999991
 50
92.104701000000006
 51
177.8952689999999
  0
ARC
  5
19E
  8
_________2
 62
     7
 10
71.376357999999996
 20
29.851671
 30
0.0
 40
1.2673680000000001
 50
182.12203600000001
 51
267.877993
  0
ARC
  5
19F
  8
_________2
 62
     7
 10
71.282531999999989
 20
29.851998999999989
 30
0.0
 40
1.267695999999999
 50
272.12015300000002
 51
357.863674
  0
ARC
  5
1A0
  8
_________2
 62
     7
 10
71.329430000000002
 20
29.804742999999998
 30
0.0
 40
2.0849849999999992
 50
0.00001
 51
89.999980000000008
  0
ARC
  5
1A1
  8
_________2
 62
     7
 10
71.329603000000006
 20
29.804915000000001
 30
0.0
 40
2.084813
 50
90.004733999999999
 51
180.00474399999999
  0
ARC
  5
1A2
  8
_________2
 62
     7
 10
71.409106000000008
 20
29.884775999999999
 30
0.0
 40
2.1657950000000001
 50
182.11776599999999
 51
267.89173399999999
  0
ARC
  5
1A3
  8
_________2
 62
     7
 10
71.249459000000002
 20
29.885429999999989
 30
0.0
 40
2.1664590000000001
 50
272.11546800000002
 51
357.86560400000002
  0
TEXT
  5
1A4
  8
_________2
 62
     7
 10
104.605
 20
1.6794899999999999
 30
0.0
 40
3.0923400000000001
  1
図番
 41
0.5
  0
LINE
  5
1A5
  8
_________2
 62
     7
 10
103.55
 20
5.9087199999999989
 30
0.0
 11
183.55099999999999
 21
5.9087199999999989
 31
0.0
  0
TEXT
  5
1A6
  8
_________2
 62
     7
 10
104.605
 20
11.679299999999991
 30
0.0
 40
3.0923400000000001
  1
品番
 41
0.5
  0
TEXT
  5
1A7
  8
_________2
 62
     7
 10
104.605
 20
31.818100000000001
 30
0.0
 40
3.0923400000000001
  1
名称
 41
0.5
  0
TEXT
  5
1A8
  8
_________2
 62
     7
 10
91.845058333333341
 20
26.821999999999989
 30
0.0
 40
3.6545800000000002
  1
mm
 41
0.5
 72
     1
 11
93.367800000000003
 21
26.821999999999989
 31
0.0
  0
TEXT
  5
1A9
  8
_________2
 62
     7
 10
85.643199999999993
 20
31.818100000000001
 30
0.0
 40
3.0923400000000001
  1
単位
 41
0.5
  0
TEXT
  5
1AA
  8
_________2
 62
     7
 10
85.643199999999993
 20
19.410799999999991
 30
0.0
 40
3.0923400000000001
  1
尺度
 41
0.5
  0
TEXT
  5
1AB
  8
_________2
 62
     7
 10
90.548758666666686
 20
13.2179
 30
0.0
 40
3.6545800000000002
  1
1 ： 4
 41
0.5
 72
     1
 11
93.959699999999998
 21
13.2179
 31
0.0
  0
TEXT
  5
1AC
  8
_________2
 62
     7
 10
138.13841249999999
 20
9.1078600000000005
 30
0.0
 40
3.9357000000000002
  1
CET420
 41
0.5
 72
     1
 11
143.55000000000001
 21
9.1078600000000005
 31
0.0
  0
TEXT
  5
1AD
  8
_________2
 62
     7
 10
138.13841249999999
 20
-0.8926299999999999
 30
0.0
 40
3.9357000000000002
  1
CET420
 41
0.5
 72
     1
 11
143.55000000000001
 21
-0.8926299999999999
 31
0.0
  0
TEXT
  5
1AE
  8
_________2
 62
     7
 10
109.179
 20
24.2257
 30
0.0
 40
3.9357000000000002
  1
CEL400・CEL410用壁取付金具
 41
0.5
  0
TEXT
  5
1AF
  8
_________2
 62
     7
 10
39.425300333333333
 20
13.603
 30
0.0
 40
3.6545800000000002
  1
福田
 41
0.5
 72
     1
 11
41.313499999999998
 21
13.603
 31
0.0
  0
TEXT
  5
1B0
  8
_________2
 62
     7
 10
20.790090666666661
 20
13.603
 30
0.0
 40
3.6545800000000002
  1
石原
 41
0.5
 72
     1
 11
22.73919999999999
 21
13.603
 31
0.0
  0
TEXT
  5
1B1
  8
_________2
 62
     7
 10
67.785399999999996
 20
13.2179
 30
0.0
 40
3.6545800000000002
  1
04.08.24
 41
0.5
  0
TEXT
  5
1B2
  8
_________2
 62
     7
 10
66.593100000000007
 20
19.410799999999991
 30
0.0
 40
3.0923400000000001
  1
日付
 41
0.5
  0
TEXT
  5
1B3
  8
_________2
 62
     7
 10
29.639399999999998
 20
19.410799999999991
 30
0.0
 40
3.0923400000000001
  1
検図
 41
0.5
  0
TEXT
  5
1B4
  8
_________2
 62
     7
 10
18.021100000000001
 20
5.21143
 30
0.0
 40
3.0923400000000001
  1
備考
 41
0.5
  0
TEXT
  5
1B5
  8
_________2
 62
     7
 10
18.021100000000001
 20
19.410799999999991
 30
0.0
 40
3.0923400000000001
  1
製図
 41
0.5
  0
TEXT
  5
1B6
  8
_________2
 62
     7
 10
23.788465333333338
 20
27.936800000000002
 30
0.0
 40
4.4979399999999989
  1
セラトレーディング株式会社
 41
0.5
 72
     1
 11
41.180500000000002
 21
27.936800000000002
 31
0.0
  0
LINE
  5
1B7
  8
_________2
 62
     7
 10
183.55099999999999
 20
-4.0910799999999998
 30
0.0
 11
17.049499999999998
 21
-4.0910799999999998
 31
0.0
  0
LINE
  5
1B8
  8
_________2
 62
     7
 10
17.049499999999998
 20
-4.0910799999999998
 30
0.0
 11
17.049499999999998
 21
258.911
 31
0.0
  0
LINE
  5
1B9
  8
_________2
 62
     7
 10
17.049499999999998
 20
258.911
 30
0.0
 11
183.55099999999999
 21
258.911
 31
0.0
  0
LINE
  5
1BA
  8
_________2
 62
     7
 10
183.55099999999999
 20
258.911
 30
0.0
 11
183.55099999999999
 21
-4.0910799999999998
 31
0.0
  0
LINE
  5
1BB
  8
_________2
 62
     7
 10
65.549599999999998
 20
9.4089600000000004
 30
0.0
 11
65.549599999999998
 21
35.908799999999999
 31
0.0
  0
LINE
  5
1BC
  8
_________2
 62
     7
 10
84.549700000000016
 20
9.4089600000000004
 30
0.0
 11
84.549700000000016
 21
35.908799999999999
 31
0.0
  0
LINE
  5
1BD
  8
_________2
 62
     7
 10
103.55
 20
-4.0910799999999998
 30
0.0
 11
103.55
 21
35.908799999999999
 31
0.0
  0
LINE
  5
1BE
  8
_________2
 62
     7
 10
28.549299999999992
 20
9.4089600000000004
 30
0.0
 11
28.549299999999992
 21
23.409199999999998
 31
0.0
  0
LINE
  5
1BF
  8
_________2
 62
     7
 10
17.049499999999998
 20
9.4089600000000004
 30
0.0
 11
103.55
 21
9.4089600000000004
 31
0.0
  0
LINE
  5
1C0
  8
_________2
 62
     7
 10
17.049499999999998
 20
23.409199999999998
 30
0.0
 11
103.55
 21
23.409199999999998
 31
0.0
  0
LINE
  5
1C1
  8
_________2
 62
     7
 10
103.55
 20
15.9085
 30
0.0
 11
183.55099999999999
 21
15.9085
 31
0.0
  0
LINE
  5
1C2
  8
_________2
 62
     7
 10
17.049499999999998
 20
35.908799999999999
 30
0.0
 11
183.55099999999999
 21
35.908799999999999
 31
0.0
  0
ENDSEC
  0
EOF
