  0
SECTION
  2
HEADER
  9
$ACADVER
  1
AC1009
  9
$INSBASE
 10
0.0
 20
0.0
 30
0.0
  9
$EXTMIN
 10
-4.70052
 20
-21.070999999999991
 30
0.0
  9
$EXTMAX
 10
205.30099999999999
 20
275.93099999999993
 30
0.0
  9
$LIMMIN
 10
0.0
 20
0.0
  9
$LIMMAX
 10
12.0
 20
9.0
  9
$ORTHOMODE
 70
     0
  9
$REGENMODE
 70
     1
  9
$FILLMODE
 70
     1
  9
$QTEXTMODE
 70
     0
  9
$MIRRTEXT
 70
     1
  9
$DRAGMODE
 70
     2
  9
$LTSCALE
 40
1.0
  9
$OSMODE
 70
    37
  9
$ATTMODE
 70
     1
  9
$TEXTSIZE
 40
0.0
  9
$TRACEWID
 40
0.05
  9
$TEXTSTYLE
  7
STANDARD
  9
$CLAYER
  8
0
  9
$CELTYPE
  6
CONTINUOUS
  9
$CECOLOR
 62
   256
  9
$DIMSCALE
 40
1.0
  9
$DIMASZ
 40
0.18
  9
$DIMEXO
 40
0.0625
  9
$DIMDLI
 40
0.38
  9
$DIMRND
 40
0.0
  9
$DIMDLE
 40
0.0
  9
$DIMEXE
 40
0.18
  9
$DIMTP
 40
0.0
  9
$DIMTM
 40
0.0
  9
$DIMTXT
 40
0.18
  9
$DIMCEN
 40
0.09
  9
$DIMTSZ
 40
0.0
  9
$DIMTOL
 70
     0
  9
$DIMLIM
 70
     0
  9
$DIMTIH
 70
     1
  9
$DIMTOH
 70
     1
  9
$DIMSE1
 70
     0
  9
$DIMSE2
 70
     0
  9
$DIMTAD
 70
     0
  9
$DIMZIN
 70
     0
  9
$DIMBLK
  1

  9
$DIMASO
 70
     1
  9
$DIMSHO
 70
     1
  9
$DIMPOST
  1

  9
$DIMAPOST
  1

  9
$DIMALT
 70
     0
  9
$DIMALTD
 70
     2
  9
$DIMALTF
 40
25.399999999999999
  9
$DIMLFAC
 40
1.0
  9
$DIMTOFL
 70
     0
  9
$DIMTVP
 40
0.0
  9
$DIMTIX
 70
     0
  9
$DIMSOXD
 70
     0
  9
$DIMSAH
 70
     0
  9
$DIMBLK1
  1

  9
$DIMBLK2
  1

  9
$DIMSTYLE
  2
STANDARD
  9
$DIMCLRD
 70
     0
  9
$DIMCLRE
 70
     0
  9
$DIMCLRT
 70
     0
  9
$DIMTFAC
 40
1.0
  9
$DIMGAP
 40
0.09
  9
$LUNITS
 70
     2
  9
$LUPREC
 70
     4
  9
$SKETCHINC
 40
0.1
  9
$FILLETRAD
 40
0.0
  9
$AUNITS
 70
     0
  9
$AUPREC
 70
     0
  9
$MENU
  1
.
  9
$ELEVATION
 40
0.0
  9
$PELEVATION
 40
0.0
  9
$THICKNESS
 40
0.0
  9
$LIMCHECK
 70
     0
  9
$BLIPMODE
 70
     0
  9
$CHAMFERA
 40
0.0
  9
$CHAMFERB
 40
0.0
  9
$SKPOLY
 70
     0
  9
$TDCREATE
 40
2444972.375
  9
$TDUPDATE
 40
2453718.255720485
  9
$TDINDWG
 40
0.0002001736
  9
$TDUSRTIMER
 40
0.0002001736
  9
$USRTIMER
 70
     1
  9
$ANGBASE
 50
0.0
  9
$ANGDIR
 70
     0
  9
$PDMODE
 70
     0
  9
$PDSIZE
 40
0.0
  9
$PLINEWID
 40
0.0
  9
$COORDS
 70
     1
  9
$SPLFRAME
 70
     0
  9
$SPLINETYPE
 70
     6
  9
$SPLINESEGS
 70
     8
  9
$ATTDIA
 70
     0
  9
$ATTREQ
 70
     1
  9
$HANDLING
 70
     1
  9
$HANDSEED
  5
1F3
  9
$SURFTAB1
 70
     6
  9
$SURFTAB2
 70
     6
  9
$SURFTYPE
 70
     6
  9
$SURFU
 70
     6
  9
$SURFV
 70
     6
  9
$UCSNAME
  2

  9
$UCSORG
 10
0.0
 20
0.0
 30
0.0
  9
$UCSXDIR
 10
1.0
 20
0.0
 30
0.0
  9
$UCSYDIR
 10
0.0
 20
1.0
 30
0.0
  9
$PUCSNAME
  2

  9
$PUCSORG
 10
0.0
 20
0.0
 30
0.0
  9
$PUCSXDIR
 10
1.0
 20
0.0
 30
0.0
  9
$PUCSYDIR
 10
0.0
 20
1.0
 30
0.0
  9
$USERI1
 70
     0
  9
$USERI2
 70
     0
  9
$USERI3
 70
     0
  9
$USERI4
 70
     0
  9
$USERI5
 70
     0
  9
$USERR1
 40
0.0
  9
$USERR2
 40
0.0
  9
$USERR3
 40
0.0
  9
$USERR4
 40
0.0
  9
$USERR5
 40
0.0
  9
$WORLDVIEW
 70
     1
  9
$SHADEDGE
 70
     3
  9
$SHADEDIF
 70
    70
  9
$TILEMODE
 70
     1
  9
$MAXACTVP
 70
    48
  9
$PLIMCHECK
 70
     0
  9
$PEXTMIN
 10
1.0000000000000000E+020
 20
1.0000000000000000E+020
 30
1.0000000000000000E+020
  9
$PEXTMAX
 10
-1.0000000000000000E+020
 20
-1.0000000000000000E+020
 30
-1.0000000000000000E+020
  9
$PLIMMIN
 10
0.0
 20
0.0
  9
$PLIMMAX
 10
12.0
 20
9.0
  9
$UNITMODE
 70
     0
  9
$VISRETAIN
 70
     1
  9
$PLINEGEN
 70
     0
  9
$PSLTSCALE
 70
     1
  0
ENDSEC
  0
SECTION
  2
TABLES
  0
TABLE
  2
VPORT
 70
     2
  0
VPORT
  2
*ACTIVE
 70
     0
 10
0.0
 20
0.0
 11
1.0
 21
1.0
 12
203.7254567817271
 22
127.42999999999989
 13
0.0
 23
0.0
 14
1.0
 24
1.0
 15
0.0
 25
0.0
 16
0.0
 26
0.0
 36
1.0
 17
0.0
 27
0.0
 37
0.0
 40
299.15159227985509
 41
2.1842105263157889
 42
50.0
 43
0.0
 44
0.0
 50
0.0
 51
0.0
 71
     0
 72
   100
 73
     1
 74
     1
 75
     0
 76
     0
 77
     0
 78
     0
  0
ENDTAB
  0
TABLE
  2
LTYPE
 70
     2
  0
LTYPE
  2
CONTINUOUS
 70
     0
  3
Solid line
 72
    65
 73
     0
 40
0.0
  0
LTYPE
  2
AIGENLINE001
 70
     0
  3
generate AI->DXF Converter
 72
    65
 73
     4
 40
10.300112
 49
8.0000600000000013
 49
-0.700021
 49
0.9000100000000001
 49
-0.700021
  0
ENDTAB
  0
TABLE
  2
LAYER
 70
     2
  0
LAYER
  2
0
 70
     0
 62
     7
  6
CONTINUOUS
  0
LAYER
  2
_________2
 70
     0
 62
     7
  6
CONTINUOUS
  0
ENDTAB
  0
TABLE
  2
STYLE
 70
     1
  0
STYLE
  2
STANDARD
 70
     0
 40
0.0
 41
0.0
 50
0.0
 71
     0
 42
0.0
  3
TXT
  4
EXTFONT.SHX
  0
ENDTAB
  0
TABLE
  2
VIEW
 70
     0
  0
ENDTAB
  0
TABLE
  2
UCS
 70
     0
  0
ENDTAB
  0
TABLE
  2
APPID
 70
     1
  0
APPID
  2
ACAD
 70
     0
  0
ENDTAB
  0
TABLE
  2
DIMSTYLE
 70
     1
  0
DIMSTYLE
  2
STANDARD
 70
     0
  3

  4

  5

  6

  7

 40
1.0
 41
0.18
 42
0.0625
 43
0.38
 44
0.18
 45
0.0
 46
0.0
 47
0.0
 48
0.0
140
0.18
141
0.09
142
0.0
143
25.399999999999999
144
1.0
145
0.0
146
1.0
147
0.09
 71
     0
 72
     0
 73
     1
 74
     1
 75
     0
 76
     0
 77
     0
 78
     0
170
     0
171
     2
172
     0
173
     0
174
     0
175
     0
176
     0
177
     0
178
     0
  0
ENDTAB
  0
ENDSEC
  0
SECTION
  2
BLOCKS
  0
BLOCK
  8
0
  2
$MODEL_SPACE
 70
     0
 10
0.0
 20
0.0
 30
0.0
  3
$MODEL_SPACE
  1

  0
ENDBLK
  5
1A
  8
0
  0
BLOCK
 67
     1
  8
0
  2
$PAPER_SPACE
 70
     0
 10
0.0
 20
0.0
 30
0.0
  3
$PAPER_SPACE
  1

  0
ENDBLK
  5
17
 67
     1
  8
0
  0
ENDSEC
  0
SECTION
  2
ENTITIES
  0
TEXT
  5
22
  8
0
 62
     7
 10
67.675200000000004
 20
91.223600000000005
 30
0.0
 40
3.0923400000000001
  1
%%c4
 41
0.5
  0
TEXT
  5
23
  8
0
 62
     7
 10
70.948602499999993
 20
143.72799999999989
 30
0.0
 40
3.0923400000000001
  1
%%c10.5
 41
0.5
 72
     1
 11
73.654399999999995
 21
143.72799999999989
 31
0.0
  0
TEXT
  5
24
  8
0
 62
     7
 10
58.71909999999999
 20
155.59499999999991
 30
0.0
 40
3.0923400000000001
  1
%%c44
 41
0.5
  0
TEXT
  5
25
  8
0
 62
     7
 10
103.25999999999991
 20
165.02561
 30
0.0
 40
3.0923400000000001
  1
5
 50
90.0
 41
0.5
 72
     1
 11
103.25999999999991
 21
165.541
 31
0.0
  0
TEXT
  5
26
  8
0
 62
     7
 10
103.25999999999991
 20
176.89237249999999
 30
0.0
 40
3.0923400000000001
  1
20
 50
90.0
 41
0.5
 72
     1
 11
103.25999999999991
 21
178.05199999999999
 31
0.0
  0
TEXT
  5
27
  8
0
 62
     7
 10
103.25999999999991
 20
102.726
 30
0.0
 40
3.0923400000000001
  1
350
 50
90.0
 41
0.5
  0
TEXT
  5
28
  8
0
 62
     7
 10
96.601100000000017
 20
135.70500000000001
 30
0.0
 40
3.0923400000000001
  1
50
 50
90.0
 41
0.5
  0
TEXT
  5
29
  8
0
 62
     7
 10
89.815200000000004
 20
145.0393479999999
 30
0.0
 40
3.0923400000000001
  1
15～35
 50
90.0
 41
0.5
 72
     1
 11
89.815200000000004
 21
148.5439999999999
 31
0.0
  0
TEXT
  5
2A
  8
0
 62
     7
 10
133.0967599999999
 20
207.99199999999999
 30
0.0
 40
3.0923400000000001
  1
カウンター開口寸法
 41
0.5
 72
     1
 11
141.3429999999999
 21
207.99199999999999
 31
0.0
  0
TEXT
  5
2B
  8
0
 62
     7
 10
150.19847482615489
 20
235.75047482615491
 30
0.0
 40
3.0923400000000001
  1
%%c15
 50
45.0
 41
0.5
 72
     1
 11
151.4739999999999
 21
237.02600000000001
 31
0.0
  0
TEXT
  5
2C
  8
0
 62
     7
 10
60.623235000000001
 20
196.34
 30
0.0
 40
3.0923400000000001
  1
%%c16
 41
0.5
 72
     1
 11
62.427100000000003
 21
196.34
 31
0.0
  0
ARC
  5
2D
  8
0
 62
     7
 10
141.93168099999991
 20
225.33108300000001
 30
0.0
 40
7.5002800000000001
 50
269.99936200000002
 51
359.99933199999992
  0
ARC
  5
2E
  8
0
 62
     7
 10
141.93185399999999
 20
225.33073599999989
 30
0.0
 40
7.4999330000000004
 50
179.99799599999989
 51
269.99804599999987
  0
ARC
  5
2F
  8
0
 62
     7
 10
141.93177
 20
225.331166
 30
0.0
 40
7.4998490000000002
 50
90.001315999999989
 51
180.00132600000001
  0
ARC
  5
30
  8
0
 62
     7
 10
141.93176799999989
 20
225.33082200000001
 30
0.0
 40
7.5001939999999996
 50
0.001326
 51
90.001295999999996
  0
LINE
  5
31
  8
0
  6
AIGENLINE001
 62
     7
 10
141.93199999999999
 20
236.91699999999989
 30
0.0
 11
141.93199999999999
 21
214.55000000000001
 31
0.0
  0
LINE
  5
32
  8
0
  6
AIGENLINE001
 62
     7
 10
154.86399999999989
 20
238.262
 30
0.0
 11
133.09100000000001
 21
216.49000000000001
 31
0.0
  0
LINE
  5
33
  8
0
  6
AIGENLINE001
 62
     7
 10
153.536
 20
225.3309999999999
 30
0.0
 11
129.74399999999989
 21
225.3309999999999
 31
0.0
  0
ARC
  5
34
  8
0
 62
     7
 10
61.994967000000003
 20
227.40935200000001
 30
0.0
 40
22.000091999999999
 50
269.999796
 51
359.99976600000002
  0
ARC
  5
35
  8
0
 62
     7
 10
61.994794999999989
 20
227.409345
 30
0.0
 40
22.000084000000001
 50
180.00023399999989
 51
270.00024400000001
  0
ARC
  5
36
  8
0
 62
     7
 10
61.994889000000001
 20
227.40925799999999
 30
0.0
 40
22.000177999999991
 50
90.0
 51
179.99996999999991
  0
ARC
  5
37
  8
0
 62
     7
 10
61.994880999999999
 20
227.40925799999999
 30
0.0
 40
22.000177999999991
 50
0.00001
 51
89.999980000000008
  0
ARC
  5
38
  8
0
 62
     7
 10
61.994883999999992
 20
227.40926400000001
 30
0.0
 40
8.0000800000000005
 50
270.00002000000001
 51
359.99998999999991
  0
ARC
  5
39
  8
0
 62
     7
 10
61.994883999999992
 20
227.4092609999999
 30
0.0
 40
8.0000780000000002
 50
179.99996999999991
 51
270.00002000000001
  0
ARC
  5
3A
  8
0
 62
     7
 10
61.994886999999991
 20
227.4092609999999
 30
0.0
 40
8.0000800000000005
 50
90.0
 51
179.99996999999991
  0
ARC
  5
3B
  8
0
 62
     7
 10
61.994883999999992
 20
227.4092609999999
 30
0.0
 40
8.0000800000000005
 50
0.00001
 51
89.999980000000008
  0
ARC
  5
3C
  8
0
 62
     7
 10
141.92258100000001
 20
167.980379
 30
0.0
 40
19.763871999999989
 50
74.686773000000002
 51
89.973853000000005
  0
ARC
  5
3D
  8
0
 62
     7
 10
144.74257999999989
 20
178.89145500000001
 30
0.0
 40
8.4969669999999997
 50
63.570240000000013
 51
73.596435999999997
  0
ARC
  5
3E
  8
0
 62
     7
 10
146.70312699999991
 20
182.937973
 30
0.0
 40
4.0010059999999994
 50
48.515846000000003
 51
62.919024999999998
  0
ARC
  5
3F
  8
0
 62
     7
 10
148.08196499999991
 20
184.5367929999999
 30
0.0
 40
1.890088999999999
 50
17.329861999999999
 51
47.723471000000004
  0
ARC
  5
40
  8
0
 62
     7
 10
148.527738
 20
184.74625099999989
 30
0.0
 40
1.403767
 50
359.9179509999999
 51
14.58738099999999
  0
ARC
  5
41
  8
0
 62
     7
 10
141.94060200000001
 20
167.9795739999999
 30
0.0
 40
19.764677999999989
 50
90.026095999999995
 51
105.3128929999999
  0
ARC
  5
42
  8
0
 62
     7
 10
139.120408
 20
178.89197499999989
 30
0.0
 40
8.4964429999999993
 50
106.403977
 51
116.430521
  0
ARC
  5
43
  8
0
 62
     7
 10
137.15989699999989
 20
182.938312
 30
0.0
 40
4.000661
 50
117.081974
 51
131.48588699999999
  0
ARC
  5
44
  8
0
 62
     7
 10
135.78099399999991
 20
184.53699199999991
 30
0.0
 40
1.8898060000000001
 50
132.276026
 51
162.67375000000001
  0
ARC
  5
45
  8
0
 62
     7
 10
135.33545100000001
 20
184.746252
 30
0.0
 40
1.403762999999999
 50
165.41257999999991
 51
180.082088
  0
ARC
  5
46
  8
0
 62
     7
 10
61.985874000000003
 20
167.97997599999991
 30
0.0
 40
19.764275000000001
 50
74.686930000000004
 51
89.973868999999993
  0
ARC
  5
47
  8
0
 62
     7
 10
64.805971
 20
178.89171499999989
 30
0.0
 40
8.4967050000000004
 50
63.569848999999998
 51
73.596218999999991
  0
ARC
  5
48
  8
0
 62
     7
 10
66.766499999999994
 20
182.93814299999991
 30
0.0
 40
4.0008339999999993
 50
48.514969999999998
 51
62.918514999999992
  0
ARC
  5
49
  8
0
 62
     7
 10
68.14537
 20
184.53689299999999
 30
0.0
 40
1.889947
 50
17.328046000000001
 51
47.723712999999996
  0
ARC
  5
4A
  8
0
 62
     7
 10
68.590368000000012
 20
184.7461669999999
 30
0.0
 40
1.4044249999999989
 50
359.92140999999998
 51
14.583923
  0
ARC
  5
4B
  8
0
 62
     7
 10
62.003895999999997
 20
167.97997599999991
 30
0.0
 40
19.764275000000001
 50
90.026111999999983
 51
105.3130499999999
  0
ARC
  5
4C
  8
0
 62
     7
 10
59.183799
 20
178.89171499999989
 30
0.0
 40
8.4967050000000004
 50
106.403761
 51
116.4301309999999
  0
ARC
  5
4D
  8
0
 62
     7
 10
57.223269999999992
 20
182.93814299999991
 30
0.0
 40
4.0008339999999993
 50
117.08146499999989
 51
131.48500999999999
  0
ARC
  5
4E
  8
0
 62
     7
 10
55.8444
 20
184.53689299999999
 30
0.0
 40
1.889947
 50
132.2762679999999
 51
162.67193399999999
  0
ARC
  5
4F
  8
0
 62
     7
 10
55.399399000000003
 20
184.7461679999999
 30
0.0
 40
1.404420999999999
 50
165.4160379999999
 51
180.07863
  0
ARC
  5
50
  8
0
 62
     7
 10
68.644478000000007
 20
70.881220999999996
 30
0.0
 40
1.907562
 50
270.00002000000001
 51
359.99998999999991
  0
ARC
  5
51
  8
0
 62
     7
 10
68.644478000000007
 20
70.881219999999999
 30
0.0
 40
1.9075610000000001
 50
179.99996999999991
 51
270.00002000000001
  0
ARC
  5
52
  8
0
 62
     7
 10
68.644479000000004
 20
70.881219999999999
 30
0.0
 40
1.907562
 50
90.0
 51
179.99996999999991
  0
ARC
  5
53
  8
0
 62
     7
 10
68.644478000000007
 20
70.881219999999999
 30
0.0
 40
1.907562
 50
0.00001
 51
89.999980000000008
  0
ARC
  5
54
  8
0
 62
     7
 10
143.21582000000001
 20
80.531199000000001
 30
0.0
 40
0.8239479999999998
 50
29.657213999999989
 51
59.335084000000002
  0
ARC
  5
55
  8
0
 62
     7
 10
142.9399699999999
 20
80.150254000000004
 30
0.0
 40
1.2930250000000001
 50
57.429836999999992
 51
89.694125
  0
ARC
  5
56
  8
0
 62
     7
 10
142.95974499999991
 20
80.222448999999997
 30
0.0
 40
1.2208799999999991
 50
90.604097999999993
 51
147.33651399999999
  0
ARC
  5
57
  8
0
 62
     7
 10
141.215935
 20
80.473185000000015
 30
0.0
 40
0.8241809999999999
 50
29.686436
 51
59.337309999999988
  0
ARC
  5
58
  8
0
 62
     7
 10
140.94026700000001
 20
80.092247
 30
0.0
 40
1.293153
 50
57.438223999999998
 51
89.702460000000016
  0
ARC
  5
59
  8
0
 62
     7
 10
140.959868
 20
80.164951000000002
 30
0.0
 40
1.2205010000000001
 50
90.604918999999995
 51
147.36546100000001
  0
ARC
  5
5A
  8
0
 62
     7
 10
142.64795299999989
 20
81.289059999999978
 30
0.0
 40
0.8239479999999998
 50
209.65723399999999
 51
239.33510299999989
  0
ARC
  5
5B
  8
0
 62
     7
 10
142.92380299999999
 20
81.670004000000006
 30
0.0
 40
1.2930250000000001
 50
237.42985699999991
 51
269.69414499999999
  0
ARC
  5
5C
  8
0
 62
     7
 10
142.90402800000001
 20
81.597808999999984
 30
0.0
 40
1.2208799999999991
 50
270.60411800000003
 51
327.33653399999992
  0
ARC
  5
5D
  8
0
 62
     7
 10
140.65014600000001
 20
83.402178000000006
 30
0.0
 40
0.8275349999999999
 50
209.7535839999999
 51
239.3007969999999
  0
ARC
  5
5E
  8
0
 62
     7
 10
140.92409900000001
 20
83.780552
 30
0.0
 40
1.293439999999999
 50
237.42273999999989
 51
269.6859859999999
  0
ARC
  5
5F
  8
0
 62
     7
 10
140.90412199999989
 20
83.706936999999996
 30
0.0
 40
1.219873999999999
 50
270.60531700000001
 51
327.38159399999989
  0
ARC
  5
60
  8
0
 62
     7
 10
142.64691999999991
 20
83.456673999999992
 30
0.0
 40
0.8231519999999999
 50
209.65688099999991
 51
239.35799700000001
  0
ARC
  5
61
  8
0
 62
     7
 10
142.9231959999999
 20
83.838684999999998
 30
0.0
 40
1.2933479999999991
 50
237.452763
 51
269.70582400000001
  0
ARC
  5
62
  8
0
 62
     7
 10
142.90368499999991
 20
83.766793999999976
 30
0.0
 40
1.221506999999999
 50
270.60374000000002
 51
327.32043299999992
  0
ARC
  5
63
  8
0
 62
     7
 10
141.214932
 20
82.640816000000001
 30
0.0
 40
0.8249419999999998
 50
29.686772999999992
 51
59.315445000000011
  0
ARC
  5
64
  8
0
 62
     7
 10
140.93964
 20
82.260886999999997
 30
0.0
 40
1.292872
 50
57.415407999999999
 51
89.689875999999998
  0
ARC
  5
65
  8
0
 62
     7
 10
140.9595229999999
 20
82.333306999999991
 30
0.0
 40
1.2205010000000001
 50
90.604918999999995
 51
147.36546100000001
  0
ARC
  5
66
  8
0
 62
     7
 10
63.278770999999999
 20
80.531103000000002
 30
0.0
 40
0.824139
 50
29.657267000000001
 51
59.325646999999996
  0
ARC
  5
67
  8
0
 62
     7
 10
63.003219000000001
 20
80.150537999999997
 30
0.0
 40
1.292740999999999
 50
57.426214999999999
 51
89.699933999999985
  0
ARC
  5
68
  8
0
 62
     7
 10
63.022860999999992
 20
80.222448999999997
 30
0.0
 40
1.2208799999999991
 50
90.604097999999993
 51
147.33651399999999
  0
ARC
  5
69
  8
0
 62
     7
 10
61.279217000000003
 20
80.473280000000003
 30
0.0
 40
0.8239889999999999
 50
29.686382999999999
 51
59.346747999999991
  0
ARC
  5
6A
  8
0
 62
     7
 10
61.003250999999999
 20
80.091964000000004
 30
0.0
 40
1.293437999999999
 50
57.441845999999998
 51
89.696652999999998
  0
ARC
  5
6B
  8
0
 62
     7
 10
61.022983999999987
 20
80.164951000000002
 30
0.0
 40
1.2205010000000001
 50
90.604918999999995
 51
147.36546100000001
  0
ARC
  5
6C
  8
0
 62
     7
 10
62.711234999999988
 20
81.289155000000008
 30
0.0
 40
0.824139
 50
209.657286
 51
239.3256669999999
  0
ARC
  5
6D
  8
0
 62
     7
 10
62.986785999999988
 20
81.669720999999996
 30
0.0
 40
1.292740999999999
 50
237.42623499999999
 51
269.69995299999988
  0
ARC
  5
6E
  8
0
 62
     7
 10
62.96714399999999
 20
81.597808999999984
 30
0.0
 40
1.2208799999999991
 50
270.60411800000003
 51
327.33653399999992
  0
ARC
  5
6F
  8
0
 62
     7
 10
60.711492999999997
 20
83.399959999999993
 30
0.0
 40
0.82475
 50
209.6867399999999
 51
239.32490300000001
  0
ARC
  5
70
  8
0
 62
     7
 10
60.987083999999989
 20
83.780269000000004
 30
0.0
 40
1.293156999999999
 50
237.41905199999991
 51
269.68408499999998
  0
ARC
  5
71
  8
0
 62
     7
 10
60.967067999999998
 20
83.707564000000005
 30
0.0
 40
1.2205010000000001
 50
270.604938
 51
327.36548099999999
  0
ARC
  5
72
  8
0
 62
     7
 10
62.710374000000002
 20
83.456770000000006
 30
0.0
 40
0.8233430000000001
 50
209.65693300000001
 51
239.34856099999999
  0
ARC
  5
73
  8
0
 62
     7
 10
62.986351999999997
 20
83.838401999999988
 30
0.0
 40
1.293064
 50
237.44914199999999
 51
269.71162900000002
  0
ARC
  5
74
  8
0
 62
     7
 10
62.966971999999998
 20
83.766165999999998
 30
0.0
 40
1.2208799999999991
 50
270.60411800000003
 51
327.33653399999992
  0
ARC
  5
75
  8
0
 62
     7
 10
61.278387000000002
 20
82.640910999999988
 30
0.0
 40
0.82475
 50
29.68671999999999
 51
59.324883999999997
  0
ARC
  5
76
  8
0
 62
     7
 10
61.002795999999996
 20
82.260603000000003
 30
0.0
 40
1.293156999999999
 50
57.419031999999987
 51
89.684065000000018
  0
ARC
  5
77
  8
0
 62
     7
 10
61.022812000000002
 20
82.333306999999991
 30
0.0
 40
1.2205010000000001
 50
90.604918999999995
 51
147.36546100000001
  0
LINE
  5
78
  8
0
 62
     7
 10
53.659799999999997
 20
89.748700000000014
 30
0.0
 11
73.348299999999995
 21
89.748700000000014
 31
0.0
  0
LINE
  5
79
  8
0
 62
     7
 10
84.049800000000005
 20
154.197
 30
0.0
 11
40.040500000000002
 21
154.197
 31
0.0
  0
LINE
  5
7A
  8
0
 62
     7
 10
104.1819999999999
 20
44.007599999999996
 30
0.0
 11
104.605
 21
46.407499999999992
 31
0.0
  0
LINE
  5
7B
  8
0
 62
     7
 10
104.605
 20
46.407499999999992
 30
0.0
 11
103.759
 21
46.407499999999992
 31
0.0
  0
LINE
  5
7C
  8
0
 62
     7
 10
103.759
 20
46.407499999999992
 30
0.0
 11
104.1819999999999
 21
44.007599999999996
 31
0.0
  0
LINE
  5
7D
  8
0
 62
     7
 10
104.1819999999999
 20
162.74399999999989
 30
0.0
 11
103.759
 21
160.34399999999991
 31
0.0
  0
LINE
  5
7E
  8
0
 62
     7
 10
103.759
 20
160.34399999999991
 30
0.0
 11
104.605
 21
160.34399999999991
 31
0.0
  0
LINE
  5
7F
  8
0
 62
     7
 10
104.605
 20
160.34399999999991
 30
0.0
 11
104.1819999999999
 21
162.74399999999989
 31
0.0
  0
LINE
  5
80
  8
0
 62
     7
 10
59.994999999999997
 20
89.739099999999993
 30
0.0
 11
57.594999999999999
 21
90.162499999999994
 31
0.0
  0
LINE
  5
81
  8
0
 62
     7
 10
57.594999999999999
 20
90.162499999999994
 30
0.0
 11
57.594999999999999
 21
89.316000000000017
 31
0.0
  0
LINE
  5
82
  8
0
 62
     7
 10
57.594999999999999
 20
89.316000000000017
 30
0.0
 11
59.994999999999997
 21
89.739099999999993
 31
0.0
  0
LINE
  5
83
  8
0
 62
     7
 10
63.994900000000001
 20
89.739099999999993
 30
0.0
 11
66.394999999999996
 21
89.316000000000017
 31
0.0
  0
LINE
  5
84
  8
0
 62
     7
 10
66.394999999999996
 20
89.316000000000017
 30
0.0
 11
66.394999999999996
 21
90.162499999999994
 31
0.0
  0
LINE
  5
85
  8
0
 62
     7
 10
66.394999999999996
 20
90.162499999999994
 30
0.0
 11
63.994900000000001
 21
89.739099999999993
 31
0.0
  0
LINE
  5
86
  8
0
 62
     7
 10
105.2359999999999
 20
44.007899999999992
 30
0.0
 11
65.070700000000002
 21
44.007899999999992
 31
0.0
  0
LINE
  5
87
  8
0
 62
     7
 10
67.343599999999995
 20
112.7439999999999
 30
0.0
 11
98.247000000000014
 21
112.7439999999999
 31
0.0
  0
LINE
  5
88
  8
0
 62
     7
 10
65.775899999999993
 20
187.744
 30
0.0
 11
105.117
 21
187.744
 31
0.0
  0
LINE
  5
89
  8
0
 62
     7
 10
104.1819999999999
 20
43.921100000000003
 30
0.0
 11
104.1819999999999
 21
187.59099999999989
 31
0.0
  0
LINE
  5
8A
  8
0
 62
     7
 10
104.1819999999999
 20
187.744
 30
0.0
 11
103.759
 21
185.34399999999999
 31
0.0
  0
LINE
  5
8B
  8
0
 62
     7
 10
103.759
 20
185.34399999999999
 30
0.0
 11
104.605
 21
185.34399999999999
 31
0.0
  0
LINE
  5
8C
  8
0
 62
     7
 10
104.605
 20
185.34399999999999
 30
0.0
 11
104.1819999999999
 21
187.744
 31
0.0
  0
LINE
  5
8D
  8
0
 62
     7
 10
104.1819999999999
 20
167.744
 30
0.0
 11
104.605
 21
170.14400000000001
 31
0.0
  0
LINE
  5
8E
  8
0
 62
     7
 10
104.605
 20
170.14400000000001
 30
0.0
 11
103.759
 21
170.14400000000001
 31
0.0
  0
LINE
  5
8F
  8
0
 62
     7
 10
103.759
 20
170.14400000000001
 30
0.0
 11
104.1819999999999
 21
167.744
 31
0.0
  0
LINE
  5
90
  8
0
 62
     7
 10
97.561099999999996
 20
162.72
 30
0.0
 11
97.561099999999996
 21
112.71299999999989
 31
0.0
  0
LINE
  5
91
  8
0
 62
     7
 10
97.561099999999996
 20
112.7439999999999
 30
0.0
 11
97.984300000000005
 21
115.14400000000001
 31
0.0
  0
LINE
  5
92
  8
0
 62
     7
 10
97.984300000000005
 20
115.14400000000001
 30
0.0
 11
97.137799999999984
 21
115.14400000000001
 31
0.0
  0
LINE
  5
93
  8
0
 62
     7
 10
97.137799999999984
 20
115.14400000000001
 30
0.0
 11
97.561099999999996
 21
112.7439999999999
 31
0.0
  0
LINE
  5
94
  8
0
 62
     7
 10
97.561099999999996
 20
162.74399999999989
 30
0.0
 11
97.137799999999984
 21
160.34399999999991
 31
0.0
  0
LINE
  5
95
  8
0
 62
     7
 10
97.137799999999984
 20
160.34399999999991
 30
0.0
 11
97.984300000000005
 21
160.34399999999991
 31
0.0
  0
LINE
  5
96
  8
0
 62
     7
 10
97.984300000000005
 20
160.34399999999991
 30
0.0
 11
97.561099999999996
 21
162.74399999999989
 31
0.0
  0
LINE
  5
97
  8
0
 62
     7
 10
74.411799999999999
 20
167.744
 30
0.0
 11
104.925
 21
167.744
 31
0.0
  0
LINE
  5
98
  8
0
 62
     7
 10
90.940200000000004
 20
162.63199999999989
 30
0.0
 11
90.940200000000004
 21
136.52600000000001
 31
0.0
  0
LINE
  5
99
  8
0
 62
     7
 10
90.940200000000004
 20
136.46100000000001
 30
0.0
 11
91.363299999999995
 21
138.8609999999999
 31
0.0
  0
LINE
  5
9A
  8
0
 62
     7
 10
91.363299999999995
 20
138.8609999999999
 30
0.0
 11
90.517000000000024
 21
138.8609999999999
 31
0.0
  0
LINE
  5
9B
  8
0
 62
     7
 10
90.517000000000024
 20
138.8609999999999
 30
0.0
 11
90.940200000000004
 21
136.46100000000001
 31
0.0
  0
LINE
  5
9C
  8
0
 62
     7
 10
90.940200000000004
 20
162.74399999999989
 30
0.0
 11
90.517000000000024
 21
160.34399999999991
 31
0.0
  0
LINE
  5
9D
  8
0
 62
     7
 10
90.517000000000024
 20
160.34399999999991
 30
0.0
 11
91.363299999999995
 21
160.34399999999991
 31
0.0
  0
LINE
  5
9E
  8
0
 62
     7
 10
91.363299999999995
 20
160.34399999999991
 30
0.0
 11
90.940200000000004
 21
162.74399999999989
 31
0.0
  0
LINE
  5
9F
  8
0
 62
     7
 10
104.8189999999999
 20
162.74399999999989
 30
0.0
 11
84.250299999999996
 21
162.74399999999989
 31
0.0
  0
LINE
  5
A0
  8
0
 62
     7
 10
91.587399999999988
 20
136.46100000000001
 30
0.0
 11
84.880099999999999
 21
136.46100000000001
 31
0.0
  0
LINE
  5
A1
  8
0
 62
     7
 10
78.758099999999999
 20
142.2579999999999
 30
0.0
 11
56.797600000000003
 21
142.2579999999999
 31
0.0
  0
LINE
  5
A2
  8
0
 62
     7
 10
56.744900000000001
 20
142.2579999999999
 30
0.0
 11
59.1449
 21
141.834
 31
0.0
  0
LINE
  5
A3
  8
0
 62
     7
 10
59.1449
 20
141.834
 30
0.0
 11
59.1449
 21
142.68100000000001
 31
0.0
  0
LINE
  5
A4
  8
0
 62
     7
 10
59.1449
 20
142.68100000000001
 30
0.0
 11
56.744900000000001
 21
142.2579999999999
 31
0.0
  0
LINE
  5
A5
  8
0
 62
     7
 10
67.245099999999994
 20
142.2579999999999
 30
0.0
 11
64.844999999999999
 21
142.68100000000001
 31
0.0
  0
LINE
  5
A6
  8
0
 62
     7
 10
64.844999999999999
 20
142.68100000000001
 30
0.0
 11
64.844999999999999
 21
141.834
 31
0.0
  0
LINE
  5
A7
  8
0
 62
     7
 10
64.844999999999999
 20
141.834
 30
0.0
 11
67.245099999999994
 21
142.2579999999999
 31
0.0
  0
LINE
  5
A8
  8
0
 62
     7
 10
39.994900000000001
 20
154.197
 30
0.0
 11
42.394899999999993
 21
153.774
 31
0.0
  0
LINE
  5
A9
  8
0
 62
     7
 10
42.394899999999993
 20
153.774
 30
0.0
 11
42.394899999999993
 21
154.61999999999989
 31
0.0
  0
LINE
  5
AA
  8
0
 62
     7
 10
42.394899999999993
 20
154.61999999999989
 30
0.0
 11
39.994900000000001
 21
154.197
 31
0.0
  0
LINE
  5
AB
  8
0
 62
     7
 10
83.995099999999994
 20
154.197
 30
0.0
 11
81.595200000000006
 21
154.61999999999989
 31
0.0
  0
LINE
  5
AC
  8
0
 62
     7
 10
81.595200000000006
 20
154.61999999999989
 30
0.0
 11
81.595200000000006
 21
153.774
 31
0.0
  0
LINE
  5
AD
  8
0
 62
     7
 10
81.595200000000006
 20
153.774
 30
0.0
 11
83.995099999999994
 21
154.197
 31
0.0
  0
LINE
  5
AE
  8
0
 62
     7
 10
39.994900000000001
 20
162.24000000000001
 30
0.0
 11
39.994900000000001
 21
153.489
 31
0.0
  0
LINE
  5
AF
  8
0
 62
     7
 10
83.995099999999994
 20
162.24000000000001
 30
0.0
 11
83.995099999999994
 21
153.489
 31
0.0
  0
LINE
  5
B0
  8
0
 62
     7
 10
56.744999999999997
 20
113.607
 30
0.0
 11
67.245099999999994
 21
113.607
 31
0.0
  0
LINE
  5
B1
  8
0
 62
     7
 10
136.68199999999999
 20
113.607
 30
0.0
 11
147.18199999999999
 21
113.607
 31
0.0
  0
LINE
  5
B2
  8
0
 62
     7
 10
143.91800000000001
 20
70.881200000000007
 30
0.0
 11
142.92500000000001
 21
72.601399999999984
 31
0.0
  0
LINE
  5
B3
  8
0
 62
     7
 10
142.92500000000001
 20
72.601399999999984
 30
0.0
 11
140.9379999999999
 21
72.601399999999984
 31
0.0
  0
LINE
  5
B4
  8
0
 62
     7
 10
140.9379999999999
 20
72.601399999999984
 30
0.0
 11
139.94499999999991
 21
70.881200000000007
 31
0.0
  0
LINE
  5
B5
  8
0
 62
     7
 10
139.94499999999991
 20
70.881200000000007
 30
0.0
 11
140.9379999999999
 21
69.160700000000006
 31
0.0
  0
LINE
  5
B6
  8
0
 62
     7
 10
140.9379999999999
 20
69.160700000000006
 30
0.0
 11
142.92500000000001
 21
69.160700000000006
 31
0.0
  0
LINE
  5
B7
  8
0
 62
     7
 10
142.92500000000001
 20
69.160700000000006
 30
0.0
 11
143.91800000000001
 21
70.881200000000007
 31
0.0
  0
ARC
  5
B8
  8
0
 62
     7
 10
141.93176799999989
 20
70.881047999999993
 30
0.0
 40
2.4999500000000001
 50
0.003958
 51
90.003928000000016
  0
ARC
  5
B9
  8
0
 62
     7
 10
141.93159700000001
 20
70.881219999999999
 30
0.0
 40
2.4997780000000001
 50
90.0
 51
179.99996999999991
  0
ARC
  5
BA
  8
0
 62
     7
 10
141.93176799999989
 20
70.881047999999993
 30
0.0
 40
2.4999489999999991
 50
179.99602200000001
 51
269.99607200000003
  0
ARC
  5
BB
  8
0
 62
     7
 10
141.9315959999999
 20
70.881220999999996
 30
0.0
 40
2.5001220000000002
 50
270.00002000000001
 51
359.99998999999991
  0
LINE
  5
BC
  8
0
 62
     7
 10
142.93199999999999
 20
118.961
 30
0.0
 11
140.93199999999999
 21
118.961
 31
0.0
  0
LINE
  5
BD
  8
0
 62
     7
 10
140.93199999999999
 20
130.96100000000001
 30
0.0
 11
140.93199999999999
 21
118.961
 31
0.0
  0
LINE
  5
BE
  8
0
 62
     7
 10
142.93199999999999
 20
130.96100000000001
 30
0.0
 11
142.93199999999999
 21
118.961
 31
0.0
  0
ARC
  5
BF
  8
0
 62
     7
 10
79.947151000000005
 20
123.4694479999999
 30
0.0
 40
4.079750999999999
 50
347.57379199999991
 51
352.83672100000001
  0
ARC
  5
C0
  8
0
 62
     7
 10
77.145061999999996
 20
123.981432
 30
0.0
 40
6.9271339999999988
 50
331.538858
 51
348.42550299999988
  0
ARC
  5
C1
  8
0
 62
     7
 10
79.735726
 20
122.6482399999999
 30
0.0
 40
4.0147149999999989
 50
309.50976400000002
 51
330.64612999999991
  0
ARC
  5
C2
  8
0
 62
     7
 10
80.565923999999995
 20
121.77267999999999
 30
0.0
 40
2.812263999999999
 50
269.36555499999992
 51
307.80890099999988
  0
ARC
  5
C3
  8
0
 62
     7
 10
80.541856000000024
 20
128.71579299999999
 30
0.0
 40
9.7552079999999997
 50
261.50670200000002
 51
269.95847099999992
  0
ARC
  5
C4
  8
0
 62
     7
 10
81.413922999999997
 20
135.53514699999999
 30
0.0
 40
16.629203
 50
254.80540199999999
 51
262.00518
  0
ARC
  5
C5
  8
0
 62
     7
 10
83.429172999999992
 20
143.32526599999991
 30
0.0
 40
24.675371999999999
 50
235.618797
 51
255.03058399999989
  0
LINE
  5
C6
  8
0
 62
     7
 10
83.995099999999994
 20
130.96100000000001
 30
0.0
 11
83.995099999999994
 21
122.961
 31
0.0
  0
ARC
  5
C7
  8
0
 62
     7
 10
44.084901000000002
 20
123.47671799999991
 30
0.0
 40
4.1224400000000001
 50
187.1905669999999
 51
192.39895999999999
  0
ARC
  5
C8
  8
0
 62
     7
 10
46.844881000000001
 20
123.981432
 30
0.0
 40
6.9271339999999988
 50
191.5745169999999
 51
208.461162
  0
ARC
  5
C9
  8
0
 62
     7
 10
44.254216999999997
 20
122.6482399999999
 30
0.0
 40
4.0147149999999989
 50
209.35388900000001
 51
230.49025599999999
  0
ARC
  5
CA
  8
0
 62
     7
 10
43.424017999999997
 20
121.77267999999999
 30
0.0
 40
2.812263999999999
 50
232.1911189999999
 51
270.63446499999992
  0
ARC
  5
CB
  8
0
 62
     7
 10
43.448089000000003
 20
128.716555
 30
0.0
 40
9.7559699999999996
 50
270.04152999999991
 51
278.49298599999992
  0
ARC
  5
CC
  8
0
 62
     7
 10
42.576062
 20
135.5354529999999
 30
0.0
 40
16.629507999999991
 50
277.99475099999989
 51
285.19446899999991
  0
ARC
  5
CD
  8
0
 62
     7
 10
40.560929999999992
 20
143.32476699999989
 30
0.0
 40
24.674869999999999
 50
284.9695549999999
 51
304.38156800000002
  0
LINE
  5
CE
  8
0
 62
     7
 10
39.994900000000001
 20
130.96100000000001
 30
0.0
 11
39.994900000000001
 21
122.961
 31
0.0
  0
LINE
  5
CF
  8
0
  6
AIGENLINE001
 62
     7
 10
145.304
 20
70.881200000000007
 30
0.0
 11
138.52299999999991
 21
70.881200000000007
 31
0.0
  0
LINE
  5
D0
  8
0
  6
AIGENLINE001
 62
     7
 10
141.93199999999999
 20
41.904299999999999
 30
0.0
 11
141.93199999999999
 21
189.85499999999999
 31
0.0
  0
LINE
  5
D1
  8
0
 62
     7
 10
139.93199999999999
 20
44.007899999999992
 30
0.0
 11
143.93199999999999
 21
44.007899999999992
 31
0.0
  0
LINE
  5
D2
  8
0
 62
     7
 10
143.93199999999999
 20
69.381200000000007
 30
0.0
 11
143.93199999999999
 21
44.007899999999992
 31
0.0
  0
LINE
  5
D3
  8
0
 62
     7
 10
143.93199999999999
 20
112.7439999999999
 30
0.0
 11
143.93199999999999
 21
83.107299999999995
 31
0.0
  0
LINE
  5
D4
  8
0
 62
     7
 10
143.93199999999999
 20
80.938900000000004
 30
0.0
 11
143.93199999999999
 21
72.381200000000007
 31
0.0
  0
LINE
  5
D5
  8
0
 62
     7
 10
139.93199999999999
 20
69.381200000000007
 30
0.0
 11
139.93199999999999
 21
44.007899999999992
 31
0.0
  0
LINE
  5
D6
  8
0
 62
     7
 10
139.93199999999999
 20
112.7439999999999
 30
0.0
 11
139.93199999999999
 21
82.991500000000002
 31
0.0
  0
LINE
  5
D7
  8
0
 62
     7
 10
139.93199999999999
 20
80.823099999999997
 30
0.0
 11
139.93199999999999
 21
72.381200000000007
 31
0.0
  0
LINE
  5
D8
  8
0
 62
     7
 10
134.43199999999999
 20
130.96100000000001
 30
0.0
 11
134.43199999999999
 21
122.961
 31
0.0
  0
LINE
  5
D9
  8
0
 62
     7
 10
134.43199999999999
 20
122.961
 30
0.0
 11
140.93199999999999
 21
122.961
 31
0.0
  0
LINE
  5
DA
  8
0
 62
     7
 10
149.43199999999999
 20
130.96100000000001
 30
0.0
 11
149.43199999999999
 21
122.961
 31
0.0
  0
LINE
  5
DB
  8
0
 62
     7
 10
149.43199999999999
 20
122.961
 30
0.0
 11
142.93199999999999
 21
122.961
 31
0.0
  0
LINE
  5
DC
  8
0
 62
     7
 10
136.68199999999999
 20
113.607
 30
0.0
 11
136.68199999999999
 21
122.961
 31
0.0
  0
LINE
  5
DD
  8
0
 62
     7
 10
147.18199999999999
 20
113.607
 30
0.0
 11
147.18199999999999
 21
122.961
 31
0.0
  0
LINE
  5
DE
  8
0
 62
     7
 10
147.18199999999999
 20
113.607
 30
0.0
 11
146.3189999999999
 21
112.7439999999999
 31
0.0
  0
LINE
  5
DF
  8
0
 62
     7
 10
137.5449999999999
 20
112.7439999999999
 30
0.0
 11
136.68199999999999
 21
113.607
 31
0.0
  0
LINE
  5
E0
  8
0
 62
     7
 10
137.5449999999999
 20
112.7439999999999
 30
0.0
 11
137.5449999999999
 21
122.961
 31
0.0
  0
LINE
  5
E1
  8
0
 62
     7
 10
146.3189999999999
 20
112.7439999999999
 30
0.0
 11
146.3189999999999
 21
122.95999999999999
 31
0.0
  0
LINE
  5
E2
  8
0
 62
     7
 10
141.93199999999999
 20
112.7439999999999
 30
0.0
 11
146.3189999999999
 21
112.7439999999999
 31
0.0
  0
LINE
  5
E3
  8
0
 62
     7
 10
141.93199999999999
 20
112.7439999999999
 30
0.0
 11
137.5449999999999
 21
112.7439999999999
 31
0.0
  0
LINE
  5
E4
  8
0
 62
     7
 10
121.9319999999999
 20
134.46100000000001
 30
0.0
 11
121.9319999999999
 21
132.96100000000001
 31
0.0
  0
LINE
  5
E5
  8
0
 62
     7
 10
161.93199999999999
 20
134.46100000000001
 30
0.0
 11
161.93199999999999
 21
132.96100000000001
 31
0.0
  0
LINE
  5
E6
  8
0
 62
     7
 10
119.931
 20
134.46100000000001
 30
0.0
 11
119.931
 21
136.46100000000001
 31
0.0
  0
LINE
  5
E7
  8
0
 62
     7
 10
119.931
 20
130.96100000000001
 30
0.0
 11
119.931
 21
132.96100000000001
 31
0.0
  0
LINE
  5
E8
  8
0
 62
     7
 10
163.93199999999999
 20
134.46100000000001
 30
0.0
 11
163.93199999999999
 21
136.46100000000001
 31
0.0
  0
LINE
  5
E9
  8
0
 62
     7
 10
163.93199999999999
 20
130.96100000000001
 30
0.0
 11
163.93199999999999
 21
132.96100000000001
 31
0.0
  0
LINE
  5
EA
  8
0
 62
     7
 10
163.93199999999999
 20
130.96100000000001
 30
0.0
 11
141.93199999999999
 21
130.96100000000001
 31
0.0
  0
LINE
  5
EB
  8
0
 62
     7
 10
141.93199999999999
 20
130.96100000000001
 30
0.0
 11
119.931
 21
130.96100000000001
 31
0.0
  0
LINE
  5
EC
  8
0
 62
     7
 10
163.93199999999999
 20
132.96100000000001
 30
0.0
 11
141.93199999999999
 21
132.96100000000001
 31
0.0
  0
LINE
  5
ED
  8
0
 62
     7
 10
141.93199999999999
 20
132.96100000000001
 30
0.0
 11
119.931
 21
132.96100000000001
 31
0.0
  0
LINE
  5
EE
  8
0
 62
     7
 10
163.93199999999999
 20
134.46100000000001
 30
0.0
 11
141.93199999999999
 21
134.46100000000001
 31
0.0
  0
LINE
  5
EF
  8
0
 62
     7
 10
141.93199999999999
 20
134.46100000000001
 30
0.0
 11
119.931
 21
134.46100000000001
 31
0.0
  0
LINE
  5
F0
  8
0
 62
     7
 10
163.93199999999999
 20
136.46100000000001
 30
0.0
 11
141.93199999999999
 21
136.46100000000001
 31
0.0
  0
LINE
  5
F1
  8
0
 62
     7
 10
141.93199999999999
 20
136.46100000000001
 30
0.0
 11
119.931
 21
136.46100000000001
 31
0.0
  0
LINE
  5
F2
  8
0
 62
     7
 10
147.18199999999999
 20
148.60699999999991
 30
0.0
 11
146.3189999999999
 21
147.744
 31
0.0
  0
LINE
  5
F3
  8
0
 62
     7
 10
137.5449999999999
 20
147.744
 30
0.0
 11
136.68199999999999
 21
148.60699999999991
 31
0.0
  0
LINE
  5
F4
  8
0
 62
     7
 10
137.5449999999999
 20
147.744
 30
0.0
 11
137.5449999999999
 21
136.46100000000001
 31
0.0
  0
LINE
  5
F5
  8
0
 62
     7
 10
146.3189999999999
 20
147.744
 30
0.0
 11
146.3189999999999
 21
136.46100000000001
 31
0.0
  0
LINE
  5
F6
  8
0
 62
     7
 10
141.93199999999999
 20
147.744
 30
0.0
 11
147.18199999999999
 21
147.744
 31
0.0
  0
LINE
  5
F7
  8
0
 62
     7
 10
147.18199999999999
 20
161.744
 30
0.0
 11
147.18199999999999
 21
136.46100000000001
 31
0.0
  0
LINE
  5
F8
  8
0
 62
     7
 10
149.93199999999999
 20
183.744
 30
0.0
 11
145.68199999999999
 21
167.744
 31
0.0
  0
LINE
  5
F9
  8
0
 62
     7
 10
149.93199999999999
 20
183.744
 30
0.0
 11
149.93199999999999
 21
184.744
 31
0.0
  0
LINE
  5
FA
  8
0
 62
     7
 10
149.93199999999999
 20
183.744
 30
0.0
 11
141.93199999999999
 21
183.744
 31
0.0
  0
LINE
  5
FB
  8
0
 62
     7
 10
149.93199999999999
 20
184.744
 30
0.0
 11
141.93199999999999
 21
184.744
 31
0.0
  0
LINE
  5
FC
  8
0
 62
     7
 10
159.93199999999999
 20
162.74399999999989
 30
0.0
 11
159.93199999999999
 21
162.54699999999991
 31
0.0
  0
LINE
  5
FD
  8
0
 62
     7
 10
141.93199999999999
 20
161.744
 30
0.0
 11
159.12899999999991
 21
161.744
 31
0.0
  0
ARC
  5
FE
  8
0
 62
     7
 10
159.128761
 20
162.54735099999991
 30
0.0
 40
0.8032289999999999
 50
269.98773299999999
 51
359.9877029999999
  0
LINE
  5
FF
  8
0
 62
     7
 10
163.30199999999999
 20
162.74399999999989
 30
0.0
 11
163.93199999999999
 21
163.74399999999989
 31
0.0
  0
ARC
  5
100
  8
0
 62
     7
 10
160.42549600000001
 20
163.74691200000001
 30
0.0
 40
3.5062760000000002
 50
359.95261799999997
 51
13.080257
  0
ARC
  5
101
  8
0
 62
     7
 10
161.72482099999991
 20
163.9850679999999
 30
0.0
 40
2.1876449999999998
 50
14.706395000000001
 51
66.006489999999999
  0
ARC
  5
102
  8
0
 62
     7
 10
161.15154799999999
 20
162.875775
 30
0.0
 40
3.434966999999999
 50
64.794387
 51
75.300382999999997
  0
ARC
  5
103
  8
0
 62
     7
 10
158.14629600000001
 20
149.82166699999991
 30
0.0
 40
16.829281999999999
 50
76.681421
 51
79.309342999999998
  0
ARC
  5
104
  8
0
 62
     7
 10
150.153648
 20
109.822503
 30
0.0
 40
57.618504000000001
 50
78.877943999999999
 51
82.812786999999986
  0
ARC
  5
105
  8
0
 62
     7
 10
145.678481
 20
77.062404000000001
 30
0.0
 40
90.681732999999994
 50
82.597119999999975
 51
89.998015000000024
  0
LINE
  5
106
  8
0
 62
     7
 10
145.68199999999999
 20
167.744
 30
0.0
 11
141.93199999999999
 21
167.744
 31
0.0
  0
LINE
  5
107
  8
0
 62
     7
 10
141.93199999999999
 20
162.74399999999989
 30
0.0
 11
163.30199999999999
 21
162.74399999999989
 31
0.0
  0
LINE
  5
108
  8
0
 62
     7
 10
141.93199999999999
 20
163.74399999999989
 30
0.0
 11
163.38699999999989
 21
163.74399999999989
 31
0.0
  0
LINE
  5
109
  8
0
 62
     7
 10
141.93199999999999
 20
165.744
 30
0.0
 11
161.27299999999991
 21
165.744
 31
0.0
  0
LINE
  5
10A
  8
0
 62
     7
 10
141.93199999999999
 20
167.744
 30
0.0
 11
145.18199999999999
 21
167.744
 31
0.0
  0
LINE
  5
10B
  8
0
 62
     7
 10
141.93199999999999
 20
147.744
 30
0.0
 11
136.68199999999999
 21
147.744
 31
0.0
  0
LINE
  5
10C
  8
0
 62
     7
 10
136.68199999999999
 20
161.744
 30
0.0
 11
136.68199999999999
 21
136.46100000000001
 31
0.0
  0
LINE
  5
10D
  8
0
 62
     7
 10
133.93199999999999
 20
183.744
 30
0.0
 11
138.18199999999999
 21
167.744
 31
0.0
  0
LINE
  5
10E
  8
0
 62
     7
 10
133.93199999999999
 20
183.744
 30
0.0
 11
133.93199999999999
 21
184.744
 31
0.0
  0
LINE
  5
10F
  8
0
 62
     7
 10
133.93199999999999
 20
183.744
 30
0.0
 11
141.93199999999999
 21
183.744
 31
0.0
  0
LINE
  5
110
  8
0
 62
     7
 10
133.93199999999999
 20
184.744
 30
0.0
 11
141.93199999999999
 21
184.744
 31
0.0
  0
LINE
  5
111
  8
0
 62
     7
 10
123.9319999999999
 20
162.74399999999989
 30
0.0
 11
123.9319999999999
 21
162.54699999999991
 31
0.0
  0
LINE
  5
112
  8
0
 62
     7
 10
141.93199999999999
 20
161.744
 30
0.0
 11
124.7349999999999
 21
161.744
 31
0.0
  0
ARC
  5
113
  8
0
 62
     7
 10
124.7656429999999
 20
162.5778719999999
 30
0.0
 40
0.8343149999999999
 50
182.10834
 51
267.89168899999999
  0
LINE
  5
114
  8
0
 62
     7
 10
120.562
 20
162.74399999999989
 30
0.0
 11
119.931
 21
163.74399999999989
 31
0.0
  0
ARC
  5
115
  8
0
 62
     7
 10
123.434425
 20
163.746916
 30
0.0
 40
3.5030039999999998
 50
166.90736899999999
 51
180.04752400000001
  0
ARC
  5
116
  8
0
 62
     7
 10
122.1387919999999
 20
163.984632
 30
0.0
 40
2.1880790000000001
 50
113.990908
 51
165.28475299999999
  0
ARC
  5
117
  8
0
 62
     7
 10
122.7122279999999
 20
162.87504300000001
 30
0.0
 40
3.435735999999999
 50
104.700356
 51
115.2041649999999
  0
ARC
  5
118
  8
0
 62
     7
 10
126.62111299999999
 20
145.662003
 30
0.0
 40
21.085435999999991
 50
100.678442
 51
103.104758
  0
ARC
  5
119
  8
0
 62
     7
 10
133.96275800000001
 20
108.27699699999989
 30
0.0
 40
59.184111999999999
 50
97.109262000000015
 51
100.95645500000001
  0
ARC
  5
11A
  8
0
 62
     7
 10
138.2043469999999
 20
76.743549000000002
 30
0.0
 40
91.000591000000014
 50
90.014320999999995
 51
97.302136000000004
  0
LINE
  5
11B
  8
0
 62
     7
 10
138.18199999999999
 20
167.744
 30
0.0
 11
141.93199999999999
 21
167.744
 31
0.0
  0
LINE
  5
11C
  8
0
 62
     7
 10
141.93199999999999
 20
162.74399999999989
 30
0.0
 11
120.562
 21
162.74399999999989
 31
0.0
  0
LINE
  5
11D
  8
0
 62
     7
 10
141.93199999999999
 20
163.74399999999989
 30
0.0
 11
120.476
 21
163.74399999999989
 31
0.0
  0
LINE
  5
11E
  8
0
 62
     7
 10
141.93199999999999
 20
165.744
 30
0.0
 11
122.59099999999999
 21
165.744
 31
0.0
  0
LINE
  5
11F
  8
0
 62
     7
 10
141.93199999999999
 20
167.744
 30
0.0
 11
138.68199999999999
 21
167.744
 31
0.0
  0
LINE
  5
120
  8
0
  6
AIGENLINE001
 62
     7
 10
52.273999999999987
 20
70.881200000000007
 30
0.0
 11
72.093599999999995
 21
70.881200000000007
 31
0.0
  0
LINE
  5
121
  8
0
 62
     7
 10
54.063499999999991
 20
194.745
 30
0.0
 11
70.026799999999994
 21
194.745
 31
0.0
  0
LINE
  5
122
  8
0
 62
     7
 10
136.62899999999999
 20
220.02799999999991
 30
0.0
 11
134.63200000000001
 21
218.63
 31
0.0
  0
LINE
  5
123
  8
0
 62
     7
 10
134.63200000000001
 20
218.63
 30
0.0
 11
135.23099999999991
 21
218.03099999999989
 31
0.0
  0
LINE
  5
124
  8
0
 62
     7
 10
135.23099999999991
 20
218.03099999999989
 30
0.0
 11
136.62899999999999
 21
220.02799999999991
 31
0.0
  0
LINE
  5
125
  8
0
 62
     7
 10
147.23500000000001
 20
230.63399999999999
 30
0.0
 11
149.23099999999991
 21
232.03200000000001
 31
0.0
  0
LINE
  5
126
  8
0
 62
     7
 10
149.23099999999991
 20
232.03200000000001
 30
0.0
 11
148.6329999999999
 21
232.63099999999989
 31
0.0
  0
LINE
  5
127
  8
0
 62
     7
 10
148.6329999999999
 20
232.63099999999989
 30
0.0
 11
147.23500000000001
 21
230.63399999999999
 31
0.0
  0
LINE
  5
128
  8
0
 62
     7
 10
69.995000000000005
 20
194.745
 30
0.0
 11
67.594899999999996
 21
195.16799999999989
 31
0.0
  0
LINE
  5
129
  8
0
 62
     7
 10
67.594899999999996
 20
195.16799999999989
 30
0.0
 11
67.594899999999996
 21
194.321
 31
0.0
  0
LINE
  5
12A
  8
0
 62
     7
 10
67.594899999999996
 20
194.321
 30
0.0
 11
69.995000000000005
 21
194.745
 31
0.0
  0
LINE
  5
12B
  8
0
 62
     7
 10
53.99499999999999
 20
194.745
 30
0.0
 11
56.395000000000003
 21
194.321
 31
0.0
  0
LINE
  5
12C
  8
0
 62
     7
 10
56.395000000000003
 20
194.321
 30
0.0
 11
56.395000000000003
 21
195.16799999999989
 31
0.0
  0
LINE
  5
12D
  8
0
 62
     7
 10
56.395000000000003
 20
195.16799999999989
 30
0.0
 11
53.99499999999999
 21
194.745
 31
0.0
  0
LINE
  5
12E
  8
0
 62
     7
 10
69.995000000000005
 20
195.34099999999989
 30
0.0
 11
69.995000000000005
 21
186.434
 31
0.0
  0
LINE
  5
12F
  8
0
 62
     7
 10
53.99499999999999
 20
195.34099999999989
 30
0.0
 11
53.99499999999999
 21
186.434
 31
0.0
  0
LINE
  5
130
  8
0
  6
AIGENLINE001
 62
     7
 10
61.994900000000001
 20
253.32299999999989
 30
0.0
 11
61.994900000000001
 21
201.4959999999999
 31
0.0
  0
LINE
  5
131
  8
0
  6
AIGENLINE001
 62
     7
 10
87.908400000000015
 20
227.40899999999999
 30
0.0
 11
36.081600000000002
 21
227.40899999999999
 31
0.0
  0
LINE
  5
132
  8
0
  6
AIGENLINE001
 62
     7
 10
61.994900000000001
 20
41.905000000000001
 30
0.0
 11
61.994900000000001
 21
153.01299999999989
 31
0.0
  0
LINE
  5
133
  8
0
  6
AIGENLINE001
 62
     7
 10
61.994900000000001
 20
159.33000000000001
 30
0.0
 11
61.994900000000001
 21
189.85499999999999
 31
0.0
  0
LINE
  5
134
  8
0
 62
     7
 10
63.994799999999998
 20
44.007899999999992
 30
0.0
 11
59.994999999999997
 21
44.007899999999992
 31
0.0
  0
LINE
  5
135
  8
0
 62
     7
 10
59.994999999999997
 20
68.381100000000004
 30
0.0
 11
59.994999999999997
 21
44.007899999999992
 31
0.0
  0
LINE
  5
136
  8
0
 62
     7
 10
63.994900000000001
 20
68.381100000000004
 30
0.0
 11
63.994900000000001
 21
44.007899999999992
 31
0.0
  0
LINE
  5
137
  8
0
 62
     7
 10
57.723999999999997
 20
69.946200000000005
 30
0.0
 11
55.572200000000002
 21
69.946200000000005
 31
0.0
  0
LINE
  5
138
  8
0
 62
     7
 10
57.723999999999997
 20
71.816199999999995
 30
0.0
 11
55.572200000000002
 21
71.816199999999995
 31
0.0
  0
LINE
  5
139
  8
0
 62
     7
 10
57.723999999999997
 20
71.432100000000005
 30
0.0
 11
55.572200000000002
 21
71.432100000000005
 31
0.0
  0
LINE
  5
13A
  8
0
 62
     7
 10
57.7241
 20
70.388900000000007
 30
0.0
 11
55.572200000000002
 21
70.388900000000007
 31
0.0
  0
LINE
  5
13B
  8
0
 62
     7
 10
53.866999999999997
 20
69.888000000000005
 30
0.0
 11
55.572200000000002
 21
69.888000000000005
 31
0.0
  0
LINE
  5
13C
  8
0
 62
     7
 10
55.572200000000002
 20
71.874799999999993
 30
0.0
 11
53.866999999999997
 21
71.874799999999993
 31
0.0
  0
LINE
  5
13D
  8
0
 62
     7
 10
53.866999999999997
 20
72.867699999999999
 30
0.0
 11
53.866999999999997
 21
68.894800000000004
 31
0.0
  0
LINE
  5
13E
  8
0
 62
     7
 10
55.572200000000002
 20
72.867699999999999
 30
0.0
 11
55.572200000000002
 21
68.894800000000004
 31
0.0
  0
LINE
  5
13F
  8
0
 62
     7
 10
55.572200000000002
 20
72.867699999999999
 30
0.0
 11
53.866999999999997
 21
72.867699999999999
 31
0.0
  0
LINE
  5
140
  8
0
 62
     7
 10
55.572200000000002
 20
68.894800000000004
 30
0.0
 11
53.866999999999997
 21
68.894800000000004
 31
0.0
  0
LINE
  5
141
  8
0
 62
     7
 10
71.022800000000004
 20
68.381100000000004
 30
0.0
 11
66.266000000000005
 21
68.381100000000004
 31
0.0
  0
LINE
  5
142
  8
0
 62
     7
 10
71.022800000000004
 20
73.381299999999996
 30
0.0
 11
66.266000000000005
 21
73.381299999999996
 31
0.0
  0
LINE
  5
143
  8
0
 62
     7
 10
71.022800000000004
 20
73.381299999999996
 30
0.0
 11
71.022800000000004
 21
68.381100000000004
 31
0.0
  0
LINE
  5
144
  8
0
 62
     7
 10
57.723999999999997
 20
73.381
 30
0.0
 11
57.723999999999997
 21
68.381100000000004
 31
0.0
  0
LINE
  5
145
  8
0
 62
     7
 10
66.266000000000005
 20
73.381299999999996
 30
0.0
 11
66.266000000000005
 21
68.381100000000004
 31
0.0
  0
ARC
  5
146
  8
0
 62
     7
 10
61.151297
 20
66.989261999999997
 30
0.0
 40
1.809486999999999
 50
121.253862
 51
129.71890999999999
  0
ARC
  5
147
  8
0
 62
     7
 10
61.961973999999991
 20
65.689729
 30
0.0
 40
3.3410859999999998
 50
65.136541000000008
 51
121.576115
  0
ARC
  5
148
  8
0
 62
     7
 10
61.509382999999993
 20
64.539524999999983
 30
0.0
 40
4.575556999999999
 50
57.096429000000001
 51
66.050318999999988
  0
LINE
  5
149
  8
0
 62
     7
 10
63.994900000000001
 20
68.381100000000004
 30
0.0
 11
66.266000000000005
 21
68.381100000000004
 31
0.0
  0
LINE
  5
14A
  8
0
 62
     7
 10
57.723999999999997
 20
68.381100000000004
 30
0.0
 11
59.994999999999997
 21
68.381100000000004
 31
0.0
  0
LINE
  5
14B
  8
0
 62
     7
 10
63.994900000000001
 20
73.381299999999996
 30
0.0
 11
66.266000000000005
 21
73.381299999999996
 31
0.0
  0
LINE
  5
14C
  8
0
 62
     7
 10
57.723999999999997
 20
73.381
 30
0.0
 11
59.994999999999997
 21
73.381
 31
0.0
  0
ARC
  5
14D
  8
0
 62
     7
 10
61.151001000000001
 20
74.772474000000003
 30
0.0
 40
1.8090209999999991
 50
230.28098700000001
 51
238.748121
  0
ARC
  5
14E
  8
0
 62
     7
 10
61.961715000000012
 20
76.072091999999984
 30
0.0
 40
3.3407100000000001
 50
238.42515399999999
 51
294.87135000000001
  0
ARC
  5
14F
  8
0
 62
     7
 10
61.509021999999987
 20
77.222525000000005
 30
0.0
 40
4.5754250000000001
 50
293.95536900000002
 51
302.91003299999988
  0
LINE
  5
150
  8
0
 62
     7
 10
59.994999999999997
 20
112.7439999999999
 30
0.0
 11
59.994999999999997
 21
82.991500000000002
 31
0.0
  0
LINE
  5
151
  8
0
 62
     7
 10
59.995199999999997
 20
80.823099999999997
 30
0.0
 11
59.994999999999997
 21
73.381
 31
0.0
  0
LINE
  5
152
  8
0
 62
     7
 10
63.994900000000001
 20
112.7439999999999
 30
0.0
 11
63.994900000000001
 21
83.107299999999995
 31
0.0
  0
LINE
  5
153
  8
0
 62
     7
 10
63.994900000000001
 20
80.938900000000004
 30
0.0
 11
63.994900000000001
 21
73.381299999999996
 31
0.0
  0
LINE
  5
154
  8
0
 62
     7
 10
69.495099999999994
 20
130.96100000000001
 30
0.0
 11
69.495099999999994
 21
122.961
 31
0.0
  0
LINE
  5
155
  8
0
 62
     7
 10
69.495099999999994
 20
122.961
 30
0.0
 11
61.994900000000001
 21
122.961
 31
0.0
  0
LINE
  5
156
  8
0
 62
     7
 10
54.494900000000001
 20
130.96100000000001
 30
0.0
 11
54.494900000000001
 21
122.961
 31
0.0
  0
LINE
  5
157
  8
0
 62
     7
 10
54.494900000000001
 20
122.961
 30
0.0
 11
61.994900000000001
 21
122.961
 31
0.0
  0
LINE
  5
158
  8
0
 62
     7
 10
67.245099999999994
 20
113.607
 30
0.0
 11
67.245099999999994
 21
122.961
 31
0.0
  0
LINE
  5
159
  8
0
 62
     7
 10
56.744999999999997
 20
113.607
 30
0.0
 11
56.744999999999997
 21
122.961
 31
0.0
  0
LINE
  5
15A
  8
0
 62
     7
 10
56.744999999999997
 20
113.607
 30
0.0
 11
57.607999999999997
 21
112.7439999999999
 31
0.0
  0
LINE
  5
15B
  8
0
 62
     7
 10
66.382099999999994
 20
112.7439999999999
 30
0.0
 11
67.245099999999994
 21
113.607
 31
0.0
  0
LINE
  5
15C
  8
0
 62
     7
 10
66.382099999999994
 20
112.7439999999999
 30
0.0
 11
66.382099999999994
 21
122.961
 31
0.0
  0
LINE
  5
15D
  8
0
 62
     7
 10
57.607999999999997
 20
112.7439999999999
 30
0.0
 11
57.607999999999997
 21
122.95999999999999
 31
0.0
  0
LINE
  5
15E
  8
0
 62
     7
 10
61.994900000000001
 20
112.7439999999999
 30
0.0
 11
57.607999999999997
 21
112.7439999999999
 31
0.0
  0
LINE
  5
15F
  8
0
 62
     7
 10
61.994900000000001
 20
112.7439999999999
 30
0.0
 11
66.382099999999994
 21
112.7439999999999
 31
0.0
  0
LINE
  5
160
  8
0
 62
     7
 10
81.995199999999997
 20
134.46100000000001
 30
0.0
 11
81.995199999999997
 21
132.96100000000001
 31
0.0
  0
LINE
  5
161
  8
0
 62
     7
 10
41.994799999999998
 20
134.46100000000001
 30
0.0
 11
41.994799999999998
 21
132.96100000000001
 31
0.0
  0
LINE
  5
162
  8
0
 62
     7
 10
83.995099999999994
 20
134.46100000000001
 30
0.0
 11
83.995099999999994
 21
136.46100000000001
 31
0.0
  0
LINE
  5
163
  8
0
 62
     7
 10
83.995099999999994
 20
130.96100000000001
 30
0.0
 11
83.995099999999994
 21
132.96100000000001
 31
0.0
  0
LINE
  5
164
  8
0
 62
     7
 10
39.994900000000001
 20
134.46100000000001
 30
0.0
 11
39.994900000000001
 21
136.46100000000001
 31
0.0
  0
LINE
  5
165
  8
0
 62
     7
 10
39.994900000000001
 20
130.96100000000001
 30
0.0
 11
39.994900000000001
 21
132.96100000000001
 31
0.0
  0
LINE
  5
166
  8
0
 62
     7
 10
39.994900000000001
 20
130.96100000000001
 30
0.0
 11
61.994900000000001
 21
130.96100000000001
 31
0.0
  0
LINE
  5
167
  8
0
 62
     7
 10
61.994900000000001
 20
130.96100000000001
 30
0.0
 11
83.995099999999994
 21
130.96100000000001
 31
0.0
  0
LINE
  5
168
  8
0
 62
     7
 10
39.994900000000001
 20
132.96100000000001
 30
0.0
 11
61.994900000000001
 21
132.96100000000001
 31
0.0
  0
LINE
  5
169
  8
0
 62
     7
 10
61.994900000000001
 20
132.96100000000001
 30
0.0
 11
83.995099999999994
 21
132.96100000000001
 31
0.0
  0
LINE
  5
16A
  8
0
 62
     7
 10
39.994900000000001
 20
134.46100000000001
 30
0.0
 11
61.994900000000001
 21
134.46100000000001
 31
0.0
  0
LINE
  5
16B
  8
0
 62
     7
 10
61.994900000000001
 20
134.46100000000001
 30
0.0
 11
83.995099999999994
 21
134.46100000000001
 31
0.0
  0
LINE
  5
16C
  8
0
 62
     7
 10
39.994900000000001
 20
136.46100000000001
 30
0.0
 11
61.994900000000001
 21
136.46100000000001
 31
0.0
  0
LINE
  5
16D
  8
0
 62
     7
 10
61.994900000000001
 20
136.46100000000001
 30
0.0
 11
83.995099999999994
 21
136.46100000000001
 31
0.0
  0
LINE
  5
16E
  8
0
 62
     7
 10
56.744999999999997
 20
148.60699999999991
 30
0.0
 11
57.607999999999997
 21
147.744
 31
0.0
  0
LINE
  5
16F
  8
0
 62
     7
 10
66.382099999999994
 20
147.744
 30
0.0
 11
67.245099999999994
 21
148.60699999999991
 31
0.0
  0
LINE
  5
170
  8
0
 62
     7
 10
66.382099999999994
 20
147.744
 30
0.0
 11
66.382099999999994
 21
136.46100000000001
 31
0.0
  0
LINE
  5
171
  8
0
 62
     7
 10
57.607999999999997
 20
147.744
 30
0.0
 11
57.607999999999997
 21
136.46100000000001
 31
0.0
  0
LINE
  5
172
  8
0
 62
     7
 10
61.994900000000001
 20
147.744
 30
0.0
 11
56.744900000000001
 21
147.744
 31
0.0
  0
LINE
  5
173
  8
0
 62
     7
 10
56.744900000000001
 20
161.744
 30
0.0
 11
56.744900000000001
 21
136.46100000000001
 31
0.0
  0
LINE
  5
174
  8
0
 62
     7
 10
53.99499999999999
 20
183.744
 30
0.0
 11
58.244900000000001
 21
167.744
 31
0.0
  0
LINE
  5
175
  8
0
 62
     7
 10
53.99499999999999
 20
183.744
 30
0.0
 11
53.99499999999999
 21
184.744
 31
0.0
  0
LINE
  5
176
  8
0
 62
     7
 10
53.99499999999999
 20
183.744
 30
0.0
 11
61.994900000000001
 21
183.744
 31
0.0
  0
LINE
  5
177
  8
0
 62
     7
 10
53.99499999999999
 20
184.744
 30
0.0
 11
61.994900000000001
 21
184.744
 31
0.0
  0
LINE
  5
178
  8
0
 62
     7
 10
43.994799999999991
 20
162.74399999999989
 30
0.0
 11
43.994799999999991
 21
162.54699999999991
 31
0.0
  0
LINE
  5
179
  8
0
 62
     7
 10
61.994900000000001
 20
161.744
 30
0.0
 11
44.797899999999998
 21
161.744
 31
0.0
  0
ARC
  5
17A
  8
0
 62
     7
 10
44.828586999999999
 20
162.5778719999999
 30
0.0
 40
0.8343149999999999
 50
182.10834
 51
267.89168899999999
  0
LINE
  5
17B
  8
0
 62
     7
 10
40.624499999999998
 20
162.74399999999989
 30
0.0
 11
39.994900000000001
 21
163.74399999999989
 31
0.0
  0
ARC
  5
17C
  8
0
 62
     7
 10
43.511153999999998
 20
163.74572399999991
 30
0.0
 40
3.5162709999999988
 50
166.93768899999989
 51
180.02790799999991
  0
ARC
  5
17D
  8
0
 62
     7
 10
42.201728000000003
 20
163.9850999999999
 30
0.0
 40
2.1875259999999992
 50
113.988499
 51
165.29361299999999
  0
ARC
  5
17E
  8
0
 62
     7
 10
42.775424000000001
 20
162.8750039999999
 30
0.0
 40
3.4357500000000001
 50
104.6987
 51
115.203143
  0
ARC
  5
17F
  8
0
 62
     7
 10
46.683582000000001
 20
145.66555099999999
 30
0.0
 40
21.081794999999989
 50
100.67799699999991
 51
103.104776
  0
ARC
  5
180
  8
0
 62
     7
 10
54.027003999999998
 20
108.270444
 30
0.0
 40
59.190724000000003
 50
97.109329000000017
 51
100.9561439999999
  0
ARC
  5
181
  8
0
 62
     7
 10
58.267705999999997
 20
76.743546999999992
 30
0.0
 40
91.000593000000009
 50
90.014364999999998
 51
97.302136000000004
  0
LINE
  5
182
  8
0
 62
     7
 10
58.244900000000001
 20
167.744
 30
0.0
 11
61.994900000000001
 21
167.744
 31
0.0
  0
LINE
  5
183
  8
0
 62
     7
 10
61.994900000000001
 20
162.74399999999989
 30
0.0
 11
40.624499999999998
 21
162.74399999999989
 31
0.0
  0
LINE
  5
184
  8
0
 62
     7
 10
61.994900000000001
 20
163.74399999999989
 30
0.0
 11
40.539200000000001
 21
163.74399999999989
 31
0.0
  0
LINE
  5
185
  8
0
 62
     7
 10
61.994900000000001
 20
165.744
 30
0.0
 11
42.653999999999989
 21
165.744
 31
0.0
  0
LINE
  5
186
  8
0
 62
     7
 10
61.994900000000001
 20
167.744
 30
0.0
 11
58.744900000000001
 21
167.744
 31
0.0
  0
LINE
  5
187
  8
0
 62
     7
 10
61.994900000000001
 20
147.744
 30
0.0
 11
67.245099999999994
 21
147.744
 31
0.0
  0
LINE
  5
188
  8
0
 62
     7
 10
67.245099999999994
 20
161.744
 30
0.0
 11
67.245099999999994
 21
136.46100000000001
 31
0.0
  0
LINE
  5
189
  8
0
 62
     7
 10
69.995000000000005
 20
183.744
 30
0.0
 11
65.745099999999994
 21
167.744
 31
0.0
  0
LINE
  5
18A
  8
0
 62
     7
 10
69.995000000000005
 20
183.744
 30
0.0
 11
69.995000000000005
 21
184.744
 31
0.0
  0
LINE
  5
18B
  8
0
 62
     7
 10
69.995000000000005
 20
183.744
 30
0.0
 11
61.994900000000001
 21
183.744
 31
0.0
  0
LINE
  5
18C
  8
0
 62
     7
 10
69.995000000000005
 20
184.744
 30
0.0
 11
61.994900000000001
 21
184.744
 31
0.0
  0
LINE
  5
18D
  8
0
 62
     7
 10
79.995099999999994
 20
162.74399999999989
 30
0.0
 11
79.995099999999994
 21
162.54699999999991
 31
0.0
  0
LINE
  5
18E
  8
0
 62
     7
 10
61.995100000000001
 20
161.744
 30
0.0
 11
79.191999999999993
 21
161.744
 31
0.0
  0
ARC
  5
18F
  8
0
 62
     7
 10
79.192048999999997
 20
162.54717799999989
 30
0.0
 40
0.803057
 50
270.00002000000001
 51
359.99998999999991
  0
LINE
  5
190
  8
0
 62
     7
 10
83.365499999999997
 20
162.74399999999989
 30
0.0
 11
83.995099999999994
 21
163.74399999999989
 31
0.0
  0
ARC
  5
191
  8
0
 62
     7
 10
80.478778000000005
 20
163.74572199999989
 30
0.0
 40
3.516281999999999
 50
359.97213199999999
 51
13.062272
  0
ARC
  5
192
  8
0
 62
     7
 10
81.788213999999996
 20
163.9850999999999
 30
0.0
 40
2.1875259999999992
 50
14.706367
 51
66.011481000000003
  0
ARC
  5
193
  8
0
 62
     7
 10
81.214693000000011
 20
162.87548499999991
 30
0.0
 40
3.4352399999999998
 50
64.79605500000001
 51
75.302060999999995
  0
ARC
  5
194
  8
0
 62
     7
 10
78.208526000000006
 20
149.8179189999999
 30
0.0
 40
16.833134000000001
 50
76.681425000000004
 51
79.308673999999996
  0
ARC
  5
195
  8
0
 62
     7
 10
70.217395999999994
 20
109.82727
 30
0.0
 40
57.613709
 50
78.877623999999983
 51
82.812709999999996
  0
ARC
  5
196
  8
0
 62
     7
 10
65.742086
 20
77.068292
 30
0.0
 40
90.675845999999993
 50
82.596879000000015
 51
89.998106000000007
  0
LINE
  5
197
  8
0
 62
     7
 10
65.745099999999994
 20
167.744
 30
0.0
 11
61.994900000000001
 21
167.744
 31
0.0
  0
LINE
  5
198
  8
0
 62
     7
 10
61.994900000000001
 20
162.74399999999989
 30
0.0
 11
83.365499999999997
 21
162.74399999999989
 31
0.0
  0
LINE
  5
199
  8
0
 62
     7
 10
61.994900000000001
 20
163.74399999999989
 30
0.0
 11
83.450699999999983
 21
163.74399999999989
 31
0.0
  0
LINE
  5
19A
  8
0
 62
     7
 10
61.994900000000001
 20
165.744
 30
0.0
 11
81.335899999999995
 21
165.744
 31
0.0
  0
LINE
  5
19B
  8
0
 62
     7
 10
61.994900000000001
 20
167.744
 30
0.0
 11
65.245000000000005
 21
167.744
 31
0.0
  0
LINE
  5
19C
  8
_________2
 62
     7
 10
205.30099999999999
 20
127.411
 30
0.0
 11
183.55000000000001
 21
127.411
 31
0.0
  0
LINE
  5
19D
  8
_________2
 62
     7
 10
100.2999999999999
 20
-4.0907299999999998
 30
0.0
 11
100.2999999999999
 21
-21.070999999999991
 31
0.0
  0
LINE
  5
19E
  8
_________2
 62
     7
 10
100.2999999999999
 20
275.93099999999993
 30
0.0
 11
100.2999999999999
 21
258.911
 31
0.0
  0
LINE
  5
19F
  8
_________2
 62
     7
 10
17.049499999999998
 20
127.411
 30
0.0
 11
-4.70052
 21
127.411
 31
0.0
  0
LINE
  5
1A0
  8
_________2
 62
     7
 10
76.741200000000006
 20
28.740500000000001
 30
0.0
 11
74.554699999999997
 21
28.740500000000001
 31
0.0
  0
LINE
  5
1A1
  8
_________2
 62
     7
 10
77.233800000000002
 20
28.740500000000001
 30
0.0
 11
76.981700000000004
 21
28.740500000000001
 31
0.0
  0
LINE
  5
1A2
  8
_________2
 62
     7
 10
77.726299999999995
 20
28.740500000000001
 30
0.0
 11
80.651399999999995
 21
28.740500000000001
 31
0.0
  0
LINE
  5
1A3
  8
_________2
 62
     7
 10
77.233800000000002
 20
28.740500000000001
 30
0.0
 11
77.485699999999994
 21
28.740500000000001
 31
0.0
  0
LINE
  5
1A4
  8
_________2
 62
     7
 10
70.837299999999999
 20
28.740500000000001
 30
0.0
 11
68.650499999999994
 21
28.740500000000001
 31
0.0
  0
LINE
  5
1A5
  8
_________2
 62
     7
 10
71.329800000000006
 20
28.740500000000001
 30
0.0
 11
71.077799999999996
 21
28.740500000000001
 31
0.0
  0
LINE
  5
1A6
  8
_________2
 62
     7
 10
71.329800000000006
 20
29.232900000000001
 30
0.0
 11
71.329800000000006
 21
31.419799999999999
 31
0.0
  0
LINE
  5
1A7
  8
_________2
 62
     7
 10
71.329800000000006
 20
28.740500000000001
 30
0.0
 11
71.329800000000006
 21
28.992699999999989
 31
0.0
  0
LINE
  5
1A8
  8
_________2
 62
     7
 10
71.822400000000002
 20
28.740500000000001
 30
0.0
 11
74.009
 21
28.740500000000001
 31
0.0
  0
LINE
  5
1A9
  8
_________2
 62
     7
 10
71.329800000000006
 20
28.740500000000001
 30
0.0
 11
71.581999999999994
 21
28.740500000000001
 31
0.0
  0
LINE
  5
1AA
  8
_________2
 62
     7
 10
71.329800000000006
 20
28.248200000000001
 30
0.0
 11
71.329800000000006
 21
26.061299999999999
 31
0.0
  0
LINE
  5
1AB
  8
_________2
 62
     7
 10
71.329800000000006
 20
28.740500000000001
 30
0.0
 11
71.329800000000006
 21
28.488700000000001
 31
0.0
  0
LINE
  5
1AC
  8
_________2
 62
     7
 10
75.040899999999993
 20
27.521000000000001
 30
0.0
 11
80.218500000000006
 21
26.655899999999988
 31
0.0
  0
LINE
  5
1AD
  8
_________2
 62
     7
 10
75.040899999999993
 20
29.960100000000001
 30
0.0
 11
80.218500000000006
 21
30.825199999999999
 31
0.0
  0
LINE
  5
1AE
  8
_________2
 62
     7
 10
80.218500000000006
 20
26.655899999999988
 30
0.0
 11
80.218500000000006
 21
30.825199999999999
 31
0.0
  0
LINE
  5
1AF
  8
_________2
 62
     7
 10
75.040899999999993
 20
27.521000000000001
 30
0.0
 11
75.040899999999993
 21
29.960100000000001
 31
0.0
  0
ARC
  5
1B0
  8
_________2
 62
     7
 10
71.329860999999994
 20
28.740459999999992
 30
0.0
 40
1.219657999999999
 50
0.004056
 51
90.004025999999996
  0
ARC
  5
1B1
  8
_________2
 62
     7
 10
71.329689000000002
 20
28.740459999999992
 30
0.0
 40
1.219657999999999
 50
89.995953999999998
 51
179.99592399999989
  0
ARC
  5
1B2
  8
_________2
 62
     7
 10
71.329689000000002
 20
28.740632000000002
 30
0.0
 40
1.2196569999999991
 50
180.00405599999999
 51
270.00406600000002
  0
ARC
  5
1B3
  8
_________2
 62
     7
 10
71.329860999999994
 20
28.740632999999999
 30
0.0
 40
1.219657999999999
 50
269.99597399999999
 51
359.99594400000001
  0
ARC
  5
1B4
  8
_________2
 62
     7
 10
71.329774999999984
 20
28.740545999999998
 30
0.0
 40
2.0846409999999991
 50
0.00001
 51
89.999980000000008
  0
ARC
  5
1B5
  8
_________2
 62
     7
 10
71.329689000000002
 20
28.740459999999992
 30
0.0
 40
2.0847269999999991
 50
89.997632999999993
 51
179.997603
  0
ARC
  5
1B6
  8
_________2
 62
     7
 10
71.409621999999999
 20
28.820571999999999
 30
0.0
 40
2.1661389999999989
 50
182.11724599999999
 51
267.88751799999989
  0
ARC
  5
1B7
  8
_________2
 62
     7
 10
71.249769999999998
 20
28.820550999999998
 30
0.0
 40
2.1661229999999989
 50
272.11667999999992
 51
357.88332999999989
  0
TEXT
  5
1B8
  8
_________2
 62
     7
 10
32.7119
 20
18.486799999999992
 30
0.0
 40
2.5300899999999991
  1
福田
 41
0.5
  0
TEXT
  5
1B9
  8
_________2
 62
     7
 10
22.456299999999992
 20
18.486799999999992
 30
0.0
 40
2.5300899999999991
  1
石原
 41
0.5
  0
TEXT
  5
1BA
  8
_________2
 62
     7
 10
104.605
 20
11.6669
 30
0.0
 40
2.248969999999999
  1
図番
 41
0.5
  0
TEXT
  5
1BB
  8
_________2
 62
     7
 10
104.605
 20
30.805199999999989
 30
0.0
 40
2.248969999999999
  1
名称
 41
0.5
  0
TEXT
  5
1BC
  8
_________2
 62
     7
 10
90.890100000000004
 20
25.319900000000001
 30
0.0
 40
3.3734599999999988
  1
m m
 41
0.5
  0
TEXT
  5
1BD
  8
_________2
 62
     7
 10
85.643199999999993
 20
30.805199999999989
 30
0.0
 40
2.248969999999999
  1
単位
 41
0.5
  0
TEXT
  5
1BE
  8
_________2
 62
     7
 10
85.643199999999993
 20
20.398199999999999
 30
0.0
 40
2.248969999999999
  1
尺度
 41
0.5
  0
TEXT
  5
1BF
  8
_________2
 62
     7
 10
88.186599999999984
 20
14.078099999999999
 30
0.0
 40
3.6545800000000002
  1
1 ： 1
 41
0.5
  0
TEXT
  5
1C0
  8
_________2
 62
     7
 10
137.97442499999991
 20
1.6460799999999991
 30
0.0
 40
3.9357000000000002
  1
CET439
 41
0.5
 72
     1
 11
143.55000000000001
 21
1.6460799999999991
 31
0.0
  0
TEXT
  5
1C1
  8
_________2
 62
     7
 10
109.179
 20
24.226099999999999
 30
0.0
 40
3.9357000000000002
  1
カウンター取付式 ポップアップ引棒
 41
0.5
  0
TEXT
  5
1C2
  8
_________2
 62
     7
 10
67.785600000000002
 20
14.078099999999999
 30
0.0
 40
3.6545800000000002
  1
02.01.25
 41
0.5
  0
TEXT
  5
1C3
  8
_________2
 62
     7
 10
66.593100000000007
 20
20.398199999999999
 30
0.0
 40
2.248969999999999
  1
日付
 41
0.5
  0
TEXT
  5
1C4
  8
_________2
 62
     7
 10
29.639399999999998
 20
20.398199999999999
 30
0.0
 40
2.248969999999999
  1
検図
 41
0.5
  0
TEXT
  5
1C5
  8
_________2
 62
     7
 10
18.021399999999989
 20
6.1988000000000003
 30
0.0
 40
2.248969999999999
  1
備考
 41
0.5
  0
TEXT
  5
1C6
  8
_________2
 62
     7
 10
18.021399999999989
 20
20.398199999999999
 30
0.0
 40
2.248969999999999
  1
製図
 41
0.5
  0
TEXT
  5
1C7
  8
_________2
 62
     7
 10
23.788665333333341
 20
26.7179
 30
0.0
 40
4.4979399999999989
  1
セラトレーディング株式会社
 41
0.5
 72
     1
 11
41.180700000000002
 21
26.7179
 31
0.0
  0
LINE
  5
1C8
  8
_________2
 62
     7
 10
183.55099999999999
 20
-4.0910799999999998
 30
0.0
 11
17.049499999999998
 21
-4.0910799999999998
 31
0.0
  0
LINE
  5
1C9
  8
_________2
 62
     7
 10
17.049499999999998
 20
-4.0910799999999998
 30
0.0
 11
17.049499999999998
 21
258.911
 31
0.0
  0
LINE
  5
1CA
  8
_________2
 62
     7
 10
17.049499999999998
 20
258.911
 30
0.0
 11
183.55099999999999
 21
258.911
 31
0.0
  0
LINE
  5
1CB
  8
_________2
 62
     7
 10
183.55099999999999
 20
258.911
 30
0.0
 11
183.55099999999999
 21
-4.0910799999999998
 31
0.0
  0
LINE
  5
1CC
  8
_________2
 62
     7
 10
65.549700000000001
 20
9.4092999999999982
 30
0.0
 11
65.549700000000001
 21
33.909300000000002
 31
0.0
  0
LINE
  5
1CD
  8
_________2
 62
     7
 10
84.549899999999994
 20
9.4092999999999982
 30
0.0
 11
84.549899999999994
 21
33.909300000000002
 31
0.0
  0
LINE
  5
1CE
  8
_________2
 62
     7
 10
103.55
 20
-4.0910799999999998
 30
0.0
 11
103.55
 21
33.909300000000002
 31
0.0
  0
LINE
  5
1CF
  8
_________2
 62
     7
 10
28.549700000000001
 20
9.4092999999999982
 30
0.0
 11
28.549700000000001
 21
23.409199999999998
 31
0.0
  0
LINE
  5
1D0
  8
_________2
 62
     7
 10
17.049499999999998
 20
9.4092999999999982
 30
0.0
 11
103.55
 21
9.4092999999999982
 31
0.0
  0
LINE
  5
1D1
  8
_________2
 62
     7
 10
17.049499999999998
 20
23.409199999999998
 30
0.0
 11
103.55
 21
23.409199999999998
 31
0.0
  0
LINE
  5
1D2
  8
_________2
 62
     7
 10
103.55
 20
14.9091
 30
0.0
 11
183.55099999999999
 21
14.9091
 31
0.0
  0
LINE
  5
1D3
  8
_________2
 62
     7
 10
17.049499999999998
 20
33.909300000000002
 30
0.0
 11
183.55099999999999
 21
33.909300000000002
 31
0.0
  0
ENDSEC
  0
EOF
