  0
SECTION
  2
HEADER
  9
$ACADVER
  1
AC1009
  9
$INSBASE
 10
0.0
 20
0.0
 30
0.0
  9
$EXTMIN
 10
-4.70052
 20
-21.071400000000001
 30
0.0
  9
$EXTMAX
 10
205.30099999999999
 20
275.93099999999993
 30
0.0
  9
$LIMMIN
 10
0.0
 20
0.0
  9
$LIMMAX
 10
12.0
 20
9.0
  9
$ORTHOMODE
 70
     0
  9
$REGENMODE
 70
     1
  9
$FILLMODE
 70
     1
  9
$QTEXTMODE
 70
     0
  9
$MIRRTEXT
 70
     1
  9
$DRAGMODE
 70
     2
  9
$LTSCALE
 40
1.0
  9
$OSMODE
 70
    37
  9
$ATTMODE
 70
     1
  9
$TEXTSIZE
 40
0.0
  9
$TRACEWID
 40
0.05
  9
$TEXTSTYLE
  7
STANDARD
  9
$CLAYER
  8
0
  9
$CELTYPE
  6
CONTINUOUS
  9
$CECOLOR
 62
   256
  9
$DIMSCALE
 40
1.0
  9
$DIMASZ
 40
0.18
  9
$DIMEXO
 40
0.0625
  9
$DIMDLI
 40
0.38
  9
$DIMRND
 40
0.0
  9
$DIMDLE
 40
0.0
  9
$DIMEXE
 40
0.18
  9
$DIMTP
 40
0.0
  9
$DIMTM
 40
0.0
  9
$DIMTXT
 40
0.18
  9
$DIMCEN
 40
0.09
  9
$DIMTSZ
 40
0.0
  9
$DIMTOL
 70
     0
  9
$DIMLIM
 70
     0
  9
$DIMTIH
 70
     1
  9
$DIMTOH
 70
     1
  9
$DIMSE1
 70
     0
  9
$DIMSE2
 70
     0
  9
$DIMTAD
 70
     0
  9
$DIMZIN
 70
     0
  9
$DIMBLK
  1

  9
$DIMASO
 70
     1
  9
$DIMSHO
 70
     1
  9
$DIMPOST
  1

  9
$DIMAPOST
  1

  9
$DIMALT
 70
     0
  9
$DIMALTD
 70
     2
  9
$DIMALTF
 40
25.399999999999999
  9
$DIMLFAC
 40
1.0
  9
$DIMTOFL
 70
     0
  9
$DIMTVP
 40
0.0
  9
$DIMTIX
 70
     0
  9
$DIMSOXD
 70
     0
  9
$DIMSAH
 70
     0
  9
$DIMBLK1
  1

  9
$DIMBLK2
  1

  9
$DIMSTYLE
  2
STANDARD
  9
$DIMCLRD
 70
     0
  9
$DIMCLRE
 70
     0
  9
$DIMCLRT
 70
     0
  9
$DIMTFAC
 40
1.0
  9
$DIMGAP
 40
0.09
  9
$LUNITS
 70
     2
  9
$LUPREC
 70
     4
  9
$SKETCHINC
 40
0.1
  9
$FILLETRAD
 40
0.0
  9
$AUNITS
 70
     0
  9
$AUPREC
 70
     0
  9
$MENU
  1
.
  9
$ELEVATION
 40
0.0
  9
$PELEVATION
 40
0.0
  9
$THICKNESS
 40
0.0
  9
$LIMCHECK
 70
     0
  9
$BLIPMODE
 70
     0
  9
$CHAMFERA
 40
0.0
  9
$CHAMFERB
 40
0.0
  9
$SKPOLY
 70
     0
  9
$TDCREATE
 40
2444972.375
  9
$TDUPDATE
 40
2454458.2900211569
  9
$TDINDWG
 40
0.0000073032
  9
$TDUSRTIMER
 40
0.0000073032
  9
$USRTIMER
 70
     1
  9
$ANGBASE
 50
0.0
  9
$ANGDIR
 70
     0
  9
$PDMODE
 70
     0
  9
$PDSIZE
 40
0.0
  9
$PLINEWID
 40
0.0
  9
$COORDS
 70
     1
  9
$SPLFRAME
 70
     0
  9
$SPLINETYPE
 70
     6
  9
$SPLINESEGS
 70
     8
  9
$ATTDIA
 70
     0
  9
$ATTREQ
 70
     1
  9
$HANDLING
 70
     1
  9
$HANDSEED
  5
21D
  9
$SURFTAB1
 70
     6
  9
$SURFTAB2
 70
     6
  9
$SURFTYPE
 70
     6
  9
$SURFU
 70
     6
  9
$SURFV
 70
     6
  9
$UCSNAME
  2

  9
$UCSORG
 10
0.0
 20
0.0
 30
0.0
  9
$UCSXDIR
 10
1.0
 20
0.0
 30
0.0
  9
$UCSYDIR
 10
0.0
 20
1.0
 30
0.0
  9
$PUCSNAME
  2

  9
$PUCSORG
 10
0.0
 20
0.0
 30
0.0
  9
$PUCSXDIR
 10
1.0
 20
0.0
 30
0.0
  9
$PUCSYDIR
 10
0.0
 20
1.0
 30
0.0
  9
$USERI1
 70
     0
  9
$USERI2
 70
     0
  9
$USERI3
 70
     0
  9
$USERI4
 70
     0
  9
$USERI5
 70
     0
  9
$USERR1
 40
0.0
  9
$USERR2
 40
0.0
  9
$USERR3
 40
0.0
  9
$USERR4
 40
0.0
  9
$USERR5
 40
0.0
  9
$WORLDVIEW
 70
     1
  9
$SHADEDGE
 70
     3
  9
$SHADEDIF
 70
    70
  9
$TILEMODE
 70
     1
  9
$MAXACTVP
 70
    48
  9
$PLIMCHECK
 70
     0
  9
$PEXTMIN
 10
1.0000000000000000E+020
 20
1.0000000000000000E+020
 30
1.0000000000000000E+020
  9
$PEXTMAX
 10
-1.0000000000000000E+020
 20
-1.0000000000000000E+020
 30
-1.0000000000000000E+020
  9
$PLIMMIN
 10
0.0
 20
0.0
  9
$PLIMMAX
 10
12.0
 20
9.0
  9
$UNITMODE
 70
     0
  9
$VISRETAIN
 70
     1
  9
$PLINEGEN
 70
     0
  9
$PSLTSCALE
 70
     1
  0
ENDSEC
  0
SECTION
  2
TABLES
  0
TABLE
  2
VPORT
 70
     2
  0
VPORT
  2
*ACTIVE
 70
     0
 10
0.0
 20
0.0
 11
1.0
 21
1.0
 12
195.35172167095331
 22
127.4297999999999
 13
0.0
 23
0.0
 14
1.0
 24
1.0
 15
0.0
 25
0.0
 16
0.0
 26
0.0
 36
1.0
 17
0.0
 27
0.0
 37
0.0
 40
299.3410015748031
 41
2.2894736842105261
 42
50.0
 43
0.0
 44
0.0
 50
0.0
 51
0.0
 71
     0
 72
   100
 73
     1
 74
     1
 75
     0
 76
     0
 77
     0
 78
     0
  0
ENDTAB
  0
TABLE
  2
LTYPE
 70
     2
  0
LTYPE
  2
CONTINUOUS
 70
     0
  3
Solid line
 72
    65
 73
     0
 40
0.0
  0
LTYPE
  2
AIGENLINE001
 70
     0
  3
generate AI->DXF Converter
 72
    65
 73
     4
 40
5.8561449999999988
 49
3.5278
 49
-0.776115
 49
0.776115
 49
-0.776115
  0
ENDTAB
  0
TABLE
  2
LAYER
 70
     2
  0
LAYER
  2
0
 70
     0
 62
     7
  6
CONTINUOUS
  0
LAYER
  2
_________2
 70
     0
 62
     7
  6
CONTINUOUS
  0
ENDTAB
  0
TABLE
  2
STYLE
 70
     1
  0
STYLE
  2
STANDARD
 70
     0
 40
0.0
 41
0.0
 50
0.0
 71
     0
 42
0.0
  3
TXT
  4
EXTFONT.SHX
  0
ENDTAB
  0
TABLE
  2
VIEW
 70
     0
  0
ENDTAB
  0
TABLE
  2
UCS
 70
     0
  0
ENDTAB
  0
TABLE
  2
APPID
 70
     1
  0
APPID
  2
ACAD
 70
     0
  0
ENDTAB
  0
TABLE
  2
DIMSTYLE
 70
     1
  0
DIMSTYLE
  2
STANDARD
 70
     0
  3

  4

  5

  6

  7

 40
1.0
 41
0.18
 42
0.0625
 43
0.38
 44
0.18
 45
0.0
 46
0.0
 47
0.0
 48
0.0
140
0.18
141
0.09
142
0.0
143
25.399999999999999
144
1.0
145
0.0
146
1.0
147
0.09
 71
     0
 72
     0
 73
     1
 74
     1
 75
     0
 76
     0
 77
     0
 78
     0
170
     0
171
     2
172
     0
173
     0
174
     0
175
     0
176
     0
177
     0
178
     0
  0
ENDTAB
  0
ENDSEC
  0
SECTION
  2
BLOCKS
  0
BLOCK
  8
0
  2
$MODEL_SPACE
 70
     0
 10
0.0
 20
0.0
 30
0.0
  3
$MODEL_SPACE
  1

  0
ENDBLK
  5
1A
  8
0
  0
BLOCK
 67
     1
  8
0
  2
$PAPER_SPACE
 70
     0
 10
0.0
 20
0.0
 30
0.0
  3
$PAPER_SPACE
  1

  0
ENDBLK
  5
17
 67
     1
  8
0
  0
ENDSEC
  0
SECTION
  2
ENTITIES
  0
TEXT
  5
22
  8
0
 62
     7
 10
92.791308999999998
 20
219.9259999999999
 30
0.0
 40
3.0923400000000001
  1
G1 1/4
 41
0.5
 72
     1
 11
96.347499999999997
 21
219.9259999999999
 31
0.0
  0
TEXT
  5
23
  8
0
 62
     7
 10
108.9617204999999
 20
227.01099999999991
 30
0.0
 40
3.0923400000000001
  1
125～180
 41
0.5
 72
     1
 11
113.626
 21
227.01099999999991
 31
0.0
  0
TEXT
  5
24
  8
0
 62
     7
 10
147.38200000000001
 20
125.280135
 30
0.0
 40
3.0923400000000001
  1
700
 50
90.0
 41
0.5
 72
     1
 11
147.38200000000001
 21
127.0839999999999
 31
0.0
  0
TEXT
  5
25
  8
0
 62
     7
 10
130.0094399999999
 20
42.670900000000003
 30
0.0
 40
3.0923400000000001
  1
%%c65
 41
0.5
 72
     1
 11
132.071
 21
42.670900000000003
 31
0.0
  0
TEXT
  5
26
  8
0
 62
     7
 10
130.20944
 20
50.39139999999999
 30
0.0
 40
3.0923400000000001
  1
%%c32
 41
0.5
 72
     1
 11
132.27099999999999
 21
50.39139999999999
 31
0.0
  0
TEXT
  5
27
  8
0
 62
     7
 10
82.524899999999988
 20
203.52565299999989
 30
0.0
 40
3.0923400000000001
  1
35～95
 50
90.0
 41
0.5
 72
     1
 11
82.524899999999988
 21
207.28800000000001
 31
0.0
  0
TEXT
  5
28
  8
0
 62
     7
 10
82.665800000000004
 20
187.0103724999999
 30
0.0
 40
3.0923400000000001
  1
90
 50
90.0
 41
0.5
 72
     1
 11
82.665800000000004
 21
188.16999999999999
 31
0.0
  0
ARC
  5
29
  8
0
 62
     7
 10
119.09296499999989
 20
184.43236999999991
 30
0.0
 40
10.000056999999989
 50
0.000503
 51
90.000473999999997
  0
ARC
  5
2A
  8
0
 62
     7
 10
119.0928779999999
 20
184.43245499999989
 30
0.0
 40
16.400138999999999
 50
0.00001
 51
89.999980000000008
  0
ARC
  5
2B
  8
0
  6
AIGENLINE001
 62
     7
 10
119.093137
 20
184.4325419999999
 30
0.0
 40
13.20005499999999
 50
359.99963600000001
 51
89.999605999999986
  0
ARC
  5
2C
  8
0
 62
     7
 10
132.29345000000001
 20
244.17070499999991
 30
0.0
 40
3.2002559999999991
 50
0.004636
 51
90.004606000000024
  0
ARC
  5
2D
  8
0
 62
     7
 10
132.293364
 20
244.1711359999999
 30
0.0
 40
3.200342
 50
269.99693600000001
 51
359.99690600000002
  0
ARC
  5
2E
  8
0
 62
     7
 10
132.37510800000001
 20
244.02854600000001
 30
0.0
 40
6.6428250000000002
 50
90.706554000000011
 51
149.78199699999999
  0
ARC
  5
2F
  8
0
 62
     7
 10
132.293363
 20
244.1707899999999
 30
0.0
 40
6.5000759999999991
 50
0.001528
 51
90.001499000000024
  0
ARC
  5
30
  8
0
 62
     7
 10
132.2932769999999
 20
244.17105099999989
 30
0.0
 40
6.5001620000000004
 50
269.99926099999988
 51
359.99923100000001
  0
ARC
  5
31
  8
0
 62
     7
 10
132.370023
 20
244.30483399999989
 30
0.0
 40
6.6343899999999989
 50
210.18018299999989
 51
269.33647200000001
  0
LINE
  5
32
  8
0
 62
     7
 10
59.703200000000002
 20
61.972499999999997
 30
0.0
 11
66.126300000000001
 21
61.972499999999997
 31
0.0
  0
ARC
  5
33
  8
0
 62
     7
 10
64.611407
 20
62.434452
 30
0.0
 40
1.5837339999999991
 50
343.04082599999998
 51
351.785751
  0
ARC
  5
34
  8
0
 62
     7
 10
64.296400000000006
 20
62.524993999999992
 30
0.0
 40
1.9089679999999991
 50
350.446821
 51
24.641289
  0
ARC
  5
35
  8
0
 62
     7
 10
64.576846000000003
 20
62.533969999999989
 30
0.0
 40
1.653897999999999
 50
28.412071999999991
 51
48.632798000000001
  0
ARC
  5
36
  8
0
 62
     7
 10
63.562057999999993
 20
61.457538999999997
 30
0.0
 40
3.132804999999999
 50
47.714771999999989
 51
80.198475999999999
  0
ARC
  5
37
  8
0
 62
     7
 10
63.578093999999993
 20
61.728526000000002
 30
0.0
 40
2.8632049999999989
 50
79.591538999999997
 51
86.410481000000004
  0
ARC
  5
38
  8
0
 62
     7
 10
62.135966000000003
 20
44.283169999999991
 30
0.0
 40
20.367583
 50
85.434056000000012
 51
88.448577999999983
  0
ARC
  5
39
  8
0
 62
     7
 10
59.875519999999987
 20
-25.970562000000001
 30
0.0
 40
90.657467000000011
 50
88.222591000000008
 51
90.018542000000025
  0
LINE
  5
3A
  8
0
 62
     7
 10
59.846200000000003
 20
64.686899999999994
 30
0.0
 11
59.702800000000003
 21
64.698999999999984
 31
0.0
  0
ARC
  5
3B
  8
0
 62
     7
 10
60.054034999999992
 20
-25.706484
 30
0.0
 40
90.406124000000005
 50
90.22255899999999
 51
92.664738999999983
  0
ARC
  5
3C
  8
0
 62
     7
 10
56.058903000000001
 20
60.058228999999997
 30
0.0
 40
4.5484109999999989
 50
92.621291000000014
 51
99.472846999999987
  0
ARC
  5
3D
  8
0
 62
     7
 10
55.925904000000003
 20
61.286644999999993
 30
0.0
 40
3.315617
 50
100.6996409999999
 51
130.71901800000001
  0
ARC
  5
3E
  8
0
 62
     7
 10
55.017468999999991
 20
62.384664000000001
 30
0.0
 40
1.890995
 50
131.5605789999999
 51
150.323117
  0
ARC
  5
3F
  8
0
 62
     7
 10
54.713177000000002
 20
62.602361000000002
 30
0.0
 40
1.519320999999999
 50
151.77458100000001
 51
185.58871899999991
  0
ARC
  5
40
  8
0
 62
     7
 10
55.373108000000002
 20
62.563203000000001
 30
0.0
 40
2.174752999999999
 50
182.867739
 51
195.76082299999999
  0
LINE
  5
41
  8
0
 62
     7
 10
53.28009999999999
 20
61.972499999999997
 30
0.0
 11
59.702800000000003
 21
61.972499999999997
 31
0.0
  0
LINE
  5
42
  8
0
 62
     7
 10
59.702800000000003
 20
61.972499999999997
 30
0.0
 11
59.703200000000002
 21
61.972499999999997
 31
0.0
  0
LINE
  5
43
  8
0
 62
     7
 10
62.902999999999999
 20
61.972499999999997
 30
0.0
 11
62.902999999999999
 21
57.631599999999999
 31
0.0
  0
LINE
  5
44
  8
0
 62
     7
 10
62.902999999999999
 20
57.631599999999999
 30
0.0
 11
56.503
 21
57.631599999999999
 31
0.0
  0
LINE
  5
45
  8
0
 62
     7
 10
56.503
 20
57.631599999999999
 30
0.0
 11
56.503
 21
61.972499999999997
 31
0.0
  0
LINE
  5
46
  8
0
 62
     7
 10
56.503
 20
64.632099999999994
 30
0.0
 11
56.503
 21
180.98099999999991
 31
0.0
  0
LINE
  5
47
  8
0
 62
     7
 10
62.902999999999999
 20
180.85299999999989
 30
0.0
 11
62.902999999999999
 21
64.638300000000001
 31
0.0
  0
ARC
  5
48
  8
0
 62
     7
 10
100.1593399999999
 20
250.07383399999989
 30
0.0
 40
2.2086790000000001
 50
236.29720399999991
 51
269.84457300000003
  0
LINE
  5
49
  8
0
 62
     7
 10
100.15300000000001
 20
247.86500000000001
 30
0.0
 11
104.264
 21
247.86500000000001
 31
0.0
  0
ARC
  5
4A
  8
0
 62
     7
 10
96.288781000000014
 20
244.15235499999989
 30
0.0
 40
4.8657180000000002
 50
57.071068999999987
 51
89.945138999999983
  0
ARC
  5
4B
  8
0
 62
     7
 10
96.293354000000022
 20
244.1708769999999
 30
0.0
 40
4.8471950000000001
 50
89.998981999999998
 51
179.998952
  0
ARC
  5
4C
  8
0
 62
     7
 10
100.15848099999999
 20
238.27176600000001
 30
0.0
 40
2.2050040000000002
 50
90.133366999999993
 51
123.73966799999999
  0
LINE
  5
4D
  8
0
 62
     7
 10
100.15300000000001
 20
240.477
 30
0.0
 11
104.264
 21
240.477
 31
0.0
  0
ARC
  5
4E
  8
0
 62
     7
 10
96.293180000000007
 20
244.170706
 30
0.0
 40
2.999922999999999
 50
270.004955
 51
0.004925
  0
ARC
  5
4F
  8
0
 62
     7
 10
96.293351999999985
 20
244.17104900000001
 30
0.0
 40
3.000265999999999
 50
180.001655
 51
270.001665
  0
ARC
  5
50
  8
0
 62
     7
 10
96.293181000000004
 20
244.17070499999991
 30
0.0
 40
3.0000949999999991
 50
89.995064999999997
 51
179.995036
  0
ARC
  5
51
  8
0
 62
     7
 10
96.293351999999985
 20
244.17104900000001
 30
0.0
 40
2.9997500000000001
 50
359.99836499999992
 51
89.998334999999983
  0
ARC
  5
52
  8
0
 62
     7
 10
96.288781000000014
 20
244.18940000000001
 30
0.0
 40
4.8657180000000002
 50
270.0548609999999
 51
302.92893099999992
  0
ARC
  5
53
  8
0
 62
     7
 10
96.293437999999995
 20
244.170963
 30
0.0
 40
4.8472790000000003
 50
179.99996999999991
 51
270.00002000000001
  0
ARC
  5
54
  8
0
 62
     7
 10
96.293180000000007
 20
244.170706
 30
0.0
 40
4.0234670000000001
 50
270.00369899999998
 51
0.00367
  0
ARC
  5
55
  8
0
 62
     7
 10
96.293351999999985
 20
244.17104900000001
 30
0.0
 40
4.0238100000000001
 50
180.00123599999989
 51
270.00124599999992
  0
ARC
  5
56
  8
0
 62
     7
 10
96.293268000000012
 20
244.17079100000001
 30
0.0
 40
4.0237249999999989
 50
89.997546999999997
 51
179.99751699999999
  0
ARC
  5
57
  8
0
 62
     7
 10
96.293266000000003
 20
244.17113499999999
 30
0.0
 40
4.0233809999999988
 50
359.99755699999992
 51
89.997527000000005
  0
ARC
  5
58
  8
0
 62
     7
 10
96.293437999999995
 20
244.170964
 30
0.0
 40
4.6236930000000003
 50
270.00002000000001
 51
359.99998999999991
  0
ARC
  5
59
  8
0
 62
     7
 10
96.293437999999995
 20
244.170963
 30
0.0
 40
4.6236909999999991
 50
179.99996999999991
 51
270.00002000000001
  0
ARC
  5
5A
  8
0
 62
     7
 10
96.293440000000004
 20
244.170963
 30
0.0
 40
4.6236930000000003
 50
90.0
 51
179.99996999999991
  0
ARC
  5
5B
  8
0
 62
     7
 10
96.293437999999995
 20
244.170963
 30
0.0
 40
4.6236930000000003
 50
0.00001
 51
89.999980000000008
  0
ARC
  5
5C
  8
0
 62
     7
 10
55.94582299999999
 20
203.25369499999991
 30
0.0
 40
0.8261959999999998
 50
91.472718999999984
 51
168.335249
  0
LINE
  5
5D
  8
0
 62
     7
 10
55.924599999999991
 20
204.0799999999999
 30
0.0
 11
63.594799999999999
 21
204.0799999999999
 31
0.0
  0
ARC
  5
5E
  8
0
 62
     7
 10
63.573923000000001
 20
203.2541249999999
 30
0.0
 40
0.8257559999999999
 50
11.640553999999989
 51
88.551438999999988
  0
ARC
  5
5F
  8
0
 62
     7
 10
63.574016999999998
 20
202.7871109999999
 30
0.0
 40
0.8256409999999999
 50
271.44222200000002
 51
348.36578500000002
  0
LINE
  5
60
  8
0
 62
     7
 10
63.594799999999999
 20
201.96199999999999
 30
0.0
 11
55.924599999999991
 21
201.96199999999999
 31
0.0
  0
ARC
  5
61
  8
0
 62
     7
 10
55.945482999999989
 20
202.787204
 30
0.0
 40
0.8257369999999999
 50
191.62724499999999
 51
268.55004600000001
  0
LINE
  5
62
  8
0
 62
     7
 10
64.607299999999995
 20
202.6209999999999
 30
0.0
 11
54.91279999999999
 21
202.6209999999999
 31
0.0
  0
LINE
  5
63
  8
0
 62
     7
 10
54.91279999999999
 20
202.6209999999999
 30
0.0
 11
54.91279999999999
 21
203.42099999999991
 31
0.0
  0
LINE
  5
64
  8
0
 62
     7
 10
54.91279999999999
 20
203.42099999999991
 30
0.0
 11
64.607299999999995
 21
203.42099999999991
 31
0.0
  0
LINE
  5
65
  8
0
 62
     7
 10
64.607299999999995
 20
203.42099999999991
 30
0.0
 11
64.607299999999995
 21
202.6209999999999
 31
0.0
  0
LINE
  5
66
  8
0
 62
     7
 10
55.012300000000003
 20
216.72
 30
0.0
 11
55.012300000000003
 21
216.697
 31
0.0
  0
ARC
  5
67
  8
0
 62
     7
 10
55.843418999999997
 20
216.72764599999999
 30
0.0
 40
0.831662
 50
182.11076199999999
 51
267.90159599999998
  0
LINE
  5
68
  8
0
 62
     7
 10
55.813000000000002
 20
215.89699999999999
 30
0.0
 11
63.565899999999999
 21
215.89699999999999
 31
0.0
  0
ARC
  5
69
  8
0
 62
     7
 10
63.53523599999999
 20
216.72710099999989
 30
0.0
 40
0.8311239999999999
 50
272.11155000000002
 51
357.92546099999998
  0
LINE
  5
6A
  8
0
 62
     7
 10
64.365799999999993
 20
216.697
 30
0.0
 11
64.365799999999993
 21
216.72
 31
0.0
  0
ARC
  5
6B
  8
0
 62
     7
 10
69.723981000000009
 20
191.142008
 30
0.0
 40
5.2859499999999988
 50
161.8384439999999
 51
166.59518899999989
  0
ARC
  5
6C
  8
0
 62
     7
 10
66.128624000000002
 20
191.98753500000001
 30
0.0
 40
1.5925629999999991
 50
166.19883999999999
 51
178.3861499999999
  0
ARC
  5
6D
  8
0
 62
     7
 10
49.757709999999989
 20
191.14086599999999
 30
0.0
 40
5.2776050000000003
 50
13.43912699999999
 51
18.204305999999988
  0
ARC
  5
6E
  8
0
 62
     7
 10
53.346212999999999
 20
191.98762699999989
 30
0.0
 40
1.5906020000000001
 50
1.612522
 51
13.815102
  0
LINE
  5
6F
  8
0
 62
     7
 10
58.075000000000003
 20
216.74999999999989
 30
0.0
 11
56.752800000000001
 21
216.74999999999989
 31
0.0
  0
ARC
  5
70
  8
0
 62
     7
 10
56.973106999999992
 20
683.04669000000001
 30
0.0
 40
490.30618499999991
 50
270.31912199999988
 51
270.95593600000001
  0
ARC
  5
71
  8
0
 62
     7
 10
63.804493999999991
 20
193.7845209999999
 30
0.0
 40
1.6645339999999991
 50
324.11105299999991
 51
354.91892300000001
  0
ARC
  5
72
  8
0
 62
     7
 10
64.451014000000001
 20
193.6971739999999
 30
0.0
 40
1.013255
 50
356.60106200000001
 51
13.76249
  0
ARC
  5
73
  8
0
 62
     7
 10
69.394818999999998
 20
194.90292700000001
 30
0.0
 40
4.0754630000000001
 50
188.22758300000001
 51
193.69244399999999
  0
ARC
  5
74
  8
0
 62
     7
 10
-1073.5039999999999
 20
1.845791
 30
0.0
 40
1155.0150000000001
 50
9.5926279999999995
 51
9.9055579999999992
  0
ARC
  5
75
  8
0
 62
     7
 10
59.970891000000002
 20
199.778166
 30
0.0
 40
4.3882940000000001
 50
9.9563790000000001
 51
20.007592999999989
  0
ARC
  5
76
  8
0
 62
     7
 10
64.021884999999997
 20
201.20542699999999
 30
0.0
 40
0.103687
 50
45.670783
 51
85.662306999999998
  0
ARC
  5
77
  8
0
 62
     7
 10
63.609237999999998
 20
199.40682699999991
 30
0.0
 40
1.947916
 50
77.533621000000011
 51
86.778794000000005
  0
ARC
  5
78
  8
0
 62
     7
 10
62.450302999999998
 20
184.40269599999991
 30
0.0
 40
16.996364
 50
85.720192999999995
 51
89.025754000000006
  0
ARC
  5
79
  8
0
 62
     7
 10
60.720789000000011
 20
103.123267
 30
0.0
 40
98.294064000000006
 50
88.823319999999995
 51
90.593158999999986
  0
LINE
  5
7A
  8
0
  6
AIGENLINE001
 62
     7
 10
59.703200000000002
 20
55.515000000000001
 30
0.0
 11
59.703200000000002
 21
219.0929999999999
 31
0.0
  0
LINE
  5
7B
  8
0
  6
AIGENLINE001
 62
     7
 10
51.4056
 20
197.6329999999999
 30
0.0
 11
67.704099999999997
 21
197.6329999999999
 31
0.0
  0
LINE
  5
7C
  8
0
 62
     7
 10
64.272800000000004
 20
217.5259999999999
 30
0.0
 11
64.272800000000004
 21
216.74999999999989
 31
0.0
  0
LINE
  5
7D
  8
0
 62
     7
 10
63.8249
 20
217.5259999999999
 30
0.0
 11
63.8249
 21
216.74999999999989
 31
0.0
  0
LINE
  5
7E
  8
0
 62
     7
 10
63.378100000000011
 20
217.5259999999999
 30
0.0
 11
63.378100000000011
 21
216.74999999999989
 31
0.0
  0
LINE
  5
7F
  8
0
 62
     7
 10
62.930599999999998
 20
217.5259999999999
 30
0.0
 11
62.930599999999998
 21
216.74999999999989
 31
0.0
  0
LINE
  5
80
  8
0
 62
     7
 10
62.4831
 20
217.5259999999999
 30
0.0
 11
62.4831
 21
216.74999999999989
 31
0.0
  0
LINE
  5
81
  8
0
 62
     7
 10
62.035499999999992
 20
217.5259999999999
 30
0.0
 11
62.035499999999992
 21
216.74999999999989
 31
0.0
  0
LINE
  5
82
  8
0
 62
     7
 10
61.588000000000001
 20
217.5259999999999
 30
0.0
 11
61.588000000000001
 21
216.74999999999989
 31
0.0
  0
LINE
  5
83
  8
0
 62
     7
 10
61.140799999999999
 20
217.5259999999999
 30
0.0
 11
61.140799999999999
 21
216.74999999999989
 31
0.0
  0
LINE
  5
84
  8
0
 62
     7
 10
60.693300000000001
 20
217.5259999999999
 30
0.0
 11
60.693300000000001
 21
216.74999999999989
 31
0.0
  0
LINE
  5
85
  8
0
 62
     7
 10
60.246099999999998
 20
217.5259999999999
 30
0.0
 11
60.246099999999998
 21
216.74999999999989
 31
0.0
  0
LINE
  5
86
  8
0
 62
     7
 10
59.798999999999999
 20
217.5259999999999
 30
0.0
 11
59.798999999999999
 21
216.74999999999989
 31
0.0
  0
LINE
  5
87
  8
0
 62
     7
 10
59.351100000000002
 20
217.5259999999999
 30
0.0
 11
59.351100000000002
 21
216.74999999999989
 31
0.0
  0
LINE
  5
88
  8
0
 62
     7
 10
58.904299999999999
 20
217.5259999999999
 30
0.0
 11
58.904299999999999
 21
216.74999999999989
 31
0.0
  0
LINE
  5
89
  8
0
 62
     7
 10
58.456400000000002
 20
217.5259999999999
 30
0.0
 11
58.456400000000002
 21
216.74999999999989
 31
0.0
  0
LINE
  5
8A
  8
0
 62
     7
 10
58.0092
 20
217.5259999999999
 30
0.0
 11
58.0092
 21
216.74999999999989
 31
0.0
  0
LINE
  5
8B
  8
0
 62
     7
 10
57.561399999999999
 20
217.5259999999999
 30
0.0
 11
57.561399999999999
 21
216.74999999999989
 31
0.0
  0
LINE
  5
8C
  8
0
 62
     7
 10
57.114199999999997
 20
217.5259999999999
 30
0.0
 11
57.114199999999997
 21
216.74999999999989
 31
0.0
  0
LINE
  5
8D
  8
0
 62
     7
 10
56.666699999999992
 20
217.5259999999999
 30
0.0
 11
56.666699999999992
 21
216.74999999999989
 31
0.0
  0
LINE
  5
8E
  8
0
 62
     7
 10
56.219499999999996
 20
217.5259999999999
 30
0.0
 11
56.219499999999996
 21
216.74999999999989
 31
0.0
  0
LINE
  5
8F
  8
0
 62
     7
 10
55.772300000000001
 20
217.5259999999999
 30
0.0
 11
55.772300000000001
 21
216.74999999999989
 31
0.0
  0
LINE
  5
90
  8
0
 62
     7
 10
55.324800000000003
 20
217.5259999999999
 30
0.0
 11
55.324800000000003
 21
216.74999999999989
 31
0.0
  0
LINE
  5
91
  8
0
 62
     7
 10
56.752800000000001
 20
216.74999999999989
 30
0.0
 11
54.91279999999999
 21
216.74999999999989
 31
0.0
  0
LINE
  5
92
  8
0
 62
     7
 10
54.91279999999999
 20
216.74999999999989
 30
0.0
 11
54.91279999999999
 21
217.5499999999999
 31
0.0
  0
LINE
  5
93
  8
0
 62
     7
 10
54.91279999999999
 20
217.5499999999999
 30
0.0
 11
64.607299999999995
 21
217.5499999999999
 31
0.0
  0
LINE
  5
94
  8
0
 62
     7
 10
64.607299999999995
 20
217.5499999999999
 30
0.0
 11
64.607299999999995
 21
216.74999999999989
 31
0.0
  0
LINE
  5
95
  8
0
 62
     7
 10
64.607299999999995
 20
216.74999999999989
 30
0.0
 11
58.075000000000003
 21
216.74999999999989
 31
0.0
  0
LINE
  5
96
  8
0
 62
     7
 10
55.100900000000003
 20
217.5499999999999
 30
0.0
 11
55.100900000000003
 21
218.10599999999991
 31
0.0
  0
LINE
  5
97
  8
0
 62
     7
 10
55.100900000000003
 20
218.10599999999991
 30
0.0
 11
64.347899999999996
 21
218.10599999999991
 31
0.0
  0
LINE
  5
98
  8
0
 62
     7
 10
64.347899999999996
 20
218.10599999999991
 30
0.0
 11
64.347899999999996
 21
217.5499999999999
 31
0.0
  0
LINE
  5
99
  8
0
 62
     7
 10
64.272800000000004
 20
203.39699999999999
 30
0.0
 11
64.272800000000004
 21
202.6209999999999
 31
0.0
  0
LINE
  5
9A
  8
0
 62
     7
 10
63.8249
 20
203.39699999999999
 30
0.0
 11
63.8249
 21
202.6209999999999
 31
0.0
  0
LINE
  5
9B
  8
0
 62
     7
 10
63.378100000000011
 20
203.39699999999999
 30
0.0
 11
63.378100000000011
 21
202.6209999999999
 31
0.0
  0
LINE
  5
9C
  8
0
 62
     7
 10
62.930599999999998
 20
203.39699999999999
 30
0.0
 11
62.930599999999998
 21
202.6209999999999
 31
0.0
  0
LINE
  5
9D
  8
0
 62
     7
 10
62.4831
 20
203.39699999999999
 30
0.0
 11
62.4831
 21
202.6209999999999
 31
0.0
  0
LINE
  5
9E
  8
0
 62
     7
 10
62.035499999999992
 20
203.39699999999999
 30
0.0
 11
62.035499999999992
 21
202.6209999999999
 31
0.0
  0
LINE
  5
9F
  8
0
 62
     7
 10
61.588000000000001
 20
203.39699999999999
 30
0.0
 11
61.588000000000001
 21
202.6209999999999
 31
0.0
  0
LINE
  5
A0
  8
0
 62
     7
 10
61.140799999999999
 20
203.39699999999999
 30
0.0
 11
61.140799999999999
 21
202.6209999999999
 31
0.0
  0
LINE
  5
A1
  8
0
 62
     7
 10
60.693300000000001
 20
203.39699999999999
 30
0.0
 11
60.693300000000001
 21
202.6209999999999
 31
0.0
  0
LINE
  5
A2
  8
0
 62
     7
 10
60.246099999999998
 20
203.39699999999999
 30
0.0
 11
60.246099999999998
 21
202.6209999999999
 31
0.0
  0
LINE
  5
A3
  8
0
 62
     7
 10
59.798999999999999
 20
203.39699999999999
 30
0.0
 11
59.798999999999999
 21
202.6209999999999
 31
0.0
  0
LINE
  5
A4
  8
0
 62
     7
 10
59.351100000000002
 20
203.39699999999999
 30
0.0
 11
59.351100000000002
 21
202.6209999999999
 31
0.0
  0
LINE
  5
A5
  8
0
 62
     7
 10
58.904299999999999
 20
203.39699999999999
 30
0.0
 11
58.904299999999999
 21
202.6209999999999
 31
0.0
  0
LINE
  5
A6
  8
0
 62
     7
 10
58.456400000000002
 20
203.39699999999999
 30
0.0
 11
58.456400000000002
 21
202.6209999999999
 31
0.0
  0
LINE
  5
A7
  8
0
 62
     7
 10
58.0092
 20
203.39699999999999
 30
0.0
 11
58.0092
 21
202.6209999999999
 31
0.0
  0
LINE
  5
A8
  8
0
 62
     7
 10
57.561399999999999
 20
203.39699999999999
 30
0.0
 11
57.561399999999999
 21
202.6209999999999
 31
0.0
  0
LINE
  5
A9
  8
0
 62
     7
 10
57.114199999999997
 20
203.39699999999999
 30
0.0
 11
57.114199999999997
 21
202.6209999999999
 31
0.0
  0
LINE
  5
AA
  8
0
 62
     7
 10
56.666699999999992
 20
203.39699999999999
 30
0.0
 11
56.666699999999992
 21
202.6209999999999
 31
0.0
  0
LINE
  5
AB
  8
0
 62
     7
 10
56.219499999999996
 20
203.39699999999999
 30
0.0
 11
56.219499999999996
 21
202.6209999999999
 31
0.0
  0
LINE
  5
AC
  8
0
 62
     7
 10
55.772300000000001
 20
203.39699999999999
 30
0.0
 11
55.772300000000001
 21
202.6209999999999
 31
0.0
  0
LINE
  5
AD
  8
0
 62
     7
 10
55.324800000000003
 20
203.39699999999999
 30
0.0
 11
55.324800000000003
 21
202.6209999999999
 31
0.0
  0
ARC
  5
AE
  8
0
 62
     7
 10
62.434499000000002
 20
683.14087400000005
 30
0.0
 40
490.40037000000001
 50
269.04416499999991
 51
269.68089700000002
  0
ARC
  5
AF
  8
0
 62
     7
 10
55.598780000000012
 20
193.78360599999999
 30
0.0
 40
1.6611979999999991
 50
185.05964399999999
 51
215.93328999999989
  0
ARC
  5
B0
  8
0
 62
     7
 10
54.955716000000002
 20
193.69766799999991
 30
0.0
 40
1.013471999999999
 50
166.26920599999991
 51
183.426165
  0
ARC
  5
B1
  8
0
 62
     7
 10
50.020041999999997
 20
194.90236499999989
 30
0.0
 40
4.0670960000000003
 50
346.28700800000001
 51
351.76339400000001
  0
ARC
  5
B2
  8
0
 62
     7
 10
1223.8630000000001
 20
-3.5178150000000001
 30
0.0
 40
1186.4280000000001
 50
170.09639599999991
 51
170.4010419999999
  0
ARC
  5
B3
  8
0
 62
     7
 10
59.435839999999999
 20
199.778166
 30
0.0
 40
4.3882940000000001
 50
159.99238700000001
 51
170.04360099999991
  0
ARC
  5
B4
  8
0
 62
     7
 10
55.412667999999996
 20
201.15268499999999
 30
0.0
 40
0.161748
 50
95.518068000000014
 51
128.313008
  0
ARC
  5
B5
  8
0
 62
     7
 10
55.935857999999989
 20
198.42713699999999
 30
0.0
 40
2.936391
 50
92.623469000000014
 51
100.5720139999999
  0
ARC
  5
B6
  8
0
 62
     7
 10
57.251640999999999
 20
177.668432
 30
0.0
 40
23.736360999999999
 50
90.660874000000007
 51
93.502694000000005
  0
ARC
  5
B7
  8
0
 62
     7
 10
58.716394999999999
 20
85.654820999999998
 30
0.0
 40
115.761448
 50
89.511572000000001
 51
90.860506000000001
  0
LINE
  5
B8
  8
0
 62
     7
 10
55.967300000000002
 20
201.96199999999999
 30
0.0
 11
55.728200000000001
 21
201.36500000000001
 31
0.0
  0
LINE
  5
B9
  8
0
 62
     7
 10
63.65059999999999
 20
201.36500000000001
 30
0.0
 11
63.41149999999999
 21
201.96199999999999
 31
0.0
  0
LINE
  5
BA
  8
0
 62
     7
 10
62.889600000000002
 20
215.89699999999999
 30
0.0
 11
62.889600000000002
 21
204.0799999999999
 31
0.0
  0
LINE
  5
BB
  8
0
 62
     7
 10
56.488900000000001
 20
204.0799999999999
 30
0.0
 11
56.488900000000001
 21
215.89699999999999
 31
0.0
  0
LINE
  5
BC
  8
0
 62
     7
 10
54.936199999999992
 20
192.03200000000001
 30
0.0
 11
55.453999999999994
 21
183.35599999999999
 31
0.0
  0
ARC
  5
BD
  8
0
 62
     7
 10
58.257007999999992
 20
183.60416599999999
 30
0.0
 40
2.8139989999999999
 50
185.06237899999999
 51
191.457413
  0
ARC
  5
BE
  8
0
 62
     7
 10
60.019403000000011
 20
183.88528700000001
 30
0.0
 40
4.5977199999999989
 50
190.528198
 51
210.8898869999999
  0
ARC
  5
BF
  8
0
 62
     7
 10
58.652465999999997
 20
183.12948399999999
 30
0.0
 40
3.0371209999999991
 50
211.89309
 51
233.96509900000001
  0
ARC
  5
C0
  8
0
 62
     7
 10
61.775174999999997
 20
187.64092099999999
 30
0.0
 40
8.5233270000000001
 50
234.8307769999999
 51
243.16185499999989
  0
ARC
  5
C1
  8
0
 62
     7
 10
59.668517000000001
 20
183.59464
 30
0.0
 40
3.9621469999999999
 50
243.927705
 51
270.30218500000001
  0
ARC
  5
C2
  8
0
 62
     7
 10
59.694146000000003
 20
186.984757
 30
0.0
 40
7.3522100000000004
 50
269.963122
 51
273.90951000000001
  0
ARC
  5
C3
  8
0
 62
     7
 10
59.884137000000003
 20
183.71229099999991
 30
0.0
 40
4.0745430000000002
 50
274.38158099999998
 51
296.36857400000002
  0
ARC
  5
C4
  8
0
 62
     7
 10
58.963197999999998
 20
185.66751199999999
 30
0.0
 40
6.2355140000000002
 50
295.97089599999998
 51
305.68873600000001
  0
ARC
  5
C5
  8
0
 62
     7
 10
61.000211999999998
 20
182.87175300000001
 30
0.0
 40
2.7765459999999988
 50
305.2045
 51
330.27106400000002
  0
ARC
  5
C6
  8
0
 62
     7
 10
59.551568999999994
 20
183.784683
 30
0.0
 40
4.4878569999999991
 50
329.321258
 51
354.51690400000001
  0
LINE
  5
C7
  8
0
 62
     7
 10
64.018900000000002
 20
183.35599999999999
 30
0.0
 11
64.536699999999996
 21
192.03200000000001
 31
0.0
  0
ARC
  5
C8
  8
0
 62
     7
 10
92.535615000000007
 20
203.25423699999999
 30
0.0
 40
0.8256409999999999
 50
91.442203000000006
 51
168.3657649999999
  0
LINE
  5
C9
  8
0
 62
     7
 10
92.514799999999994
 20
204.0799999999999
 30
0.0
 11
100.185
 21
204.0799999999999
 31
0.0
  0
ARC
  5
CA
  8
0
 62
     7
 10
100.163831
 20
203.25371000000001
 30
0.0
 40
0.8261709999999998
 50
11.664021
 51
88.552622999999997
  0
ARC
  5
CB
  8
0
 62
     7
 10
100.1633459999999
 20
202.788219
 30
0.0
 40
0.8267629999999998
 50
271.47993700000001
 51
348.30342000000002
  0
LINE
  5
CC
  8
0
 62
     7
 10
100.185
 20
201.96199999999999
 30
0.0
 11
92.514799999999994
 21
201.96199999999999
 31
0.0
  0
ARC
  5
CD
  8
0
 62
     7
 10
92.535728999999989
 20
202.787204
 30
0.0
 40
0.8257369999999999
 50
191.62724499999999
 51
268.55004600000001
  0
LINE
  5
CE
  8
0
 62
     7
 10
101.197
 20
202.6209999999999
 30
0.0
 11
91.502700000000004
 21
202.6209999999999
 31
0.0
  0
LINE
  5
CF
  8
0
 62
     7
 10
91.502700000000004
 20
202.6209999999999
 30
0.0
 11
91.502700000000004
 21
203.42099999999991
 31
0.0
  0
LINE
  5
D0
  8
0
 62
     7
 10
91.502700000000004
 20
203.42099999999991
 30
0.0
 11
101.197
 21
203.42099999999991
 31
0.0
  0
LINE
  5
D1
  8
0
 62
     7
 10
101.197
 20
203.42099999999991
 30
0.0
 11
101.197
 21
202.6209999999999
 31
0.0
  0
LINE
  5
D2
  8
0
 62
     7
 10
91.602199999999996
 20
216.72
 30
0.0
 11
91.602199999999996
 21
216.697
 31
0.0
  0
ARC
  5
D3
  8
0
 62
     7
 10
92.433331999999993
 20
216.72766999999999
 30
0.0
 40
0.8316739999999999
 50
182.11241000000001
 51
267.92459700000001
  0
LINE
  5
D4
  8
0
 62
     7
 10
92.403199999999998
 20
215.89699999999999
 30
0.0
 11
100.1549999999999
 21
215.89699999999999
 31
0.0
  0
ARC
  5
D5
  8
0
 62
     7
 10
100.12481200000001
 20
216.72744
 30
0.0
 40
0.831461
 50
272.10937899999988
 51
357.902962
  0
LINE
  5
D6
  8
0
 62
     7
 10
100.956
 20
216.697
 30
0.0
 11
100.956
 21
216.72
 31
0.0
  0
LINE
  5
D7
  8
0
 62
     7
 10
82.874399999999994
 20
179.6329999999999
 30
0.0
 11
94.139899999999997
 21
179.6329999999999
 31
0.0
  0
LINE
  5
D8
  8
0
 62
     7
 10
82.994900000000001
 20
197.6329999999999
 30
0.0
 11
90.326800000000006
 21
197.6329999999999
 31
0.0
  0
ARC
  5
D9
  8
0
 62
     7
 10
106.2236259999999
 20
191.16143299999999
 30
0.0
 40
5.1938170000000001
 50
161.73052799999999
 51
166.50438199999991
  0
ARC
  5
DA
  8
0
 62
     7
 10
102.7390749999999
 20
191.985737
 30
0.0
 40
1.613154999999999
 50
166.09062599999999
 51
178.34285499999999
  0
ARC
  5
DB
  8
0
 62
     7
 10
86.239082999999994
 20
191.11155099999991
 30
0.0
 40
5.3901899999999996
 50
13.473545
 51
18.138778999999989
  0
ARC
  5
DC
  8
0
 62
     7
 10
89.939379999999986
 20
191.98745299999999
 30
0.0
 40
1.5876859999999999
 50
1.621761999999999
 51
13.847441
  0
LINE
  5
DD
  8
0
 62
     7
 10
104.81999999999999
 20
239.60599999999991
 30
0.0
 11
104.264
 21
239.60599999999991
 31
0.0
  0
LINE
  5
DE
  8
0
 62
     7
 10
104.264
 20
239.60599999999991
 30
0.0
 11
104.264
 21
248.8539999999999
 31
0.0
  0
LINE
  5
DF
  8
0
 62
     7
 10
104.264
 20
248.8539999999999
 30
0.0
 11
104.81999999999999
 21
248.8539999999999
 31
0.0
  0
LINE
  5
E0
  8
0
 62
     7
 10
105.651
 20
239.51799999999989
 30
0.0
 11
105.6729999999999
 21
239.51799999999989
 31
0.0
  0
ARC
  5
E1
  8
0
 62
     7
 10
105.6428929999999
 20
240.34921399999999
 30
0.0
 40
0.8314429999999999
 50
272.10690599999998
 51
357.86843399999992
  0
LINE
  5
E2
  8
0
 62
     7
 10
106.474
 20
240.3179999999999
 30
0.0
 11
106.474
 21
248.071
 31
0.0
  0
ARC
  5
E3
  8
0
 62
     7
 10
105.642848
 20
248.04056899999989
 30
0.0
 40
0.8314759999999999
 50
2.1098659999999989
 51
87.890124
  0
LINE
  5
E4
  8
0
 62
     7
 10
105.6729999999999
 20
248.8709999999999
 30
0.0
 11
105.651
 21
248.8709999999999
 31
0.0
  0
LINE
  5
E5
  8
0
 62
     7
 10
104.84399999999999
 20
248.77799999999991
 30
0.0
 11
105.621
 21
248.77799999999991
 31
0.0
  0
LINE
  5
E6
  8
0
 62
     7
 10
104.84399999999999
 20
248.3309999999999
 30
0.0
 11
105.621
 21
248.3309999999999
 31
0.0
  0
LINE
  5
E7
  8
0
 62
     7
 10
104.84399999999999
 20
247.8829999999999
 30
0.0
 11
105.621
 21
247.8829999999999
 31
0.0
  0
LINE
  5
E8
  8
0
 62
     7
 10
104.84399999999999
 20
247.43599999999989
 30
0.0
 11
105.621
 21
247.43599999999989
 31
0.0
  0
LINE
  5
E9
  8
0
 62
     7
 10
104.84399999999999
 20
246.98799999999989
 30
0.0
 11
105.621
 21
246.98799999999989
 31
0.0
  0
LINE
  5
EA
  8
0
 62
     7
 10
104.84399999999999
 20
246.54099999999991
 30
0.0
 11
105.621
 21
246.54099999999991
 31
0.0
  0
LINE
  5
EB
  8
0
 62
     7
 10
104.84399999999999
 20
246.0929999999999
 30
0.0
 11
105.621
 21
246.0929999999999
 31
0.0
  0
LINE
  5
EC
  8
0
 62
     7
 10
104.84399999999999
 20
245.6459999999999
 30
0.0
 11
105.621
 21
245.6459999999999
 31
0.0
  0
LINE
  5
ED
  8
0
 62
     7
 10
104.84399999999999
 20
245.19900000000001
 30
0.0
 11
105.621
 21
245.19900000000001
 31
0.0
  0
LINE
  5
EE
  8
0
 62
     7
 10
104.84399999999999
 20
244.75099999999989
 30
0.0
 11
105.621
 21
244.75099999999989
 31
0.0
  0
LINE
  5
EF
  8
0
 62
     7
 10
104.84399999999999
 20
244.30399999999989
 30
0.0
 11
105.621
 21
244.30399999999989
 31
0.0
  0
LINE
  5
F0
  8
0
 62
     7
 10
104.84399999999999
 20
243.85599999999991
 30
0.0
 11
105.621
 21
243.85599999999991
 31
0.0
  0
LINE
  5
F1
  8
0
 62
     7
 10
104.84399999999999
 20
243.40899999999999
 30
0.0
 11
105.621
 21
243.40899999999999
 31
0.0
  0
LINE
  5
F2
  8
0
 62
     7
 10
104.84399999999999
 20
242.96199999999999
 30
0.0
 11
105.621
 21
242.96199999999999
 31
0.0
  0
LINE
  5
F3
  8
0
 62
     7
 10
104.84399999999999
 20
242.51400000000001
 30
0.0
 11
105.621
 21
242.51400000000001
 31
0.0
  0
LINE
  5
F4
  8
0
 62
     7
 10
104.84399999999999
 20
242.06700000000001
 30
0.0
 11
105.621
 21
242.06700000000001
 31
0.0
  0
LINE
  5
F5
  8
0
 62
     7
 10
104.84399999999999
 20
241.619
 30
0.0
 11
105.621
 21
241.619
 31
0.0
  0
LINE
  5
F6
  8
0
 62
     7
 10
104.84399999999999
 20
241.17199999999991
 30
0.0
 11
105.621
 21
241.17199999999991
 31
0.0
  0
LINE
  5
F7
  8
0
 62
     7
 10
104.84399999999999
 20
240.72499999999991
 30
0.0
 11
105.621
 21
240.72499999999991
 31
0.0
  0
LINE
  5
F8
  8
0
 62
     7
 10
104.84399999999999
 20
240.27699999999999
 30
0.0
 11
105.621
 21
240.27699999999999
 31
0.0
  0
LINE
  5
F9
  8
0
 62
     7
 10
104.84399999999999
 20
239.83000000000001
 30
0.0
 11
105.621
 21
239.83000000000001
 31
0.0
  0
LINE
  5
FA
  8
0
 62
     7
 10
105.621
 20
249.11199999999999
 30
0.0
 11
105.621
 21
239.41799999999989
 31
0.0
  0
LINE
  5
FB
  8
0
 62
     7
 10
105.621
 20
239.41799999999989
 30
0.0
 11
104.81999999999999
 21
239.41799999999989
 31
0.0
  0
LINE
  5
FC
  8
0
 62
     7
 10
104.81999999999999
 20
239.41799999999989
 30
0.0
 11
104.81999999999999
 21
249.11199999999999
 31
0.0
  0
LINE
  5
FD
  8
0
 62
     7
 10
104.81999999999999
 20
249.11199999999999
 30
0.0
 11
105.621
 21
249.11199999999999
 31
0.0
  0
LINE
  5
FE
  8
0
 62
     7
 10
132.29300000000001
 20
240.971
 30
0.0
 11
106.474
 21
240.971
 31
0.0
  0
LINE
  5
FF
  8
0
 62
     7
 10
106.474
 20
247.37100000000001
 30
0.0
 11
132.29300000000001
 21
247.37100000000001
 31
0.0
  0
LINE
  5
100
  8
0
 62
     7
 10
104.81999999999999
 20
193.0679999999999
 30
0.0
 11
104.264
 21
193.0679999999999
 31
0.0
  0
LINE
  5
101
  8
0
 62
     7
 10
104.264
 20
193.0679999999999
 30
0.0
 11
104.264
 21
202.315
 31
0.0
  0
LINE
  5
102
  8
0
 62
     7
 10
104.264
 20
202.315
 30
0.0
 11
104.81999999999999
 21
202.315
 31
0.0
  0
LINE
  5
103
  8
0
 62
     7
 10
105.651
 20
192.97999999999999
 30
0.0
 11
105.6729999999999
 21
192.97999999999999
 31
0.0
  0
ARC
  5
104
  8
0
 62
     7
 10
105.6428929999999
 20
193.81084699999991
 30
0.0
 40
0.8314429999999999
 50
272.10690599999998
 51
357.86843399999992
  0
LINE
  5
105
  8
0
 62
     7
 10
106.474
 20
193.78
 30
0.0
 11
106.474
 21
201.53299999999999
 31
0.0
  0
ARC
  5
106
  8
0
 62
     7
 10
105.642674
 20
201.50203499999989
 30
0.0
 40
0.8316499999999999
 50
2.1091109999999991
 51
87.878547999999995
  0
LINE
  5
107
  8
0
 62
     7
 10
105.6729999999999
 20
202.333
 30
0.0
 11
105.651
 21
202.333
 31
0.0
  0
LINE
  5
108
  8
0
 62
     7
 10
94.664900000000003
 20
216.74999999999989
 30
0.0
 11
93.342699999999994
 21
216.74999999999989
 31
0.0
  0
LINE
  5
109
  8
0
 62
     7
 10
98.504199999999983
 20
226.65899999999999
 30
0.0
 11
96.293400000000005
 21
226.06700000000001
 31
0.0
  0
LINE
  5
10A
  8
0
 62
     7
 10
96.293400000000005
 20
226.06700000000001
 30
0.0
 11
98.504199999999983
 21
225.47399999999999
 31
0.0
  0
LINE
  5
10B
  8
0
 62
     7
 10
98.504199999999983
 20
225.47399999999999
 30
0.0
 11
98.504199999999983
 21
226.65899999999999
 31
0.0
  0
LINE
  5
10C
  8
0
 62
     7
 10
130.08199999999991
 20
225.489
 30
0.0
 11
132.29300000000001
 21
226.0809999999999
 31
0.0
  0
LINE
  5
10D
  8
0
 62
     7
 10
132.29300000000001
 20
226.0809999999999
 30
0.0
 11
130.08199999999991
 21
226.67399999999989
 31
0.0
  0
LINE
  5
10E
  8
0
 62
     7
 10
130.08199999999991
 20
226.67399999999989
 30
0.0
 11
130.08199999999991
 21
225.489
 31
0.0
  0
LINE
  5
10F
  8
0
 62
     7
 10
96.293400000000005
 20
226.07400000000001
 30
0.0
 11
132.29300000000001
 21
226.07400000000001
 31
0.0
  0
LINE
  5
110
  8
0
 62
     7
 10
96.293400000000005
 20
226.709
 30
0.0
 11
96.293400000000005
 21
223.67799999999991
 31
0.0
  0
LINE
  5
111
  8
0
 62
     7
 10
132.29300000000001
 20
226.61799999999991
 30
0.0
 11
132.29300000000001
 21
189.57900000000001
 31
0.0
  0
LINE
  5
112
  8
0
 62
     7
 10
147.63599999999991
 20
59.842700000000001
 30
0.0
 11
148.2289999999999
 21
57.631599999999999
 31
0.0
  0
LINE
  5
113
  8
0
 62
     7
 10
148.2289999999999
 20
57.631599999999999
 30
0.0
 11
148.821
 21
59.842700000000001
 31
0.0
  0
LINE
  5
114
  8
0
 62
     7
 10
148.821
 20
59.842700000000001
 30
0.0
 11
147.63599999999991
 21
59.842700000000001
 31
0.0
  0
LINE
  5
115
  8
0
 62
     7
 10
148.80600000000001
 20
195.422
 30
0.0
 11
148.214
 21
197.6329999999999
 31
0.0
  0
LINE
  5
116
  8
0
 62
     7
 10
148.214
 20
197.6329999999999
 30
0.0
 11
147.62200000000001
 21
195.422
 31
0.0
  0
LINE
  5
117
  8
0
 62
     7
 10
147.62200000000001
 20
195.422
 30
0.0
 11
148.80600000000001
 21
195.422
 31
0.0
  0
LINE
  5
118
  8
0
 62
     7
 10
148.221
 20
57.631599999999999
 30
0.0
 11
148.221
 21
197.6329999999999
 31
0.0
  0
LINE
  5
119
  8
0
 62
     7
 10
123.6809999999999
 20
197.6329999999999
 30
0.0
 11
148.8649999999999
 21
197.6329999999999
 31
0.0
  0
LINE
  5
11A
  8
0
 62
     7
 10
136.32599999999991
 20
57.631599999999999
 30
0.0
 11
148.83000000000001
 21
57.631599999999999
 31
0.0
  0
LINE
  5
11B
  8
0
 62
     7
 10
128.08099999999999
 20
42.2196
 30
0.0
 11
125.87
 21
41.627000000000002
 31
0.0
  0
LINE
  5
11C
  8
0
 62
     7
 10
125.87
 20
41.627000000000002
 30
0.0
 11
128.08099999999999
 21
41.035099999999993
 31
0.0
  0
LINE
  5
11D
  8
0
 62
     7
 10
128.08099999999999
 20
41.035099999999993
 30
0.0
 11
128.08099999999999
 21
42.2196
 31
0.0
  0
LINE
  5
11E
  8
0
 62
     7
 10
136.50599999999989
 20
41.049599999999998
 30
0.0
 11
138.71700000000001
 21
41.641500000000001
 31
0.0
  0
LINE
  5
11F
  8
0
 62
     7
 10
138.71700000000001
 20
41.641500000000001
 30
0.0
 11
136.50599999999989
 21
42.233999999999988
 31
0.0
  0
LINE
  5
120
  8
0
 62
     7
 10
136.50599999999989
 20
42.233999999999988
 30
0.0
 11
136.50599999999989
 21
41.049599999999998
 31
0.0
  0
LINE
  5
121
  8
0
 62
     7
 10
125.87
 20
41.634599999999992
 30
0.0
 11
138.71700000000001
 21
41.634599999999992
 31
0.0
  0
LINE
  5
122
  8
0
 62
     7
 10
131.18499999999989
 20
49.634799999999998
 30
0.0
 11
128.9739999999999
 21
49.042999999999999
 31
0.0
  0
LINE
  5
123
  8
0
 62
     7
 10
128.9739999999999
 20
49.042999999999999
 30
0.0
 11
131.18499999999989
 21
48.450400000000002
 31
0.0
  0
LINE
  5
124
  8
0
 62
     7
 10
131.18499999999989
 20
48.450400000000002
 30
0.0
 11
131.18499999999989
 21
49.634799999999998
 31
0.0
  0
LINE
  5
125
  8
0
 62
     7
 10
133.29300000000001
 20
48.4649
 30
0.0
 11
135.50399999999999
 21
49.057400000000001
 31
0.0
  0
LINE
  5
126
  8
0
 62
     7
 10
135.50399999999999
 20
49.057400000000001
 30
0.0
 11
133.29300000000001
 21
49.64929999999999
 31
0.0
  0
LINE
  5
127
  8
0
 62
     7
 10
133.29300000000001
 20
49.64929999999999
 30
0.0
 11
133.29300000000001
 21
48.4649
 31
0.0
  0
LINE
  5
128
  8
0
 62
     7
 10
128.9739999999999
 20
49.049900000000001
 30
0.0
 11
135.50399999999999
 21
49.049900000000001
 31
0.0
  0
LINE
  5
129
  8
0
 62
     7
 10
135.464
 20
57.053600000000003
 30
0.0
 11
135.464
 21
48.284399999999998
 31
0.0
  0
LINE
  5
12A
  8
0
 62
     7
 10
138.71700000000001
 20
61.450200000000002
 30
0.0
 11
138.71700000000001
 21
41.025499999999987
 31
0.0
  0
LINE
  5
12B
  8
0
 62
     7
 10
125.87
 20
61.450200000000002
 30
0.0
 11
125.87
 21
41.025499999999987
 31
0.0
  0
LINE
  5
12C
  8
0
 62
     7
 10
128.96899999999999
 20
57.053600000000003
 30
0.0
 11
128.96899999999999
 21
48.284399999999998
 31
0.0
  0
LINE
  5
12D
  8
0
  6
AIGENLINE001
 62
     7
 10
132.29300000000001
 20
252.20899999999989
 30
0.0
 11
132.29300000000001
 21
236.19300000000001
 31
0.0
  0
LINE
  5
12E
  8
0
  6
AIGENLINE001
 62
     7
 10
132.29300000000001
 20
184.43199999999999
 30
0.0
 11
132.29300000000001
 21
56.512700000000002
 31
0.0
  0
LINE
  5
12F
  8
0
 62
     7
 10
132.29300000000001
 20
61.972499999999997
 30
0.0
 11
138.71700000000001
 21
61.972499999999997
 31
0.0
  0
ARC
  5
130
  8
0
 62
     7
 10
137.194906
 20
62.435980000000008
 30
0.0
 40
1.5907279999999999
 50
343.06008500000002
 51
351.76649099999997
  0
ARC
  5
131
  8
0
 62
     7
 10
136.886527
 20
62.524965000000002
 30
0.0
 40
1.9091759999999991
 50
350.44874399999992
 51
24.639365999999999
  0
ARC
  5
132
  8
0
 62
     7
 10
137.1664649999999
 20
62.533031000000008
 30
0.0
 40
1.6549819999999991
 50
28.428747999999999
 51
48.639389999999999
  0
ARC
  5
133
  8
0
 62
     7
 10
136.15203700000001
 20
61.456966000000001
 30
0.0
 40
3.1333729999999989
 50
47.718921000000002
 51
80.199889999999996
  0
ARC
  5
134
  8
0
 62
     7
 10
136.168543
 20
61.732655000000001
 30
0.0
 40
2.859062999999999
 50
79.585458000000003
 51
86.412145999999993
  0
ARC
  5
135
  8
0
 62
     7
 10
134.726417
 20
44.290863000000002
 30
0.0
 40
20.359887000000001
 50
85.433299000000005
 51
88.448598000000004
  0
ARC
  5
136
  8
0
 62
     7
 10
132.4659429999999
 20
-25.958383000000001
 30
0.0
 40
90.645286999999996
 50
88.222470999999999
 51
90.018595000000005
  0
LINE
  5
137
  8
0
 62
     7
 10
132.43700000000001
 20
64.686899999999994
 30
0.0
 11
132.29300000000001
 21
64.698999999999984
 31
0.0
  0
ARC
  5
138
  8
0
 62
     7
 10
132.64403399999989
 20
-25.706484
 30
0.0
 40
90.406124000000005
 50
90.22255899999999
 51
92.664738999999983
  0
ARC
  5
139
  8
0
 62
     7
 10
128.6489629999999
 20
60.057651999999997
 30
0.0
 40
4.548989999999999
 50
92.621726999999979
 51
99.472409999999996
  0
ARC
  5
13A
  8
0
 62
     7
 10
128.515455
 20
61.288012999999999
 30
0.0
 40
3.3141899999999991
 50
100.6964259999999
 51
130.72659699999991
  0
ARC
  5
13B
  8
0
 62
     7
 10
127.6090699999999
 20
62.382967999999998
 30
0.0
 40
1.8932269999999991
 50
131.559405
 51
150.30253899999991
  0
ARC
  5
13C
  8
0
 62
     7
 10
127.3046439999999
 20
62.602076000000011
 30
0.0
 40
1.520748999999999
 50
151.79129399999991
 51
185.57268999999999
  0
ARC
  5
13D
  8
0
 62
     7
 10
127.9625909999999
 20
62.563093999999992
 30
0.0
 40
2.1742279999999989
 50
182.86556200000001
 51
195.761754
  0
LINE
  5
13E
  8
0
 62
     7
 10
125.87
 20
61.972499999999997
 30
0.0
 11
132.29300000000001
 21
61.972499999999997
 31
0.0
  0
LINE
  5
13F
  8
0
 62
     7
 10
132.29300000000001
 20
61.972499999999997
 30
0.0
 11
132.29300000000001
 21
61.972499999999997
 31
0.0
  0
LINE
  5
140
  8
0
 62
     7
 10
135.49299999999991
 20
61.972499999999997
 30
0.0
 11
135.49299999999991
 21
57.631599999999999
 31
0.0
  0
LINE
  5
141
  8
0
 62
     7
 10
135.49299999999991
 20
57.631599999999999
 30
0.0
 11
129.0929999999999
 21
57.631599999999999
 31
0.0
  0
LINE
  5
142
  8
0
 62
     7
 10
129.0929999999999
 20
57.631599999999999
 30
0.0
 11
129.0929999999999
 21
61.972499999999997
 31
0.0
  0
LINE
  5
143
  8
0
 62
     7
 10
129.0929999999999
 20
64.632099999999994
 30
0.0
 11
129.0929999999999
 21
184.43199999999999
 31
0.0
  0
LINE
  5
144
  8
0
 62
     7
 10
135.49299999999991
 20
184.43199999999999
 30
0.0
 11
135.49299999999991
 21
64.638300000000001
 31
0.0
  0
LINE
  5
145
  8
0
 62
     7
 10
82.796499999999995
 20
199.8429999999999
 30
0.0
 11
83.3887
 21
197.6329999999999
 31
0.0
  0
LINE
  5
146
  8
0
 62
     7
 10
83.3887
 20
197.6329999999999
 30
0.0
 11
83.981099999999998
 21
199.8429999999999
 31
0.0
  0
LINE
  5
147
  8
0
 62
     7
 10
83.981099999999998
 20
199.8429999999999
 30
0.0
 11
82.796499999999995
 21
199.8429999999999
 31
0.0
  0
LINE
  5
148
  8
0
 62
     7
 10
82.796499999999995
 20
181.84299999999999
 30
0.0
 11
83.3887
 21
179.6329999999999
 31
0.0
  0
LINE
  5
149
  8
0
 62
     7
 10
83.3887
 20
179.6329999999999
 30
0.0
 11
83.981099999999998
 21
181.84299999999999
 31
0.0
  0
LINE
  5
14A
  8
0
 62
     7
 10
83.981099999999998
 20
181.84299999999999
 30
0.0
 11
82.796499999999995
 21
181.84299999999999
 31
0.0
  0
LINE
  5
14B
  8
0
 62
     7
 10
83.966499999999996
 20
195.422
 30
0.0
 11
83.374199999999988
 21
197.6329999999999
 31
0.0
  0
LINE
  5
14C
  8
0
 62
     7
 10
83.374199999999988
 20
197.6329999999999
 30
0.0
 11
82.781899999999993
 21
195.422
 31
0.0
  0
LINE
  5
14D
  8
0
 62
     7
 10
82.781899999999993
 20
195.422
 30
0.0
 11
83.966499999999996
 21
195.422
 31
0.0
  0
LINE
  5
14E
  8
0
 62
     7
 10
83.966499999999996
 20
214.53899999999999
 30
0.0
 11
83.374199999999988
 21
216.74999999999989
 31
0.0
  0
LINE
  5
14F
  8
0
 62
     7
 10
83.374199999999988
 20
216.74999999999989
 30
0.0
 11
82.781899999999993
 21
214.53899999999999
 31
0.0
  0
LINE
  5
150
  8
0
 62
     7
 10
82.781899999999993
 20
214.53899999999999
 30
0.0
 11
83.966499999999996
 21
214.53899999999999
 31
0.0
  0
LINE
  5
151
  8
0
 62
     7
 10
83.381500000000003
 20
179.6329999999999
 30
0.0
 11
83.381500000000003
 21
216.74999999999989
 31
0.0
  0
LINE
  5
152
  8
0
 62
     7
 10
82.947100000000006
 20
216.74999999999989
 30
0.0
 11
90.278999999999996
 21
216.74999999999989
 31
0.0
  0
LINE
  5
153
  8
0
  6
AIGENLINE001
 62
     7
 10
96.293400000000005
 20
237.50800000000001
 30
0.0
 11
96.293400000000005
 21
250.80099999999999
 31
0.0
  0
LINE
  5
154
  8
0
  6
AIGENLINE001
 62
     7
 10
88.977699999999984
 20
244.17099999999999
 30
0.0
 11
140.21600000000001
 21
244.17099999999999
 31
0.0
  0
LINE
  5
155
  8
0
  6
AIGENLINE001
 62
     7
 10
96.293400000000005
 20
178.4009999999999
 30
0.0
 11
96.293400000000005
 21
219.0929999999999
 31
0.0
  0
LINE
  5
156
  8
0
  6
AIGENLINE001
 62
     7
 10
90.667599999999993
 20
197.6329999999999
 30
0.0
 11
119.0929999999999
 21
197.6329999999999
 31
0.0
  0
LINE
  5
157
  8
0
 62
     7
 10
104.84399999999999
 20
202.24000000000001
 30
0.0
 11
105.621
 21
202.24000000000001
 31
0.0
  0
LINE
  5
158
  8
0
 62
     7
 10
104.84399999999999
 20
201.792
 30
0.0
 11
105.621
 21
201.792
 31
0.0
  0
LINE
  5
159
  8
0
 62
     7
 10
104.84399999999999
 20
201.345
 30
0.0
 11
105.621
 21
201.345
 31
0.0
  0
LINE
  5
15A
  8
0
 62
     7
 10
104.84399999999999
 20
200.89699999999999
 30
0.0
 11
105.621
 21
200.89699999999999
 31
0.0
  0
LINE
  5
15B
  8
0
 62
     7
 10
104.84399999999999
 20
200.4499999999999
 30
0.0
 11
105.621
 21
200.4499999999999
 31
0.0
  0
LINE
  5
15C
  8
0
 62
     7
 10
104.84399999999999
 20
200.00200000000001
 30
0.0
 11
105.621
 21
200.00200000000001
 31
0.0
  0
LINE
  5
15D
  8
0
 62
     7
 10
104.84399999999999
 20
199.55500000000001
 30
0.0
 11
105.621
 21
199.55500000000001
 31
0.0
  0
LINE
  5
15E
  8
0
 62
     7
 10
104.84399999999999
 20
199.108
 30
0.0
 11
105.621
 21
199.108
 31
0.0
  0
LINE
  5
15F
  8
0
 62
     7
 10
104.84399999999999
 20
198.65999999999991
 30
0.0
 11
105.621
 21
198.65999999999991
 31
0.0
  0
LINE
  5
160
  8
0
 62
     7
 10
104.84399999999999
 20
198.21299999999991
 30
0.0
 11
105.621
 21
198.21299999999991
 31
0.0
  0
LINE
  5
161
  8
0
 62
     7
 10
104.84399999999999
 20
197.76599999999999
 30
0.0
 11
105.621
 21
197.76599999999999
 31
0.0
  0
LINE
  5
162
  8
0
 62
     7
 10
104.84399999999999
 20
197.3179999999999
 30
0.0
 11
105.621
 21
197.3179999999999
 31
0.0
  0
LINE
  5
163
  8
0
 62
     7
 10
104.84399999999999
 20
196.8709999999999
 30
0.0
 11
105.621
 21
196.8709999999999
 31
0.0
  0
LINE
  5
164
  8
0
 62
     7
 10
104.84399999999999
 20
196.423
 30
0.0
 11
105.621
 21
196.423
 31
0.0
  0
LINE
  5
165
  8
0
 62
     7
 10
104.84399999999999
 20
195.97599999999991
 30
0.0
 11
105.621
 21
195.97599999999991
 31
0.0
  0
LINE
  5
166
  8
0
 62
     7
 10
104.84399999999999
 20
195.52799999999991
 30
0.0
 11
105.621
 21
195.52799999999991
 31
0.0
  0
LINE
  5
167
  8
0
 62
     7
 10
104.84399999999999
 20
195.0809999999999
 30
0.0
 11
105.621
 21
195.0809999999999
 31
0.0
  0
LINE
  5
168
  8
0
 62
     7
 10
104.84399999999999
 20
194.63399999999999
 30
0.0
 11
105.621
 21
194.63399999999999
 31
0.0
  0
LINE
  5
169
  8
0
 62
     7
 10
104.84399999999999
 20
194.18599999999989
 30
0.0
 11
105.621
 21
194.18599999999989
 31
0.0
  0
LINE
  5
16A
  8
0
 62
     7
 10
104.84399999999999
 20
193.739
 30
0.0
 11
105.621
 21
193.739
 31
0.0
  0
LINE
  5
16B
  8
0
 62
     7
 10
104.84399999999999
 20
193.292
 30
0.0
 11
105.621
 21
193.292
 31
0.0
  0
LINE
  5
16C
  8
0
 62
     7
 10
105.621
 20
202.57400000000001
 30
0.0
 11
105.621
 21
192.88
 31
0.0
  0
LINE
  5
16D
  8
0
 62
     7
 10
105.621
 20
192.88
 30
0.0
 11
104.81999999999999
 21
192.88
 31
0.0
  0
LINE
  5
16E
  8
0
 62
     7
 10
104.81999999999999
 20
192.88
 30
0.0
 11
104.81999999999999
 21
202.57400000000001
 31
0.0
  0
LINE
  5
16F
  8
0
 62
     7
 10
104.81999999999999
 20
202.57400000000001
 30
0.0
 11
105.621
 21
202.57400000000001
 31
0.0
  0
LINE
  5
170
  8
0
 62
     7
 10
100.86199999999999
 20
217.5259999999999
 30
0.0
 11
100.86199999999999
 21
216.74999999999989
 31
0.0
  0
LINE
  5
171
  8
0
 62
     7
 10
100.41500000000001
 20
217.5259999999999
 30
0.0
 11
100.41500000000001
 21
216.74999999999989
 31
0.0
  0
LINE
  5
172
  8
0
 62
     7
 10
99.967699999999994
 20
217.5259999999999
 30
0.0
 11
99.967699999999994
 21
216.74999999999989
 31
0.0
  0
LINE
  5
173
  8
0
 62
     7
 10
99.520499999999984
 20
217.5259999999999
 30
0.0
 11
99.520499999999984
 21
216.74999999999989
 31
0.0
  0
LINE
  5
174
  8
0
 62
     7
 10
99.073300000000003
 20
217.5259999999999
 30
0.0
 11
99.073300000000003
 21
216.74999999999989
 31
0.0
  0
LINE
  5
175
  8
0
 62
     7
 10
98.625399999999999
 20
217.5259999999999
 30
0.0
 11
98.625399999999999
 21
216.74999999999989
 31
0.0
  0
LINE
  5
176
  8
0
 62
     7
 10
98.178299999999993
 20
217.5259999999999
 30
0.0
 11
98.178299999999993
 21
216.74999999999989
 31
0.0
  0
LINE
  5
177
  8
0
 62
     7
 10
97.730699999999999
 20
217.5259999999999
 30
0.0
 11
97.730699999999999
 21
216.74999999999989
 31
0.0
  0
LINE
  5
178
  8
0
 62
     7
 10
97.283600000000021
 20
217.5259999999999
 30
0.0
 11
97.283600000000021
 21
216.74999999999989
 31
0.0
  0
LINE
  5
179
  8
0
 62
     7
 10
96.835700000000017
 20
217.5259999999999
 30
0.0
 11
96.835700000000017
 21
216.74999999999989
 31
0.0
  0
LINE
  5
17A
  8
0
 62
     7
 10
96.388900000000007
 20
217.5259999999999
 30
0.0
 11
96.388900000000007
 21
216.74999999999989
 31
0.0
  0
LINE
  5
17B
  8
0
 62
     7
 10
95.941000000000003
 20
217.5259999999999
 30
0.0
 11
95.941000000000003
 21
216.74999999999989
 31
0.0
  0
LINE
  5
17C
  8
0
 62
     7
 10
95.494200000000006
 20
217.5259999999999
 30
0.0
 11
95.494200000000006
 21
216.74999999999989
 31
0.0
  0
LINE
  5
17D
  8
0
 62
     7
 10
95.046700000000001
 20
217.5259999999999
 30
0.0
 11
95.046700000000001
 21
216.74999999999989
 31
0.0
  0
LINE
  5
17E
  8
0
 62
     7
 10
94.599100000000007
 20
217.5259999999999
 30
0.0
 11
94.599100000000007
 21
216.74999999999989
 31
0.0
  0
LINE
  5
17F
  8
0
 62
     7
 10
94.151600000000002
 20
217.5259999999999
 30
0.0
 11
94.151600000000002
 21
216.74999999999989
 31
0.0
  0
LINE
  5
180
  8
0
 62
     7
 10
93.704099999999997
 20
217.5259999999999
 30
0.0
 11
93.704099999999997
 21
216.74999999999989
 31
0.0
  0
LINE
  5
181
  8
0
 62
     7
 10
93.256899999999987
 20
217.5259999999999
 30
0.0
 11
93.256899999999987
 21
216.74999999999989
 31
0.0
  0
LINE
  5
182
  8
0
 62
     7
 10
92.809399999999997
 20
217.5259999999999
 30
0.0
 11
92.809399999999997
 21
216.74999999999989
 31
0.0
  0
LINE
  5
183
  8
0
 62
     7
 10
92.362200000000016
 20
217.5259999999999
 30
0.0
 11
92.362200000000016
 21
216.74999999999989
 31
0.0
  0
LINE
  5
184
  8
0
 62
     7
 10
91.915000000000006
 20
217.5259999999999
 30
0.0
 11
91.915000000000006
 21
216.74999999999989
 31
0.0
  0
LINE
  5
185
  8
0
 62
     7
 10
93.342699999999994
 20
216.74999999999989
 30
0.0
 11
91.502700000000004
 21
216.74999999999989
 31
0.0
  0
LINE
  5
186
  8
0
 62
     7
 10
91.502700000000004
 20
216.74999999999989
 30
0.0
 11
91.502700000000004
 21
217.5499999999999
 31
0.0
  0
LINE
  5
187
  8
0
 62
     7
 10
91.502700000000004
 20
217.5499999999999
 30
0.0
 11
101.197
 21
217.5499999999999
 31
0.0
  0
LINE
  5
188
  8
0
 62
     7
 10
101.197
 20
217.5499999999999
 30
0.0
 11
101.197
 21
216.74999999999989
 31
0.0
  0
LINE
  5
189
  8
0
 62
     7
 10
101.197
 20
216.74999999999989
 30
0.0
 11
94.664900000000003
 21
216.74999999999989
 31
0.0
  0
LINE
  5
18A
  8
0
 62
     7
 10
91.690799999999996
 20
217.5499999999999
 30
0.0
 11
91.690799999999996
 21
218.10599999999991
 31
0.0
  0
LINE
  5
18B
  8
0
 62
     7
 10
91.690799999999996
 20
218.10599999999991
 30
0.0
 11
100.9379999999999
 21
218.10599999999991
 31
0.0
  0
LINE
  5
18C
  8
0
 62
     7
 10
100.9379999999999
 20
218.10599999999991
 30
0.0
 11
100.9379999999999
 21
217.5499999999999
 31
0.0
  0
LINE
  5
18D
  8
0
 62
     7
 10
100.86199999999999
 20
203.39699999999999
 30
0.0
 11
100.86199999999999
 21
202.6209999999999
 31
0.0
  0
LINE
  5
18E
  8
0
 62
     7
 10
100.41500000000001
 20
203.39699999999999
 30
0.0
 11
100.41500000000001
 21
202.6209999999999
 31
0.0
  0
LINE
  5
18F
  8
0
 62
     7
 10
99.967699999999994
 20
203.39699999999999
 30
0.0
 11
99.967699999999994
 21
202.6209999999999
 31
0.0
  0
LINE
  5
190
  8
0
 62
     7
 10
99.520499999999984
 20
203.39699999999999
 30
0.0
 11
99.520499999999984
 21
202.6209999999999
 31
0.0
  0
LINE
  5
191
  8
0
 62
     7
 10
99.073300000000003
 20
203.39699999999999
 30
0.0
 11
99.073300000000003
 21
202.6209999999999
 31
0.0
  0
LINE
  5
192
  8
0
 62
     7
 10
98.625399999999999
 20
203.39699999999999
 30
0.0
 11
98.625399999999999
 21
202.6209999999999
 31
0.0
  0
LINE
  5
193
  8
0
 62
     7
 10
98.178299999999993
 20
203.39699999999999
 30
0.0
 11
98.178299999999993
 21
202.6209999999999
 31
0.0
  0
LINE
  5
194
  8
0
 62
     7
 10
97.730699999999999
 20
203.39699999999999
 30
0.0
 11
97.730699999999999
 21
202.6209999999999
 31
0.0
  0
LINE
  5
195
  8
0
 62
     7
 10
97.283600000000021
 20
203.39699999999999
 30
0.0
 11
97.283600000000021
 21
202.6209999999999
 31
0.0
  0
LINE
  5
196
  8
0
 62
     7
 10
96.835700000000017
 20
203.39699999999999
 30
0.0
 11
96.835700000000017
 21
202.6209999999999
 31
0.0
  0
LINE
  5
197
  8
0
 62
     7
 10
96.388900000000007
 20
203.39699999999999
 30
0.0
 11
96.388900000000007
 21
202.6209999999999
 31
0.0
  0
LINE
  5
198
  8
0
 62
     7
 10
95.941000000000003
 20
203.39699999999999
 30
0.0
 11
95.941000000000003
 21
202.6209999999999
 31
0.0
  0
LINE
  5
199
  8
0
 62
     7
 10
95.494200000000006
 20
203.39699999999999
 30
0.0
 11
95.494200000000006
 21
202.6209999999999
 31
0.0
  0
LINE
  5
19A
  8
0
 62
     7
 10
95.046700000000001
 20
203.39699999999999
 30
0.0
 11
95.046700000000001
 21
202.6209999999999
 31
0.0
  0
LINE
  5
19B
  8
0
 62
     7
 10
94.599100000000007
 20
203.39699999999999
 30
0.0
 11
94.599100000000007
 21
202.6209999999999
 31
0.0
  0
LINE
  5
19C
  8
0
 62
     7
 10
94.151600000000002
 20
203.39699999999999
 30
0.0
 11
94.151600000000002
 21
202.6209999999999
 31
0.0
  0
LINE
  5
19D
  8
0
 62
     7
 10
93.704099999999997
 20
203.39699999999999
 30
0.0
 11
93.704099999999997
 21
202.6209999999999
 31
0.0
  0
LINE
  5
19E
  8
0
 62
     7
 10
93.256899999999987
 20
203.39699999999999
 30
0.0
 11
93.256899999999987
 21
202.6209999999999
 31
0.0
  0
LINE
  5
19F
  8
0
 62
     7
 10
92.809399999999997
 20
203.39699999999999
 30
0.0
 11
92.809399999999997
 21
202.6209999999999
 31
0.0
  0
LINE
  5
1A0
  8
0
 62
     7
 10
92.362200000000016
 20
203.39699999999999
 30
0.0
 11
92.362200000000016
 21
202.6209999999999
 31
0.0
  0
LINE
  5
1A1
  8
0
 62
     7
 10
91.915000000000006
 20
203.39699999999999
 30
0.0
 11
91.915000000000006
 21
202.6209999999999
 31
0.0
  0
ARC
  5
1A2
  8
0
 62
     7
 10
103.65256599999999
 20
198.40370899999999
 30
0.0
 40
3.8934669999999989
 50
154.50648200000001
 51
159.95693600000001
  0
ARC
  5
1A3
  8
0
 62
     7
 10
105.0444949999999
 20
197.80363500000001
 30
0.0
 40
5.407449999999999
 50
159.03845200000001
 51
177.62097
  0
ARC
  5
1A4
  8
0
 62
     7
 10
102.2951479999999
 20
197.99920700000001
 30
0.0
 40
2.6535999999999991
 50
179.3761889999999
 51
197.32818099999989
  0
ARC
  5
1A5
  8
0
 62
     7
 10
104.442853
 20
198.783638
 30
0.0
 40
4.938674999999999
 50
198.59456399999999
 51
235.47881000000001
  0
LINE
  5
1A6
  8
0
 62
     7
 10
104.264
 20
193.9379999999999
 30
0.0
 11
102.9849999999999
 21
193.9379999999999
 31
0.0
  0
ARC
  5
1A7
  8
0
 62
     7
 10
103.264218
 20
192.604904
 30
0.0
 40
1.3621959999999991
 50
101.817992
 51
124.5743419999999
  0
ARC
  5
1A8
  8
0
 62
     7
 10
102.592927
 20
193.62639699999991
 30
0.0
 40
0.142732
 50
135.4528489999999
 51
166.316442
  0
ARC
  5
1A9
  8
0
 62
     7
 10
102.91960999999991
 20
193.55064299999989
 30
0.0
 40
0.4780770000000001
 50
166.7570649999999
 51
186.165708
  0
ARC
  5
1AA
  8
0
 62
     7
 10
101.82198699999999
 20
193.27663799999991
 30
0.0
 40
0.660944
 50
323.01654600000001
 51
19.686824999999988
  0
ARC
  5
1AB
  8
0
 62
     7
 10
102.288139
 20
192.94925900000001
 30
0.0
 40
0.093564
 50
274.98930999999988
 51
311.35239899999999
  0
ARC
  5
1AC
  8
0
 62
     7
 10
101.85260599999999
 20
195.00527199999999
 30
0.0
 40
2.1945389999999989
 50
272.81065099999989
 51
281.66390000000001
  0
ARC
  5
1AD
  8
0
 62
     7
 10
100.48083699999989
 20
214.8522899999999
 30
0.0
 40
22.088512999999999
 50
270.94452000000001
 51
273.84027099999992
  0
ARC
  5
1AE
  8
0
 62
     7
 10
98.385694000000001
 20
315.51814200000001
 30
0.0
 40
122.77599599999991
 50
269.86432600000001
 51
271.14774299999988
  0
ARC
  5
1AF
  8
0
 62
     7
 10
98.693438000000015
 20
655.10032899999987
 30
0.0
 40
462.35822699999989
 50
269.02720599999992
 51
269.92584399999993
  0
ARC
  5
1B0
  8
0
 62
     7
 10
92.187580000000011
 20
193.78280699999999
 30
0.0
 40
1.659837
 50
185.03612100000001
 51
215.93328899999989
  0
ARC
  5
1B1
  8
0
 62
     7
 10
91.545365000000004
 20
193.697215
 30
0.0
 40
1.012999999999999
 50
166.2363379999999
 51
183.402141
  0
ARC
  5
1B2
  8
0
 62
     7
 10
86.281075000000001
 20
194.9788419999999
 30
0.0
 40
4.4050560000000001
 50
346.33572299999992
 51
351.933087
  0
ARC
  5
1B3
  8
0
 62
     7
 10
1176.9149999999991
 20
11.463520000000001
 30
0.0
 40
1101.561999999999
 50
170.12230600000001
 51
170.442654
  0
ARC
  5
1B4
  8
0
 62
     7
 10
97.008981999999989
 20
199.49938399999999
 30
0.0
 40
5.4077650000000004
 50
160.78000900000001
 51
170.0769159999999
  0
ARC
  5
1B5
  8
0
 62
     7
 10
91.967489000000015
 20
201.21631599999989
 30
0.0
 40
0.090612
 50
95.480243000000016
 51
135.70178799999991
  0
ARC
  5
1B6
  8
0
 62
     7
 10
92.353605999999985
 20
199.6420249999999
 30
0.0
 40
1.710661999999999
 50
93.048501000000016
 51
103.342423
  0
ARC
  5
1B7
  8
0
 62
     7
 10
93.512957999999998
 20
185.0889139999999
 30
0.0
 40
16.309349999999998
 50
91.020462000000009
 51
94.396782999999999
  0
ARC
  5
1B8
  8
0
 62
     7
 10
95.101504999999989
 20
115.7016739999999
 30
0.0
 40
85.714601999999999
 50
89.722680000000011
 51
91.256111999999987
  0
ARC
  5
1B9
  8
0
 62
     7
 10
94.502001000000007
 20
-102.4597879999999
 30
0.0
 40
303.87675200000001
 50
88.987695000000002
 51
89.808732999999975
  0
ARC
  5
1BA
  8
0
 62
     7
 10
90.504721999999987
 20
-363.50299999999999
 30
0.0
 40
564.95017699999994
 50
88.604415999999986
 51
89.050085999999993
  0
LINE
  5
1BB
  8
0
 62
     7
 10
92.557199999999995
 20
201.96199999999999
 30
0.0
 11
92.318100000000015
 21
201.36500000000001
 31
0.0
  0
LINE
  5
1BC
  8
0
 62
     7
 10
100.2399999999999
 20
201.36500000000001
 30
0.0
 11
100.001
 21
201.96199999999999
 31
0.0
  0
LINE
  5
1BD
  8
0
 62
     7
 10
119.0929999999999
 20
194.43199999999999
 30
0.0
 11
106.474
 21
194.43199999999999
 31
0.0
  0
LINE
  5
1BE
  8
0
 62
     7
 10
106.474
 20
200.83199999999991
 30
0.0
 11
119.0929999999999
 21
200.83199999999991
 31
0.0
  0
LINE
  5
1BF
  8
0
 62
     7
 10
99.479500000000002
 20
215.89699999999999
 30
0.0
 11
99.479500000000002
 21
204.0799999999999
 31
0.0
  0
LINE
  5
1C0
  8
0
 62
     7
 10
93.079099999999997
 20
204.0799999999999
 30
0.0
 11
93.079099999999997
 21
215.89699999999999
 31
0.0
  0
LINE
  5
1C1
  8
0
 62
     7
 10
91.526399999999995
 20
192.03200000000001
 30
0.0
 11
92.043899999999994
 21
183.35599999999999
 31
0.0
  0
ARC
  5
1C2
  8
0
 62
     7
 10
94.864975999999984
 20
183.60678899999991
 30
0.0
 40
2.8322269999999992
 50
185.08297899999991
 51
191.43681299999989
  0
ARC
  5
1C3
  8
0
 62
     7
 10
96.609389000000007
 20
183.88530499999999
 30
0.0
 40
4.5978079999999997
 50
190.52822800000001
 51
210.88950199999991
  0
ARC
  5
1C4
  8
0
 62
     7
 10
95.242856000000003
 20
183.12995499999991
 30
0.0
 40
3.037787999999999
 50
211.89570599999999
 51
233.962872
  0
ARC
  5
1C5
  8
0
 62
     7
 10
98.371709999999993
 20
187.65290100000001
 30
0.0
 40
8.5369410000000006
 50
234.84070199999991
 51
243.15937099999999
  0
ARC
  5
1C6
  8
0
 62
     7
 10
96.258538999999999
 20
183.59449499999999
 30
0.0
 40
3.9620009999999999
 50
243.92723699999999
 51
270.30044600000002
  0
ARC
  5
1C7
  8
0
 62
     7
 10
96.284048999999996
 20
186.988812
 30
0.0
 40
7.3562649999999987
 50
269.96312999999992
 51
273.90843199999989
  0
ARC
  5
1C8
  8
0
 62
     7
 10
96.474242000000004
 20
183.7122709999999
 30
0.0
 40
4.0745189999999996
 50
274.38070699999997
 51
296.36850199999992
  0
ARC
  5
1C9
  8
0
 62
     7
 10
95.551568000000003
 20
185.6714419999999
 30
0.0
 40
6.2397999999999989
 50
295.96928600000001
 51
305.681669
  0
ARC
  5
1CA
  8
0
 62
     7
 10
97.590443000000008
 20
182.87135900000001
 30
0.0
 40
2.776233
 50
305.20943899999997
 51
330.27673299999998
  0
ARC
  5
1CB
  8
0
 62
     7
 10
96.140096999999997
 20
183.78555600000001
 30
0.0
 40
4.4896500000000001
 50
329.32187399999998
 51
354.507902
  0
LINE
  5
1CC
  8
0
 62
     7
 10
100.6089999999999
 20
183.35599999999999
 30
0.0
 11
101.127
 21
192.03200000000001
 31
0.0
  0
LINE
  5
1CD
  8
_________2
 62
     7
 10
205.30099999999999
 20
127.411
 30
0.0
 11
183.55000000000001
 21
127.411
 31
0.0
  0
LINE
  5
1CE
  8
_________2
 62
     7
 10
100.2999999999999
 20
-4.0910799999999998
 30
0.0
 11
100.2999999999999
 21
-21.071400000000001
 31
0.0
  0
LINE
  5
1CF
  8
_________2
 62
     7
 10
100.2999999999999
 20
275.93099999999993
 30
0.0
 11
100.2999999999999
 21
258.911
 31
0.0
  0
LINE
  5
1D0
  8
_________2
 62
     7
 10
17.049499999999998
 20
127.411
 30
0.0
 11
-4.70052
 21
127.411
 31
0.0
  0
LINE
  5
1D1
  8
_________2
 62
     7
 10
76.741
 20
29.8047
 30
0.0
 11
74.554699999999997
 21
29.8047
 31
0.0
  0
LINE
  5
1D2
  8
_________2
 62
     7
 10
77.233699999999999
 20
29.8047
 30
0.0
 11
76.981499999999997
 21
29.8047
 31
0.0
  0
LINE
  5
1D3
  8
_________2
 62
     7
 10
77.726299999999995
 20
29.8047
 30
0.0
 11
80.651200000000003
 21
29.8047
 31
0.0
  0
LINE
  5
1D4
  8
_________2
 62
     7
 10
77.233699999999999
 20
29.8047
 30
0.0
 11
77.485500000000002
 21
29.8047
 31
0.0
  0
LINE
  5
1D5
  8
_________2
 62
     7
 10
70.837100000000007
 20
29.8047
 30
0.0
 11
68.650499999999994
 21
29.8047
 31
0.0
  0
LINE
  5
1D6
  8
_________2
 62
     7
 10
71.329400000000007
 20
29.8047
 30
0.0
 11
71.077600000000004
 21
29.8047
 31
0.0
  0
LINE
  5
1D7
  8
_________2
 62
     7
 10
71.329400000000007
 20
30.2974
 30
0.0
 11
71.329400000000007
 21
32.484400000000001
 31
0.0
  0
LINE
  5
1D8
  8
_________2
 62
     7
 10
71.329400000000007
 20
29.8047
 30
0.0
 11
71.329400000000007
 21
30.056899999999992
 31
0.0
  0
LINE
  5
1D9
  8
_________2
 62
     7
 10
71.822100000000006
 20
29.8047
 30
0.0
 11
74.009
 21
29.8047
 31
0.0
  0
LINE
  5
1DA
  8
_________2
 62
     7
 10
71.329400000000007
 20
29.8047
 30
0.0
 11
71.581599999999995
 21
29.8047
 31
0.0
  0
LINE
  5
1DB
  8
_________2
 62
     7
 10
71.329400000000007
 20
29.312799999999999
 30
0.0
 11
71.329400000000007
 21
27.125800000000002
 31
0.0
  0
LINE
  5
1DC
  8
_________2
 62
     7
 10
71.329400000000007
 20
29.8047
 30
0.0
 11
71.329400000000007
 21
29.5532
 31
0.0
  0
LINE
  5
1DD
  8
_________2
 62
     7
 10
75.040499999999994
 20
28.5852
 30
0.0
 11
80.218500000000006
 21
27.720400000000001
 31
0.0
  0
LINE
  5
1DE
  8
_________2
 62
     7
 10
75.040499999999994
 20
31.0243
 30
0.0
 11
80.218500000000006
 21
31.889700000000001
 31
0.0
  0
LINE
  5
1DF
  8
_________2
 62
     7
 10
80.218500000000006
 20
27.720400000000001
 30
0.0
 11
80.218500000000006
 21
31.889700000000001
 31
0.0
  0
LINE
  5
1E0
  8
_________2
 62
     7
 10
75.040499999999994
 20
28.5852
 30
0.0
 11
75.040499999999994
 21
31.0243
 31
0.0
  0
ARC
  5
1E1
  8
_________2
 62
     7
 10
71.28285600000001
 20
29.757811
 30
0.0
 40
1.2673589999999999
 50
2.122214
 51
87.893958999999995
  0
ARC
  5
1E2
  8
_________2
 62
     7
 10
71.375959999999992
 20
29.758213000000001
 30
0.0
 40
1.2669559999999991
 50
92.104701000000006
 51
177.8952689999999
  0
ARC
  5
1E3
  8
_________2
 62
     7
 10
71.376357999999996
 20
29.851671
 30
0.0
 40
1.2673680000000001
 50
182.12203600000001
 51
267.877993
  0
ARC
  5
1E4
  8
_________2
 62
     7
 10
71.282531999999989
 20
29.851998999999989
 30
0.0
 40
1.267695999999999
 50
272.12015300000002
 51
357.863674
  0
ARC
  5
1E5
  8
_________2
 62
     7
 10
71.329430000000002
 20
29.804742999999998
 30
0.0
 40
2.0849849999999992
 50
0.00001
 51
89.999980000000008
  0
ARC
  5
1E6
  8
_________2
 62
     7
 10
71.329603000000006
 20
29.804915000000001
 30
0.0
 40
2.084813
 50
90.004733999999999
 51
180.00474399999999
  0
ARC
  5
1E7
  8
_________2
 62
     7
 10
71.409106000000008
 20
29.884775999999999
 30
0.0
 40
2.1657950000000001
 50
182.11776599999999
 51
267.89173399999999
  0
ARC
  5
1E8
  8
_________2
 62
     7
 10
71.249459000000002
 20
29.885429999999989
 30
0.0
 40
2.1664590000000001
 50
272.11546800000002
 51
357.86560400000002
  0
TEXT
  5
1E9
  8
_________2
 62
     7
 10
104.605
 20
1.6794899999999999
 30
0.0
 40
3.0923400000000001
  1
図番
 41
0.5
  0
LINE
  5
1EA
  8
_________2
 62
     7
 10
103.55
 20
5.9087199999999989
 30
0.0
 11
183.55099999999999
 21
5.9087199999999989
 31
0.0
  0
TEXT
  5
1EB
  8
_________2
 62
     7
 10
104.605
 20
11.679299999999991
 30
0.0
 40
3.0923400000000001
  1
品番
 41
0.5
  0
TEXT
  5
1EC
  8
_________2
 62
     7
 10
104.605
 20
31.818100000000001
 30
0.0
 40
3.0923400000000001
  1
名称
 41
0.5
  0
TEXT
  5
1ED
  8
_________2
 62
     7
 10
91.845058333333341
 20
26.821999999999989
 30
0.0
 40
3.6545800000000002
  1
mm
 41
0.5
 72
     1
 11
93.367800000000003
 21
26.821999999999989
 31
0.0
  0
TEXT
  5
1EE
  8
_________2
 62
     7
 10
85.643199999999993
 20
31.818100000000001
 30
0.0
 40
3.0923400000000001
  1
単位
 41
0.5
  0
TEXT
  5
1EF
  8
_________2
 62
     7
 10
85.643199999999993
 20
19.410799999999991
 30
0.0
 40
3.0923400000000001
  1
尺度
 41
0.5
  0
TEXT
  5
1F0
  8
_________2
 62
     7
 10
90.548758666666686
 20
13.2179
 30
0.0
 40
3.6545800000000002
  1
1 ： 5
 41
0.5
 72
     1
 11
93.959699999999998
 21
13.2179
 31
0.0
  0
TEXT
  5
1F1
  8
_________2
 62
     7
 10
136.9905
 20
9.1078600000000005
 30
0.0
 40
3.9357000000000002
  1
CET526R
 41
0.5
 72
     1
 11
143.55000000000001
 21
9.1078600000000005
 31
0.0
  0
TEXT
  5
1F2
  8
_________2
 62
     7
 10
136.9905
 20
-0.8926299999999999
 30
0.0
 40
3.9357000000000002
  1
CET526R
 41
0.5
 72
     1
 11
143.55000000000001
 21
-0.8926299999999999
 31
0.0
  0
TEXT
  5
1F3
  8
_________2
 62
     7
 10
24.5868
 20
0.707283
 30
0.0
 40
3.9357000000000002
  1
ヨーロッパ製洗面器用
 41
0.5
  0
TEXT
  5
1F4
  8
_________2
 62
     7
 10
109.179
 20
24.2257
 30
0.0
 40
3.9357000000000002
  1
ボトルトラップ（32mm）
 41
0.5
  0
TEXT
  5
1F5
  8
_________2
 62
     7
 10
39.364390666666658
 20
13.603
 30
0.0
 40
3.6545800000000002
  1
高橋
 41
0.5
 72
     1
 11
41.313499999999998
 21
13.603
 31
0.0
  0
TEXT
  5
1F6
  8
_________2
 62
     7
 10
20.790090666666661
 20
13.603
 30
0.0
 40
3.6545800000000002
  1
石原
 41
0.5
 72
     1
 11
22.73919999999999
 21
13.603
 31
0.0
  0
TEXT
  5
1F7
  8
_________2
 62
     7
 10
67.785399999999996
 20
13.2179
 30
0.0
 40
3.6545800000000002
  1
07.10.30
 41
0.5
  0
TEXT
  5
1F8
  8
_________2
 62
     7
 10
66.593100000000007
 20
19.410799999999991
 30
0.0
 40
3.0923400000000001
  1
日付
 41
0.5
  0
TEXT
  5
1F9
  8
_________2
 62
     7
 10
29.639399999999998
 20
19.410799999999991
 30
0.0
 40
3.0923400000000001
  1
検図
 41
0.5
  0
TEXT
  5
1FA
  8
_________2
 62
     7
 10
18.021100000000001
 20
5.21143
 30
0.0
 40
3.0923400000000001
  1
備考
 41
0.5
  0
TEXT
  5
1FB
  8
_________2
 62
     7
 10
18.021100000000001
 20
19.410799999999991
 30
0.0
 40
3.0923400000000001
  1
製図
 41
0.5
  0
TEXT
  5
1FC
  8
_________2
 62
     7
 10
23.788465333333338
 20
27.936800000000002
 30
0.0
 40
4.4979399999999989
  1
セラトレーディング株式会社
 41
0.5
 72
     1
 11
41.180500000000002
 21
27.936800000000002
 31
0.0
  0
LINE
  5
1FD
  8
_________2
 62
     7
 10
183.55099999999999
 20
-4.0910799999999998
 30
0.0
 11
17.049499999999998
 21
-4.0910799999999998
 31
0.0
  0
LINE
  5
1FE
  8
_________2
 62
     7
 10
17.049499999999998
 20
-4.0910799999999998
 30
0.0
 11
17.049499999999998
 21
258.911
 31
0.0
  0
LINE
  5
1FF
  8
_________2
 62
     7
 10
17.049499999999998
 20
258.911
 30
0.0
 11
183.55099999999999
 21
258.911
 31
0.0
  0
LINE
  5
200
  8
_________2
 62
     7
 10
183.55099999999999
 20
258.911
 30
0.0
 11
183.55099999999999
 21
-4.0910799999999998
 31
0.0
  0
LINE
  5
201
  8
_________2
 62
     7
 10
65.549599999999998
 20
9.4089600000000004
 30
0.0
 11
65.549599999999998
 21
35.908799999999999
 31
0.0
  0
LINE
  5
202
  8
_________2
 62
     7
 10
84.549700000000016
 20
9.4089600000000004
 30
0.0
 11
84.549700000000016
 21
35.908799999999999
 31
0.0
  0
LINE
  5
203
  8
_________2
 62
     7
 10
103.55
 20
-4.0910799999999998
 30
0.0
 11
103.55
 21
35.908799999999999
 31
0.0
  0
LINE
  5
204
  8
_________2
 62
     7
 10
28.549299999999992
 20
9.4089600000000004
 30
0.0
 11
28.549299999999992
 21
23.409199999999998
 31
0.0
  0
LINE
  5
205
  8
_________2
 62
     7
 10
17.049499999999998
 20
9.4089600000000004
 30
0.0
 11
103.55
 21
9.4089600000000004
 31
0.0
  0
LINE
  5
206
  8
_________2
 62
     7
 10
17.049499999999998
 20
23.409199999999998
 30
0.0
 11
103.55
 21
23.409199999999998
 31
0.0
  0
LINE
  5
207
  8
_________2
 62
     7
 10
103.55
 20
15.9085
 30
0.0
 11
183.55099999999999
 21
15.9085
 31
0.0
  0
LINE
  5
208
  8
_________2
 62
     7
 10
17.049499999999998
 20
35.908799999999999
 30
0.0
 11
183.55099999999999
 21
35.908799999999999
 31
0.0
  0
ENDSEC
  0
EOF
