  0
SECTION
  2
HEADER
  9
$ACADVER
  1
AC1009
  9
$INSBASE
 10
0.0
 20
0.0
 30
0.0
  9
$EXTMIN
 10
-4.7001699999999991
 20
-21.070999999999991
 30
0.0
  9
$EXTMAX
 10
205.30099999999999
 20
275.93099999999993
 30
0.0
  9
$LIMMIN
 10
0.0
 20
0.0
  9
$LIMMAX
 10
12.0
 20
9.0
  9
$ORTHOMODE
 70
     0
  9
$REGENMODE
 70
     1
  9
$FILLMODE
 70
     1
  9
$QTEXTMODE
 70
     0
  9
$MIRRTEXT
 70
     1
  9
$DRAGMODE
 70
     2
  9
$LTSCALE
 40
1.0
  9
$OSMODE
 70
    37
  9
$ATTMODE
 70
     1
  9
$TEXTSIZE
 40
0.0
  9
$TRACEWID
 40
0.05
  9
$TEXTSTYLE
  7
STANDARD
  9
$CLAYER
  8
0
  9
$CELTYPE
  6
CONTINUOUS
  9
$CECOLOR
 62
   256
  9
$DIMSCALE
 40
1.0
  9
$DIMASZ
 40
0.18
  9
$DIMEXO
 40
0.0625
  9
$DIMDLI
 40
0.38
  9
$DIMRND
 40
0.0
  9
$DIMDLE
 40
0.0
  9
$DIMEXE
 40
0.18
  9
$DIMTP
 40
0.0
  9
$DIMTM
 40
0.0
  9
$DIMTXT
 40
0.18
  9
$DIMCEN
 40
0.09
  9
$DIMTSZ
 40
0.0
  9
$DIMTOL
 70
     0
  9
$DIMLIM
 70
     0
  9
$DIMTIH
 70
     1
  9
$DIMTOH
 70
     1
  9
$DIMSE1
 70
     0
  9
$DIMSE2
 70
     0
  9
$DIMTAD
 70
     0
  9
$DIMZIN
 70
     0
  9
$DIMBLK
  1

  9
$DIMASO
 70
     1
  9
$DIMSHO
 70
     1
  9
$DIMPOST
  1

  9
$DIMAPOST
  1

  9
$DIMALT
 70
     0
  9
$DIMALTD
 70
     2
  9
$DIMALTF
 40
25.399999999999999
  9
$DIMLFAC
 40
1.0
  9
$DIMTOFL
 70
     0
  9
$DIMTVP
 40
0.0
  9
$DIMTIX
 70
     0
  9
$DIMSOXD
 70
     0
  9
$DIMSAH
 70
     0
  9
$DIMBLK1
  1

  9
$DIMBLK2
  1

  9
$DIMSTYLE
  2
STANDARD
  9
$DIMCLRD
 70
     0
  9
$DIMCLRE
 70
     0
  9
$DIMCLRT
 70
     0
  9
$DIMTFAC
 40
1.0
  9
$DIMGAP
 40
0.09
  9
$LUNITS
 70
     2
  9
$LUPREC
 70
     4
  9
$SKETCHINC
 40
0.1
  9
$FILLETRAD
 40
0.0
  9
$AUNITS
 70
     0
  9
$AUPREC
 70
     0
  9
$MENU
  1
.
  9
$ELEVATION
 40
0.0
  9
$PELEVATION
 40
0.0
  9
$THICKNESS
 40
0.0
  9
$LIMCHECK
 70
     0
  9
$BLIPMODE
 70
     0
  9
$CHAMFERA
 40
0.0
  9
$CHAMFERB
 40
0.0
  9
$SKPOLY
 70
     0
  9
$TDCREATE
 40
2444972.375
  9
$TDUPDATE
 40
2456309.435954039
  9
$TDINDWG
 40
0.0000062037
  9
$TDUSRTIMER
 40
0.0000062037
  9
$USRTIMER
 70
     1
  9
$ANGBASE
 50
0.0
  9
$ANGDIR
 70
     0
  9
$PDMODE
 70
     0
  9
$PDSIZE
 40
0.0
  9
$PLINEWID
 40
0.0
  9
$COORDS
 70
     1
  9
$SPLFRAME
 70
     0
  9
$SPLINETYPE
 70
     6
  9
$SPLINESEGS
 70
     8
  9
$ATTDIA
 70
     0
  9
$ATTREQ
 70
     1
  9
$HANDLING
 70
     1
  9
$HANDSEED
  5
145
  9
$SURFTAB1
 70
     6
  9
$SURFTAB2
 70
     6
  9
$SURFTYPE
 70
     6
  9
$SURFU
 70
     6
  9
$SURFV
 70
     6
  9
$UCSNAME
  2

  9
$UCSORG
 10
0.0
 20
0.0
 30
0.0
  9
$UCSXDIR
 10
1.0
 20
0.0
 30
0.0
  9
$UCSYDIR
 10
0.0
 20
1.0
 30
0.0
  9
$PUCSNAME
  2

  9
$PUCSORG
 10
0.0
 20
0.0
 30
0.0
  9
$PUCSXDIR
 10
1.0
 20
0.0
 30
0.0
  9
$PUCSYDIR
 10
0.0
 20
1.0
 30
0.0
  9
$USERI1
 70
     0
  9
$USERI2
 70
     0
  9
$USERI3
 70
     0
  9
$USERI4
 70
     0
  9
$USERI5
 70
     0
  9
$USERR1
 40
0.0
  9
$USERR2
 40
0.0
  9
$USERR3
 40
0.0
  9
$USERR4
 40
0.0
  9
$USERR5
 40
0.0
  9
$WORLDVIEW
 70
     1
  9
$SHADEDGE
 70
     3
  9
$SHADEDIF
 70
    70
  9
$TILEMODE
 70
     1
  9
$MAXACTVP
 70
    48
  9
$PLIMCHECK
 70
     0
  9
$PEXTMIN
 10
1.0000000000000000E+020
 20
1.0000000000000000E+020
 30
1.0000000000000000E+020
  9
$PEXTMAX
 10
-1.0000000000000000E+020
 20
-1.0000000000000000E+020
 30
-1.0000000000000000E+020
  9
$PLIMMIN
 10
0.0
 20
0.0
  9
$PLIMMAX
 10
12.0
 20
9.0
  9
$UNITMODE
 70
     0
  9
$VISRETAIN
 70
     1
  9
$PLINEGEN
 70
     0
  9
$PSLTSCALE
 70
     1
  0
ENDSEC
  0
SECTION
  2
TABLES
  0
TABLE
  2
VPORT
 70
     2
  0
VPORT
  2
*ACTIVE
 70
     0
 10
0.0
 20
0.0
 11
1.0
 21
1.0
 12
205.3107190675243
 22
127.42999999999989
 13
0.0
 23
0.0
 14
1.0
 24
1.0
 15
0.0
 25
0.0
 16
0.0
 26
0.0
 36
1.0
 17
0.0
 27
0.0
 37
0.0
 40
299.24634760705283
 41
2.2894736842105261
 42
50.0
 43
0.0
 44
0.0
 50
0.0
 51
0.0
 71
     0
 72
   100
 73
     1
 74
     1
 75
     0
 76
     0
 77
     0
 78
     0
  0
ENDTAB
  0
TABLE
  2
LTYPE
 70
     2
  0
LTYPE
  2
CONTINUOUS
 70
     0
  3
Solid line
 72
    65
 73
     0
 40
0.0
  0
LTYPE
  2
AIGENLINE001
 70
     0
  3
generate AI->DXF Converter
 72
    65
 73
     4
 40
10.300112
 49
8.0000600000000013
 49
-0.700021
 49
0.9000100000000001
 49
-0.700021
  0
ENDTAB
  0
TABLE
  2
LAYER
 70
     2
  0
LAYER
  2
0
 70
     0
 62
     7
  6
CONTINUOUS
  0
LAYER
  2
_________2
 70
     0
 62
     7
  6
CONTINUOUS
  0
ENDTAB
  0
TABLE
  2
STYLE
 70
     1
  0
STYLE
  2
STANDARD
 70
     0
 40
0.0
 41
0.0
 50
0.0
 71
     0
 42
0.0
  3
TXT
  4
EXTFONT.SHX
  0
ENDTAB
  0
TABLE
  2
VIEW
 70
     0
  0
ENDTAB
  0
TABLE
  2
UCS
 70
     0
  0
ENDTAB
  0
TABLE
  2
APPID
 70
     1
  0
APPID
  2
ACAD
 70
     0
  0
ENDTAB
  0
TABLE
  2
DIMSTYLE
 70
     1
  0
DIMSTYLE
  2
STANDARD
 70
     0
  3

  4

  5

  6

  7

 40
1.0
 41
0.18
 42
0.0625
 43
0.38
 44
0.18
 45
0.0
 46
0.0
 47
0.0
 48
0.0
140
0.18
141
0.09
142
0.0
143
25.399999999999999
144
1.0
145
0.0
146
1.0
147
0.09
 71
     0
 72
     0
 73
     1
 74
     1
 75
     0
 76
     0
 77
     0
 78
     0
170
     0
171
     2
172
     0
173
     0
174
     0
175
     0
176
     0
177
     0
178
     0
  0
ENDTAB
  0
ENDSEC
  0
SECTION
  2
BLOCKS
  0
BLOCK
  8
0
  2
$MODEL_SPACE
 70
     0
 10
0.0
 20
0.0
 30
0.0
  3
$MODEL_SPACE
  1

  0
ENDBLK
  5
1A
  8
0
  0
BLOCK
 67
     1
  8
0
  2
$PAPER_SPACE
 70
     0
 10
0.0
 20
0.0
 30
0.0
  3
$PAPER_SPACE
  1

  0
ENDBLK
  5
17
 67
     1
  8
0
  0
ENDSEC
  0
SECTION
  2
ENTITIES
  0
TEXT
  5
22
  8
0
 62
     7
 10
92.852080000000001
 20
158.95699999999991
 30
0.0
 40
3.0923400000000001
  1
%%c26
 41
0.5
 72
     2
 11
96.975200000000001
 21
158.95699999999991
 31
0.0
  0
TEXT
  5
23
  8
0
 62
     7
 10
70.207899999999995
 20
83.135799999999989
 30
0.0
 40
3.0923400000000001
  1
対辺8
 50
329.99900000000002
 41
0.5
  0
TEXT
  5
24
  8
0
 62
     7
 10
80.860309999999998
 20
102.78700000000001
 30
0.0
 40
3.0923400000000001
  1
P
 41
0.5
 72
     1
 11
81.375699999999995
 21
102.78700000000001
 31
0.0
  0
TEXT
  5
25
  8
0
 62
     7
 10
152.44221999999999
 20
160.93299999999991
 30
0.0
 40
3.0923400000000001
  1
12
 41
0.5
 72
     1
 11
153.4729999999999
 21
160.93299999999991
 31
0.0
  0
TEXT
  5
26
  8
0
 62
     7
 10
123.04028750000001
 20
109.2029999999999
 30
0.0
 40
3.0923400000000001
  1
320
 41
0.5
 72
     1
 11
124.973
 21
109.2029999999999
 31
0.0
  0
TEXT
  5
27
  8
0
 62
     7
 10
146.70500000000001
 20
132.27600000000001
 30
0.0
 40
3.0923400000000001
  1
%%c70
 50
90.0
 41
0.5
  0
TEXT
  5
28
  8
0
 62
     7
 10
83.160087499999989
 20
116.932
 30
0.0
 40
3.0923400000000001
  1
%%c40
 41
0.5
 72
     1
 11
85.092799999999997
 21
116.932
 31
0.0
  0
TEXT
  5
29
  8
0
 62
     7
 10
82.852569000000003
 20
69.175200000000004
 30
0.0
 40
3.0923400000000001
  1
P視
 41
0.5
 72
     1
 11
84.347200000000001
 21
69.175200000000004
 31
0.0
  0
TEXT
  5
2A
  8
0
 62
     7
 10
171.3829999999999
 20
144.82744
 30
0.0
 40
3.0923400000000001
  1
%%c32
 50
90.0
 41
0.5
 72
     1
 11
171.3829999999999
 21
146.88900000000001
 31
0.0
  0
TEXT
  5
2B
  8
0
 62
     7
 10
97.447696000000008
 20
119.087
 30
0.0
 40
3.0923400000000001
  1
掃除口付
 41
0.5
 72
     2
 11
104.45699999999989
 21
119.087
 31
0.0
  0
TEXT
  5
2C
  8
0
 62
     7
 10
81.416208999999995
 20
172.83799999999999
 30
0.0
 40
3.0923400000000001
  1
G1 1/4
 41
0.5
 72
     1
 11
84.972399999999993
 21
172.83799999999999
 31
0.0
  0
TEXT
  5
2D
  8
0
 62
     7
 10
68.911600000000007
 20
159.33182999999991
 30
0.0
 40
3.0923400000000001
  1
11
 50
90.0
 41
0.5
 72
     2
 11
68.911600000000007
 21
160.8779999999999
 31
0.0
  0
TEXT
  5
2E
  8
0
 62
     7
 10
68.911600000000007
 20
148.427525
 30
0.0
 40
3.0923400000000001
  1
22
 50
90.0
 41
0.5
 72
     1
 11
68.911600000000007
 21
149.71600000000001
 31
0.0
  0
TEXT
  5
2F
  8
0
 62
     7
 10
59.732100000000003
 20
135.427525
 30
0.0
 40
3.0923400000000001
  1
82
 50
90.0
 41
0.5
 72
     1
 11
59.732100000000003
 21
136.71600000000001
 31
0.0
  0
TEXT
  5
30
  8
0
 62
     7
 10
59.554699999999997
 20
152.4498055
 30
0.0
 40
3.0923400000000001
  1
50～100
 50
90.0
 41
0.5
 72
     1
 11
59.554699999999997
 21
156.34100000000001
 31
0.0
  0
ARC
  5
31
  8
0
 62
     7
 10
37.413154999999989
 20
146.87972899999991
 30
0.0
 40
8.9170259999999981
 50
0.5539950000000001
 51
54.585622999999998
  0
ARC
  5
32
  8
0
 62
     7
 10
37.426963999999991
 20
147.044904
 30
0.0
 40
8.9031509999999994
 50
305.36748299999988
 51
359.49186700000001
  0
ARC
  5
33
  8
0
 62
     7
 10
37.747039999999998
 20
147.05239499999999
 30
0.0
 40
8.9178560000000004
 50
180.5554459999999
 51
234.58834100000001
  0
ARC
  5
34
  8
0
 62
     7
 10
37.733783000000003
 20
146.8863189999999
 30
0.0
 40
8.9045369999999995
 50
125.370662
 51
179.48761499999989
  0
LINE
  5
35
  8
0
 62
     7
 10
83.344099999999997
 20
74.618799999999993
 30
0.0
 11
69.803799999999995
 21
82.435799999999986
 31
0.0
  0
LINE
  5
36
  8
0
 62
     7
 10
76.615799999999993
 20
77.811400000000006
 30
0.0
 11
78.827200000000005
 21
77.218900000000005
 31
0.0
  0
LINE
  5
37
  8
0
 62
     7
 10
78.827200000000005
 20
77.218900000000005
 30
0.0
 11
77.208399999999983
 21
78.837699999999998
 31
0.0
  0
LINE
  5
38
  8
0
 62
     7
 10
77.208399999999983
 20
78.837699999999998
 30
0.0
 11
76.615799999999993
 21
77.811400000000006
 31
0.0
  0
LINE
  5
39
  8
0
 62
     7
 10
82.771000000000001
 20
75.625799999999998
 30
0.0
 11
80.559200000000004
 21
76.218699999999998
 31
0.0
  0
LINE
  5
3A
  8
0
 62
     7
 10
80.559200000000004
 20
76.218699999999998
 30
0.0
 11
82.178399999999996
 21
74.599500000000006
 31
0.0
  0
LINE
  5
3B
  8
0
 62
     7
 10
82.178399999999996
 20
74.599500000000006
 30
0.0
 11
82.771000000000001
 21
75.625799999999998
 31
0.0
  0
LINE
  5
3C
  8
0
 62
     7
 10
84.572599999999994
 20
83.170000000000002
 30
0.0
 11
82.615799999999993
 21
79.780600000000007
 31
0.0
  0
LINE
  5
3D
  8
0
 62
     7
 10
82.615799999999993
 20
79.780600000000007
 30
0.0
 11
80.307199999999995
 21
75.782200000000003
 31
0.0
  0
LINE
  5
3E
  8
0
 62
     7
 10
78.575199999999995
 20
76.782399999999996
 30
0.0
 11
80.883799999999994
 21
80.780799999999985
 31
0.0
  0
LINE
  5
3F
  8
0
 62
     7
 10
80.883799999999994
 20
80.780799999999985
 30
0.0
 11
82.840599999999995
 21
84.170100000000005
 31
0.0
  0
LINE
  5
40
  8
0
 62
     7
 10
81.724900000000005
 20
108.45
 30
0.0
 11
81.132699999999986
 21
110.661
 31
0.0
  0
LINE
  5
41
  8
0
 62
     7
 10
81.132699999999986
 20
110.661
 30
0.0
 11
80.540300000000002
 21
108.45
 31
0.0
  0
LINE
  5
42
  8
0
 62
     7
 10
80.540300000000002
 20
108.45
 30
0.0
 11
81.724900000000005
 21
108.45
 31
0.0
  0
LINE
  5
43
  8
0
 62
     7
 10
81.132699999999986
 20
110.661
 30
0.0
 11
81.132699999999986
 21
106.26600000000001
 31
0.0
  0
LINE
  5
44
  8
0
 62
     7
 10
148.40999999999991
 20
153.46899999999991
 30
0.0
 11
147.8179999999999
 21
155.68000000000001
 31
0.0
  0
LINE
  5
45
  8
0
 62
     7
 10
147.8179999999999
 20
155.68000000000001
 30
0.0
 11
147.226
 21
153.46899999999991
 31
0.0
  0
LINE
  5
46
  8
0
 62
     7
 10
147.226
 20
153.46899999999991
 30
0.0
 11
148.40999999999991
 21
153.46899999999991
 31
0.0
  0
LINE
  5
47
  8
0
 62
     7
 10
147.24000000000001
 20
140.42699999999999
 30
0.0
 11
147.83199999999991
 21
138.21600000000001
 31
0.0
  0
LINE
  5
48
  8
0
 62
     7
 10
147.83199999999991
 20
138.21600000000001
 30
0.0
 11
148.42500000000001
 21
140.42699999999999
 31
0.0
  0
LINE
  5
49
  8
0
 62
     7
 10
148.42500000000001
 20
140.42699999999999
 30
0.0
 11
147.24000000000001
 21
140.42699999999999
 31
0.0
  0
LINE
  5
4A
  8
0
 62
     7
 10
147.8249999999999
 20
155.68000000000001
 30
0.0
 11
147.8249999999999
 21
132.27600000000001
 31
0.0
  0
LINE
  5
4B
  8
0
 62
     7
 10
151.30699999999999
 20
138.21600000000001
 30
0.0
 11
147.328
 21
138.21600000000001
 31
0.0
  0
LINE
  5
4C
  8
0
 62
     7
 10
151.27299999999991
 20
155.71600000000001
 30
0.0
 11
147.25999999999991
 21
155.71600000000001
 31
0.0
  0
LINE
  5
4D
  8
0
 62
     7
 10
173.35299999999989
 20
142.96600000000001
 30
0.0
 11
165.673
 21
142.96600000000001
 31
0.0
  0
LINE
  5
4E
  8
0
 62
     7
 10
173.35299999999989
 20
150.96600000000001
 30
0.0
 11
165.673
 21
150.96600000000001
 31
0.0
  0
LINE
  5
4F
  8
0
 62
     7
 10
173.27699999999999
 20
148.7359999999999
 30
0.0
 11
172.68499999999989
 21
150.94599999999991
 31
0.0
  0
LINE
  5
50
  8
0
 62
     7
 10
172.68499999999989
 20
150.94599999999991
 30
0.0
 11
172.0929999999999
 21
148.7359999999999
 31
0.0
  0
LINE
  5
51
  8
0
 62
     7
 10
172.0929999999999
 20
148.7359999999999
 30
0.0
 11
173.27699999999999
 21
148.7359999999999
 31
0.0
  0
LINE
  5
52
  8
0
 62
     7
 10
172.107
 20
145.21899999999991
 30
0.0
 11
172.69900000000001
 21
143.0089999999999
 31
0.0
  0
LINE
  5
53
  8
0
 62
     7
 10
172.69900000000001
 20
143.0089999999999
 30
0.0
 11
173.29099999999991
 21
145.21899999999991
 31
0.0
  0
LINE
  5
54
  8
0
 62
     7
 10
173.29099999999991
 20
145.21899999999991
 30
0.0
 11
172.107
 21
145.21899999999991
 31
0.0
  0
LINE
  5
55
  8
0
 62
     7
 10
172.69199999999989
 20
150.94599999999991
 30
0.0
 11
172.69199999999989
 21
143.0089999999999
 31
0.0
  0
LINE
  5
56
  8
0
 62
     7
 10
90.432599999999994
 20
158.28200000000001
 30
0.0
 11
88.222199999999987
 21
157.69
 31
0.0
  0
LINE
  5
57
  8
0
 62
     7
 10
88.222199999999987
 20
157.69
 30
0.0
 11
90.432599999999994
 21
157.0979999999999
 31
0.0
  0
LINE
  5
58
  8
0
 62
     7
 10
90.432599999999994
 20
157.0979999999999
 30
0.0
 11
90.432599999999994
 21
158.28200000000001
 31
0.0
  0
LINE
  5
59
  8
0
 62
     7
 10
79.511899999999997
 20
157.11199999999999
 30
0.0
 11
81.722300000000004
 21
157.70400000000001
 31
0.0
  0
LINE
  5
5A
  8
0
 62
     7
 10
81.722300000000004
 20
157.70400000000001
 30
0.0
 11
79.511899999999997
 21
158.29699999999991
 31
0.0
  0
LINE
  5
5B
  8
0
 62
     7
 10
79.511899999999997
 20
158.29699999999991
 30
0.0
 11
79.511899999999997
 21
157.11199999999999
 31
0.0
  0
LINE
  5
5C
  8
0
 62
     7
 10
78.336500000000001
 20
157.697
 30
0.0
 11
96.975200000000001
 21
157.697
 31
0.0
  0
LINE
  5
5D
  8
0
 62
     7
 10
89.657799999999995
 20
124.73999999999999
 30
0.0
 11
88.155600000000007
 21
126.46599999999999
 31
0.0
  0
LINE
  5
5E
  8
0
 62
     7
 10
88.155600000000007
 20
126.46599999999999
 30
0.0
 11
88.593400000000017
 21
124.2199999999999
 31
0.0
  0
LINE
  5
5F
  8
0
 62
     7
 10
88.593400000000017
 20
124.2199999999999
 30
0.0
 11
89.657799999999995
 21
124.73999999999999
 31
0.0
  0
LINE
  5
60
  8
0
 62
     7
 10
92.120199999999997
 20
117.96599999999999
 30
0.0
 11
88.155600000000007
 21
126.46599999999999
 31
0.0
  0
LINE
  5
61
  8
0
 62
     7
 10
92.120199999999997
 20
117.96599999999999
 30
0.0
 11
104.286
 21
117.96599999999999
 31
0.0
  0
LINE
  5
62
  8
0
 62
     7
 10
87.761799999999994
 20
171.203
 30
0.0
 11
89.972300000000004
 21
171.7949999999999
 31
0.0
  0
LINE
  5
63
  8
0
 62
     7
 10
89.972300000000004
 20
171.7949999999999
 30
0.0
 11
87.761799999999994
 21
172.38800000000001
 31
0.0
  0
LINE
  5
64
  8
0
 62
     7
 10
87.761799999999994
 20
172.38800000000001
 30
0.0
 11
87.761799999999994
 21
171.203
 31
0.0
  0
LINE
  5
65
  8
0
 62
     7
 10
82.1828
 20
172.37299999999991
 30
0.0
 11
79.972399999999993
 21
171.78099999999989
 31
0.0
  0
LINE
  5
66
  8
0
 62
     7
 10
79.972399999999993
 20
171.78099999999989
 30
0.0
 11
82.1828
 21
171.18899999999999
 31
0.0
  0
LINE
  5
67
  8
0
 62
     7
 10
82.1828
 20
171.18899999999999
 30
0.0
 11
82.1828
 21
172.37299999999991
 31
0.0
  0
LINE
  5
68
  8
0
 62
     7
 10
89.972300000000004
 20
171.7879999999999
 30
0.0
 11
79.972399999999993
 21
171.7879999999999
 31
0.0
  0
LINE
  5
69
  8
0
 62
     7
 10
79.972399999999993
 20
166.416
 30
0.0
 11
79.972399999999993
 21
172.48799999999989
 31
0.0
  0
LINE
  5
6A
  8
0
 62
     7
 10
89.972300000000004
 20
166.416
 30
0.0
 11
89.972300000000004
 21
172.48799999999989
 31
0.0
  0
LINE
  5
6B
  8
0
 62
     7
 10
79.272300000000001
 20
152.46600000000001
 30
0.0
 11
69.102000000000004
 21
152.46600000000001
 31
0.0
  0
LINE
  5
6C
  8
0
 62
     7
 10
84.272400000000005
 20
146.96600000000001
 30
0.0
 11
59.886800000000001
 21
146.96600000000001
 31
0.0
  0
LINE
  5
6D
  8
0
 62
     7
 10
79.272300000000001
 20
165.71599999999989
 30
0.0
 11
60.053400000000003
 21
165.71599999999989
 31
0.0
  0
LINE
  5
6E
  8
0
 62
     7
 10
61.03159999999999
 20
144.756
 30
0.0
 11
60.439399999999999
 21
146.96600000000001
 31
0.0
  0
LINE
  5
6F
  8
0
 62
     7
 10
60.439399999999999
 20
146.96600000000001
 30
0.0
 11
59.847000000000001
 21
144.756
 31
0.0
  0
LINE
  5
70
  8
0
 62
     7
 10
59.847000000000001
 20
144.756
 30
0.0
 11
61.03159999999999
 21
144.756
 31
0.0
  0
LINE
  5
71
  8
0
 62
     7
 10
61.03159999999999
 20
163.506
 30
0.0
 11
60.439399999999999
 21
165.71599999999989
 31
0.0
  0
LINE
  5
72
  8
0
 62
     7
 10
60.439399999999999
 20
165.71599999999989
 30
0.0
 11
59.847000000000001
 21
163.506
 31
0.0
  0
LINE
  5
73
  8
0
 62
     7
 10
59.847000000000001
 20
163.506
 30
0.0
 11
61.03159999999999
 21
163.506
 31
0.0
  0
LINE
  5
74
  8
0
 62
     7
 10
59.861699999999999
 20
149.17699999999999
 30
0.0
 11
60.453899999999997
 21
146.96600000000001
 31
0.0
  0
LINE
  5
75
  8
0
 62
     7
 10
60.453899999999997
 20
146.96600000000001
 30
0.0
 11
61.046300000000002
 21
149.17699999999999
 31
0.0
  0
LINE
  5
76
  8
0
 62
     7
 10
61.046300000000002
 20
149.17699999999999
 30
0.0
 11
59.861699999999999
 21
149.17699999999999
 31
0.0
  0
LINE
  5
77
  8
0
 62
     7
 10
59.861699999999999
 20
128.6929999999999
 30
0.0
 11
60.453899999999997
 21
126.4829999999999
 31
0.0
  0
LINE
  5
78
  8
0
 62
     7
 10
60.453899999999997
 20
126.4829999999999
 30
0.0
 11
61.046300000000002
 21
128.6929999999999
 31
0.0
  0
LINE
  5
79
  8
0
 62
     7
 10
61.046300000000002
 20
128.6929999999999
 30
0.0
 11
59.861699999999999
 21
128.6929999999999
 31
0.0
  0
LINE
  5
7A
  8
0
 62
     7
 10
60.446599999999997
 20
165.71599999999989
 30
0.0
 11
60.446599999999997
 21
126.4829999999999
 31
0.0
  0
LINE
  5
7B
  8
0
 62
     7
 10
70.196700000000007
 20
150.256
 30
0.0
 11
69.604500000000002
 21
152.46600000000001
 31
0.0
  0
LINE
  5
7C
  8
0
 62
     7
 10
69.604500000000002
 20
152.46600000000001
 30
0.0
 11
69.012100000000004
 21
150.256
 31
0.0
  0
LINE
  5
7D
  8
0
 62
     7
 10
69.012100000000004
 20
150.256
 30
0.0
 11
70.196700000000007
 21
150.256
 31
0.0
  0
LINE
  5
7E
  8
0
 62
     7
 10
69.026700000000005
 20
157.42699999999999
 30
0.0
 11
69.618899999999996
 21
155.21600000000001
 31
0.0
  0
LINE
  5
7F
  8
0
 62
     7
 10
69.618899999999996
 20
155.21600000000001
 30
0.0
 11
70.211299999999994
 21
157.42699999999999
 31
0.0
  0
LINE
  5
80
  8
0
 62
     7
 10
70.211299999999994
 20
157.42699999999999
 30
0.0
 11
69.026700000000005
 21
157.42699999999999
 31
0.0
  0
LINE
  5
81
  8
0
 62
     7
 10
69.026700000000005
 20
149.17699999999999
 30
0.0
 11
69.618899999999996
 21
146.96600000000001
 31
0.0
  0
LINE
  5
82
  8
0
 62
     7
 10
69.618899999999996
 20
146.96600000000001
 30
0.0
 11
70.211299999999994
 21
149.17699999999999
 31
0.0
  0
LINE
  5
83
  8
0
 62
     7
 10
70.211299999999994
 20
149.17699999999999
 30
0.0
 11
69.026700000000005
 21
149.17699999999999
 31
0.0
  0
LINE
  5
84
  8
0
 62
     7
 10
69.611699999999999
 20
160.8779999999999
 30
0.0
 11
69.611699999999999
 21
146.96600000000001
 31
0.0
  0
LINE
  5
85
  8
0
 62
     7
 10
79.272300000000001
 20
126.46599999999999
 30
0.0
 11
60.053400000000003
 21
126.46599999999999
 31
0.0
  0
LINE
  5
86
  8
0
 62
     7
 10
79.272300000000001
 20
155.21600000000001
 30
0.0
 11
69.102000000000004
 21
155.21600000000001
 31
0.0
  0
LINE
  5
87
  8
0
 62
     7
 10
149.76199999999989
 20
159.64799999999991
 30
0.0
 11
151.9729999999999
 21
160.24100000000001
 31
0.0
  0
LINE
  5
88
  8
0
 62
     7
 10
151.9729999999999
 20
160.24100000000001
 30
0.0
 11
149.76199999999989
 21
160.833
 31
0.0
  0
LINE
  5
89
  8
0
 62
     7
 10
149.76199999999989
 20
160.833
 30
0.0
 11
149.76199999999989
 21
159.64799999999991
 31
0.0
  0
LINE
  5
8A
  8
0
 62
     7
 10
157.18299999999999
 20
160.81899999999999
 30
0.0
 11
154.9729999999999
 21
160.227
 31
0.0
  0
LINE
  5
8B
  8
0
 62
     7
 10
154.9729999999999
 20
160.227
 30
0.0
 11
157.18299999999999
 21
159.6339999999999
 31
0.0
  0
LINE
  5
8C
  8
0
 62
     7
 10
157.18299999999999
 20
159.6339999999999
 30
0.0
 11
157.18299999999999
 21
160.81899999999999
 31
0.0
  0
LINE
  5
8D
  8
0
 62
     7
 10
158.79499999999999
 20
160.233
 30
0.0
 11
148.00200000000001
 21
160.233
 31
0.0
  0
LINE
  5
8E
  8
0
 62
     7
 10
154.9729999999999
 20
156.416
 30
0.0
 11
154.9729999999999
 21
160.7939999999999
 31
0.0
  0
LINE
  5
8F
  8
0
 62
     7
 10
151.9729999999999
 20
156.416
 30
0.0
 11
151.9729999999999
 21
160.7939999999999
 31
0.0
  0
LINE
  5
90
  8
0
 62
     7
 10
164.9729999999999
 20
107.38799999999991
 30
0.0
 11
164.9729999999999
 21
141.80199999999999
 31
0.0
  0
LINE
  5
91
  8
0
 62
     7
 10
87.239699999999985
 20
108.65899999999991
 30
0.0
 11
85.029300000000006
 21
108.06699999999999
 31
0.0
  0
LINE
  5
92
  8
0
 62
     7
 10
85.029300000000006
 20
108.06699999999999
 30
0.0
 11
87.239699999999985
 21
107.47499999999989
 31
0.0
  0
LINE
  5
93
  8
0
 62
     7
 10
87.239699999999985
 20
107.47499999999989
 30
0.0
 11
87.239699999999985
 21
108.65899999999991
 31
0.0
  0
LINE
  5
94
  8
0
 62
     7
 10
162.762
 20
107.4889999999999
 30
0.0
 11
164.9729999999999
 21
108.081
 31
0.0
  0
LINE
  5
95
  8
0
 62
     7
 10
164.9729999999999
 20
108.081
 30
0.0
 11
162.762
 21
108.6729999999999
 31
0.0
  0
LINE
  5
96
  8
0
 62
     7
 10
162.762
 20
108.6729999999999
 30
0.0
 11
162.762
 21
107.4889999999999
 31
0.0
  0
LINE
  5
97
  8
0
 62
     7
 10
85.029300000000006
 20
108.074
 30
0.0
 11
164.9729999999999
 21
108.074
 31
0.0
  0
LINE
  5
98
  8
0
 62
     7
 10
84.972399999999993
 20
120.0649999999999
 30
0.0
 11
84.972399999999993
 21
123.5419999999999
 31
0.0
  0
LINE
  5
99
  8
0
 62
     7
 10
84.972399999999993
 20
107.4679999999999
 30
0.0
 11
84.972399999999993
 21
113.78099999999991
 31
0.0
  0
LINE
  5
9A
  8
0
 62
     7
 10
89.972300000000004
 20
125.76600000000001
 30
0.0
 11
89.972300000000004
 21
114.7529999999999
 31
0.0
  0
LINE
  5
9B
  8
0
 62
     7
 10
79.972399999999993
 20
125.76600000000001
 30
0.0
 11
79.972399999999993
 21
114.7529999999999
 31
0.0
  0
LINE
  5
9C
  8
0
 62
     7
 10
82.1828
 20
116.0449999999999
 30
0.0
 11
79.972399999999993
 21
115.4529999999999
 31
0.0
  0
LINE
  5
9D
  8
0
 62
     7
 10
79.972399999999993
 20
115.4529999999999
 30
0.0
 11
82.1828
 21
114.861
 31
0.0
  0
LINE
  5
9E
  8
0
 62
     7
 10
82.1828
 20
114.861
 30
0.0
 11
82.1828
 21
116.0449999999999
 31
0.0
  0
LINE
  5
9F
  8
0
 62
     7
 10
87.761799999999994
 20
114.8749999999999
 30
0.0
 11
89.972300000000004
 21
115.4679999999999
 31
0.0
  0
LINE
  5
A0
  8
0
 62
     7
 10
89.972300000000004
 20
115.4679999999999
 30
0.0
 11
87.761799999999994
 21
116.06
 31
0.0
  0
LINE
  5
A1
  8
0
 62
     7
 10
87.761799999999994
 20
116.06
 30
0.0
 11
87.761799999999994
 21
114.8749999999999
 31
0.0
  0
LINE
  5
A2
  8
0
 62
     7
 10
79.972399999999993
 20
115.45999999999999
 30
0.0
 11
89.972300000000004
 21
115.45999999999999
 31
0.0
  0
LINE
  5
A3
  8
0
 62
     7
 10
85.501599999999996
 20
84.778800000000004
 30
0.0
 11
84.924400000000006
 21
83.779099999999985
 31
0.0
  0
LINE
  5
A4
  8
0
 62
     7
 10
84.923999999999992
 20
83.779099999999985
 30
0.0
 11
83.769900000000007
 21
83.779099999999985
 31
0.0
  0
LINE
  5
A5
  8
0
 62
     7
 10
83.769599999999997
 20
83.779399999999995
 30
0.0
 11
83.192300000000003
 21
84.779200000000003
 31
0.0
  0
LINE
  5
A6
  8
0
 62
     7
 10
83.192700000000016
 20
84.779499999999985
 30
0.0
 11
83.769900000000007
 21
85.778899999999993
 31
0.0
  0
LINE
  5
A7
  8
0
 62
     7
 10
83.770300000000006
 20
85.778899999999993
 30
0.0
 11
84.924400000000006
 21
85.778899999999993
 31
0.0
  0
LINE
  5
A8
  8
0
 62
     7
 10
84.924700000000001
 20
85.778599999999983
 30
0.0
 11
85.502000000000024
 21
84.779200000000003
 31
0.0
  0
ARC
  5
A9
  8
0
 62
     7
 10
84.972437999999997
 20
204.76571299999989
 30
0.0
 40
5.4999580000000003
 50
270.00002000000001
 51
359.99998999999991
  0
ARC
  5
AA
  8
0
 62
     7
 10
84.972352000000001
 20
204.76579699999991
 30
0.0
 40
5.5000429999999989
 50
180.00090700000001
 51
270.00091700000002
  0
ARC
  5
AB
  8
0
 62
     7
 10
84.972440000000006
 20
204.76571100000001
 30
0.0
 40
5.5001309999999988
 50
90.0
 51
179.99996999999991
  0
ARC
  5
AC
  8
0
 62
     7
 10
84.972352000000001
 20
204.76579699999991
 30
0.0
 40
5.5000450000000001
 50
359.99911299999991
 51
89.999082999999985
  0
ARC
  5
AD
  8
0
 62
     7
 10
84.972352000000001
 20
204.76562699999999
 30
0.0
 40
4.8749279999999988
 50
270.00103200000001
 51
0.001002
  0
ARC
  5
AE
  8
0
 62
     7
 10
84.972352000000001
 20
204.7657979999999
 30
0.0
 40
4.8750980000000004
 50
180.00102200000001
 51
270.00103200000001
  0
ARC
  5
AF
  8
0
 62
     7
 10
84.972440000000006
 20
204.76571100000001
 30
0.0
 40
4.8751860000000002
 50
90.0
 51
179.99996999999991
  0
ARC
  5
B0
  8
0
 62
     7
 10
84.972266000000005
 20
204.76588399999989
 30
0.0
 40
4.8750140000000002
 50
359.99798500000003
 51
89.997956000000002
  0
ARC
  5
B1
  8
0
 62
     7
 10
84.972438999999994
 20
204.76571299999989
 30
0.0
 40
3.7500110000000002
 50
270.00002000000001
 51
359.99998999999991
  0
ARC
  5
B2
  8
0
 62
     7
 10
84.972438999999994
 20
204.76571200000001
 30
0.0
 40
3.750008999999999
 50
179.99996999999991
 51
270.00002000000001
  0
ARC
  5
B3
  8
0
 62
     7
 10
84.972440000000006
 20
204.76571200000001
 30
0.0
 40
3.7500110000000002
 50
90.0
 51
179.99996999999991
  0
ARC
  5
B4
  8
0
 62
     7
 10
84.972438999999994
 20
204.76571200000001
 30
0.0
 40
3.7500110000000002
 50
0.00001
 51
89.999980000000008
  0
LINE
  5
B5
  8
0
  6
AIGENLINE001
 62
     7
 10
76.332099999999997
 20
204.76599999999999
 30
0.0
 11
166.459
 21
204.76599999999999
 31
0.0
  0
LINE
  5
B6
  8
0
 62
     7
 10
151.9729999999999
 20
196.01599999999991
 30
0.0
 11
154.9729999999999
 21
196.01599999999991
 31
0.0
  0
LINE
  5
B7
  8
0
 62
     7
 10
151.9729999999999
 20
213.51599999999991
 30
0.0
 11
154.9729999999999
 21
213.51599999999991
 31
0.0
  0
LINE
  5
B8
  8
0
 62
     7
 10
151.9729999999999
 20
213.51599999999991
 30
0.0
 11
151.9729999999999
 21
196.01599999999991
 31
0.0
  0
LINE
  5
B9
  8
0
 62
     7
 10
154.9729999999999
 20
213.51599999999991
 30
0.0
 11
154.9729999999999
 21
196.01599999999991
 31
0.0
  0
LINE
  5
BA
  8
0
 62
     7
 10
164.9729999999999
 20
208.76599999999999
 30
0.0
 11
164.9729999999999
 21
200.76599999999999
 31
0.0
  0
LINE
  5
BB
  8
0
 62
     7
 10
151.9729999999999
 20
200.76599999999999
 30
0.0
 11
88.746899999999997
 21
200.76599999999999
 31
0.0
  0
LINE
  5
BC
  8
0
 62
     7
 10
164.9729999999999
 20
200.76599999999999
 30
0.0
 11
154.9729999999999
 21
200.76599999999999
 31
0.0
  0
LINE
  5
BD
  8
0
 62
     7
 10
151.9729999999999
 20
208.76599999999999
 30
0.0
 11
88.746899999999997
 21
208.76599999999999
 31
0.0
  0
LINE
  5
BE
  8
0
 62
     7
 10
164.9729999999999
 20
208.76599999999999
 30
0.0
 11
154.9729999999999
 21
208.76599999999999
 31
0.0
  0
LINE
  5
BF
  8
0
 62
     7
 10
91.222399999999993
 20
208.76599999999999
 30
0.0
 11
91.222399999999993
 21
200.76599999999999
 31
0.0
  0
LINE
  5
C0
  8
0
  6
AIGENLINE001
 62
     7
 10
84.972399999999993
 20
196.01599999999991
 30
0.0
 11
84.972399999999993
 21
213.51599999999991
 31
0.0
  0
ARC
  5
C1
  8
0
 62
     7
 10
92.435777999999999
 20
148.507653
 30
0.0
 40
3.4802809999999988
 50
135.058436
 51
157.37814800000001
  0
ARC
  5
C2
  8
0
 62
     7
 10
94.038398999999984
 20
147.74983899999989
 30
0.0
 40
5.2517509999999996
 50
156.47185999999999
 51
169.43380999999999
  0
ARC
  5
C3
  8
0
 62
     7
 10
97.201219999999992
 20
147.101484
 30
0.0
 40
8.4800259999999987
 50
169.0460379999999
 51
180.915828
  0
ARC
  5
C4
  8
0
 62
     7
 10
92.436612999999994
 20
145.42541299999991
 30
0.0
 40
3.4814579999999999
 50
202.632597
 51
224.94151299999999
  0
ARC
  5
C5
  8
0
 62
     7
 10
94.037598000000017
 20
146.18199999999999
 30
0.0
 40
5.250947
 50
190.56686599999989
 51
203.52990500000001
  0
ARC
  5
C6
  8
0
 62
     7
 10
97.200228000000024
 20
146.83035100000001
 30
0.0
 40
8.4790350000000014
 50
179.08367699999999
 51
190.9546409999999
  0
ARC
  5
C7
  8
0
 62
     7
 10
84.347149999999999
 20
84.779168999999996
 30
0.0
 40
4.7501290000000003
 50
270.00002000000001
 51
359.99998999999991
  0
ARC
  5
C8
  8
0
 62
     7
 10
84.347235999999995
 20
84.779081000000005
 30
0.0
 40
4.7500410000000004
 50
179.99893099999991
 51
269.99898100000001
  0
ARC
  5
C9
  8
0
 62
     7
 10
84.347236999999993
 20
84.779254000000009
 30
0.0
 40
4.7500419999999988
 50
90.001039000000006
 51
180.00104899999991
  0
ARC
  5
CA
  8
0
 62
     7
 10
84.347149999999999
 20
84.779166999999987
 30
0.0
 40
4.7501290000000003
 50
0.00001
 51
89.999980000000008
  0
ARC
  5
CB
  8
0
 62
     7
 10
84.347149999999999
 20
84.779168999999996
 30
0.0
 40
5.0002440000000004
 50
270.00002000000001
 51
359.99998999999991
  0
ARC
  5
CC
  8
0
 62
     7
 10
84.347321999999991
 20
84.778994999999995
 30
0.0
 40
5.00007
 50
179.99799599999989
 51
269.99804599999987
  0
ARC
  5
CD
  8
0
 62
     7
 10
84.347150999999997
 20
84.779166999999987
 30
0.0
 40
4.9999000000000002
 50
90.0
 51
179.99996999999991
  0
ARC
  5
CE
  8
0
 62
     7
 10
84.347321999999991
 20
84.778994999999995
 30
0.0
 40
5.0000720000000003
 50
0.001984
 51
90.001953999999998
  0
LINE
  5
CF
  8
0
 62
     7
 10
42.579799999999992
 20
162.09100000000001
 30
0.0
 11
42.579799999999992
 21
165.71599999999989
 31
0.0
  0
LINE
  5
D0
  8
0
 62
     7
 10
32.579799999999992
 20
162.09100000000001
 30
0.0
 11
32.579799999999992
 21
165.71599999999989
 31
0.0
  0
LINE
  5
D1
  8
0
 62
     7
 10
32.579799999999992
 20
165.71599999999989
 30
0.0
 11
42.579799999999992
 21
165.71599999999989
 31
0.0
  0
LINE
  5
D2
  8
0
 62
     7
 10
32.579799999999992
 20
162.09100000000001
 30
0.0
 11
42.579799999999992
 21
162.09100000000001
 31
0.0
  0
LINE
  5
D3
  8
0
 62
     7
 10
32.579799999999992
 20
155.21600000000001
 30
0.0
 11
42.579799999999992
 21
155.21600000000001
 31
0.0
  0
LINE
  5
D4
  8
0
  6
AIGENLINE001
 62
     7
 10
26.372399999999999
 20
146.96600000000001
 30
0.0
 11
48.746299999999991
 21
146.96600000000001
 31
0.0
  0
LINE
  5
D5
  8
0
 62
     7
 10
32.579799999999992
 20
155.21600000000001
 30
0.0
 11
32.579799999999992
 21
126.46599999999999
 31
0.0
  0
LINE
  5
D6
  8
0
 62
     7
 10
42.579799999999992
 20
155.21600000000001
 30
0.0
 11
42.579799999999992
 21
126.46599999999999
 31
0.0
  0
LINE
  5
D7
  8
0
 62
     7
 10
32.579799999999992
 20
126.46599999999999
 30
0.0
 11
42.579799999999992
 21
126.46599999999999
 31
0.0
  0
LINE
  5
D8
  8
0
 62
     7
 10
32.579799999999992
 20
152.46600000000001
 30
0.0
 11
42.579799999999992
 21
152.46600000000001
 31
0.0
  0
LINE
  5
D9
  8
0
  6
AIGENLINE001
 62
     7
 10
37.579700000000003
 20
123.367
 30
0.0
 11
37.579700000000003
 21
170.01300000000001
 31
0.0
  0
LINE
  5
DA
  8
0
 62
     7
 10
34.329599999999999
 20
162.09100000000001
 30
0.0
 11
34.329599999999999
 21
155.21600000000001
 31
0.0
  0
LINE
  5
DB
  8
0
 62
     7
 10
40.829599999999992
 20
155.21600000000001
 30
0.0
 11
40.829599999999992
 21
162.09100000000001
 31
0.0
  0
LINE
  5
DC
  8
0
 62
     7
 10
89.972300000000004
 20
162.09100000000001
 30
0.0
 11
89.972300000000004
 21
165.71599999999989
 31
0.0
  0
LINE
  5
DD
  8
0
 62
     7
 10
79.972399999999993
 20
162.09100000000001
 30
0.0
 11
79.972399999999993
 21
165.71599999999989
 31
0.0
  0
LINE
  5
DE
  8
0
 62
     7
 10
79.972399999999993
 20
165.71599999999989
 30
0.0
 11
89.972300000000004
 21
165.71599999999989
 31
0.0
  0
LINE
  5
DF
  8
0
 62
     7
 10
79.972399999999993
 20
162.09100000000001
 30
0.0
 11
89.972300000000004
 21
162.09100000000001
 31
0.0
  0
LINE
  5
E0
  8
0
 62
     7
 10
79.972399999999993
 20
155.21600000000001
 30
0.0
 11
89.972300000000004
 21
155.21600000000001
 31
0.0
  0
LINE
  5
E1
  8
0
  6
AIGENLINE001
 62
     7
 10
77.381
 20
84.779200000000003
 30
0.0
 11
91.316299999999984
 21
84.779200000000003
 31
0.0
  0
LINE
  5
E2
  8
0
  6
AIGENLINE001
 62
     7
 10
84.347200000000001
 20
77.866900000000001
 30
0.0
 11
84.347200000000001
 21
91.646299999999997
 31
0.0
  0
LINE
  5
E3
  8
0
  6
AIGENLINE001
 62
     7
 10
84.972399999999993
 20
146.96600000000001
 30
0.0
 11
166.459
 21
146.96600000000001
 31
0.0
  0
LINE
  5
E4
  8
0
 62
     7
 10
151.9729999999999
 20
138.21600000000001
 30
0.0
 11
154.9729999999999
 21
138.21600000000001
 31
0.0
  0
LINE
  5
E5
  8
0
 62
     7
 10
151.9729999999999
 20
155.71600000000001
 30
0.0
 11
154.9729999999999
 21
155.71600000000001
 31
0.0
  0
LINE
  5
E6
  8
0
 62
     7
 10
151.9729999999999
 20
155.71600000000001
 30
0.0
 11
151.9729999999999
 21
138.21600000000001
 31
0.0
  0
LINE
  5
E7
  8
0
 62
     7
 10
154.9729999999999
 20
155.71600000000001
 30
0.0
 11
154.9729999999999
 21
138.21600000000001
 31
0.0
  0
LINE
  5
E8
  8
0
 62
     7
 10
164.9729999999999
 20
150.96600000000001
 30
0.0
 11
164.9729999999999
 21
142.96600000000001
 31
0.0
  0
LINE
  5
E9
  8
0
 62
     7
 10
151.9729999999999
 20
142.96600000000001
 30
0.0
 11
89.972300000000004
 21
142.96600000000001
 31
0.0
  0
LINE
  5
EA
  8
0
 62
     7
 10
164.9729999999999
 20
142.96600000000001
 30
0.0
 11
154.9729999999999
 21
142.96600000000001
 31
0.0
  0
LINE
  5
EB
  8
0
 62
     7
 10
151.9729999999999
 20
150.96600000000001
 30
0.0
 11
89.972300000000004
 21
150.96600000000001
 31
0.0
  0
LINE
  5
EC
  8
0
 62
     7
 10
164.9729999999999
 20
150.96600000000001
 30
0.0
 11
154.9729999999999
 21
150.96600000000001
 31
0.0
  0
LINE
  5
ED
  8
0
 62
     7
 10
79.972399999999993
 20
155.21600000000001
 30
0.0
 11
79.972399999999993
 21
126.46599999999999
 31
0.0
  0
LINE
  5
EE
  8
0
 62
     7
 10
91.222399999999993
 20
150.96600000000001
 30
0.0
 11
91.222399999999993
 21
142.96600000000001
 31
0.0
  0
LINE
  5
EF
  8
0
 62
     7
 10
89.972300000000004
 20
155.21600000000001
 30
0.0
 11
89.972300000000004
 21
150.9429999999999
 31
0.0
  0
LINE
  5
F0
  8
0
 62
     7
 10
89.972300000000004
 20
142.99100000000001
 30
0.0
 11
89.972300000000004
 21
126.46599999999999
 31
0.0
  0
LINE
  5
F1
  8
0
 62
     7
 10
79.972399999999993
 20
126.46599999999999
 30
0.0
 11
89.972300000000004
 21
126.46599999999999
 31
0.0
  0
LINE
  5
F2
  8
0
 62
     7
 10
79.972399999999993
 20
152.46600000000001
 30
0.0
 11
89.972300000000004
 21
152.46600000000001
 31
0.0
  0
LINE
  5
F3
  8
0
  6
AIGENLINE001
 62
     7
 10
84.972399999999993
 20
124.242
 30
0.0
 11
84.972399999999993
 21
167.40000000000001
 31
0.0
  0
LINE
  5
F4
  8
0
 62
     7
 10
81.722300000000004
 20
162.09100000000001
 30
0.0
 11
81.722300000000004
 21
155.21600000000001
 31
0.0
  0
LINE
  5
F5
  8
0
 62
     7
 10
88.222199999999987
 20
155.21600000000001
 30
0.0
 11
88.222199999999987
 21
162.09100000000001
 31
0.0
  0
LINE
  5
F6
  8
_________2
 62
     7
 10
205.30099999999999
 20
127.41200000000001
 30
0.0
 11
183.55099999999999
 21
127.41200000000001
 31
0.0
  0
LINE
  5
F7
  8
_________2
 62
     7
 10
100.2999999999999
 20
-4.0907299999999998
 30
0.0
 11
100.2999999999999
 21
-21.070999999999991
 31
0.0
  0
LINE
  5
F8
  8
_________2
 62
     7
 10
100.2999999999999
 20
275.93099999999993
 30
0.0
 11
100.2999999999999
 21
258.911
 31
0.0
  0
LINE
  5
F9
  8
_________2
 62
     7
 10
17.049900000000001
 20
127.41200000000001
 30
0.0
 11
-4.7001699999999991
 21
127.41200000000001
 31
0.0
  0
LINE
  5
FA
  8
_________2
 62
     7
 10
76.741699999999994
 20
29.805099999999999
 30
0.0
 11
74.555099999999996
 21
29.805099999999999
 31
0.0
  0
LINE
  5
FB
  8
_________2
 62
     7
 10
77.234399999999994
 20
29.805099999999999
 30
0.0
 11
76.982200000000006
 21
29.805099999999999
 31
0.0
  0
LINE
  5
FC
  8
_________2
 62
     7
 10
77.727000000000004
 20
29.805099999999999
 30
0.0
 11
80.651899999999983
 21
29.805099999999999
 31
0.0
  0
LINE
  5
FD
  8
_________2
 62
     7
 10
77.234399999999994
 20
29.805099999999999
 30
0.0
 11
77.485900000000001
 21
29.805099999999999
 31
0.0
  0
LINE
  5
FE
  8
_________2
 62
     7
 10
70.837599999999995
 20
29.805099999999999
 30
0.0
 11
68.650899999999993
 21
29.805099999999999
 31
0.0
  0
LINE
  5
FF
  8
_________2
 62
     7
 10
71.330100000000002
 20
29.805099999999999
 30
0.0
 11
71.078100000000006
 21
29.805099999999999
 31
0.0
  0
LINE
  5
100
  8
_________2
 62
     7
 10
71.330100000000002
 20
30.297699999999999
 30
0.0
 11
71.330100000000002
 21
32.484699999999989
 31
0.0
  0
LINE
  5
101
  8
_________2
 62
     7
 10
71.330100000000002
 20
29.805099999999999
 30
0.0
 11
71.330100000000002
 21
30.057300000000001
 31
0.0
  0
LINE
  5
102
  8
_________2
 62
     7
 10
71.822800000000001
 20
29.805099999999999
 30
0.0
 11
74.009399999999999
 21
29.805099999999999
 31
0.0
  0
LINE
  5
103
  8
_________2
 62
     7
 10
71.330100000000002
 20
29.805099999999999
 30
0.0
 11
71.582300000000004
 21
29.805099999999999
 31
0.0
  0
LINE
  5
104
  8
_________2
 62
     7
 10
71.330100000000002
 20
29.313099999999991
 30
0.0
 11
71.330100000000002
 21
27.126200000000001
 31
0.0
  0
LINE
  5
105
  8
_________2
 62
     7
 10
71.330100000000002
 20
29.805099999999999
 30
0.0
 11
71.330100000000002
 21
29.553599999999999
 31
0.0
  0
LINE
  5
106
  8
_________2
 62
     7
 10
75.041200000000003
 20
28.5855
 30
0.0
 11
80.219199999999987
 21
27.720800000000001
 31
0.0
  0
LINE
  5
107
  8
_________2
 62
     7
 10
75.041200000000003
 20
31.024699999999999
 30
0.0
 11
80.219199999999987
 21
31.8901
 31
0.0
  0
LINE
  5
108
  8
_________2
 62
     7
 10
80.219199999999987
 20
27.720800000000001
 30
0.0
 11
80.219199999999987
 21
31.8901
 31
0.0
  0
LINE
  5
109
  8
_________2
 62
     7
 10
75.041200000000003
 20
28.5855
 30
0.0
 11
75.041200000000003
 21
31.024699999999999
 31
0.0
  0
ARC
  5
10A
  8
_________2
 62
     7
 10
71.283212000000006
 20
29.758179999999999
 30
0.0
 40
1.267347
 50
2.1211329999999999
 51
87.878856999999996
  0
ARC
  5
10B
  8
_________2
 62
     7
 10
71.376639999999995
 20
29.758388
 30
0.0
 40
1.2671250000000001
 50
92.103989999999996
 51
177.88788799999989
  0
ARC
  5
10C
  8
_________2
 62
     7
 10
71.37688
 20
29.852027
 30
0.0
 40
1.267374
 50
182.12257700000001
 51
267.88554499999998
  0
ARC
  5
10D
  8
_________2
 62
     7
 10
71.28320699999999
 20
29.85199999999999
 30
0.0
 40
1.267353
 50
272.12136299999992
 51
357.878647
  0
ARC
  5
10E
  8
_________2
 62
     7
 10
71.329947000000004
 20
29.805259
 30
0.0
 40
2.084813
 50
359.99527599999988
 51
89.995245999999995
  0
ARC
  5
10F
  8
_________2
 62
     7
 10
71.330206000000004
 20
29.805172999999989
 30
0.0
 40
2.0848990000000001
 50
90.002367000000007
 51
180.00237699999991
  0
ARC
  5
110
  8
_________2
 62
     7
 10
71.409627999999998
 20
29.885133
 30
0.0
 40
2.1658009999999992
 50
182.11808199999999
 51
267.89615199999997
  0
ARC
  5
111
  8
_________2
 62
     7
 10
71.250139000000004
 20
29.885425999999999
 30
0.0
 40
2.166110999999999
 50
272.11604699999998
 51
357.87449299999997
  0
TEXT
  5
112
  8
_________2
 62
     7
 10
104.605
 20
1.67984
 30
0.0
 40
3.0923400000000001
  1
図番
 41
0.5
  0
LINE
  5
113
  8
_________2
 62
     7
 10
103.55
 20
5.9090699999999989
 30
0.0
 11
183.55099999999999
 21
5.9090699999999989
 31
0.0
  0
TEXT
  5
114
  8
_________2
 62
     7
 10
104.605
 20
11.679600000000001
 30
0.0
 40
3.0923400000000001
  1
品番
 41
0.5
  0
TEXT
  5
115
  8
_________2
 62
     7
 10
104.605
 20
31.8184
 30
0.0
 40
3.0923400000000001
  1
名称
 41
0.5
  0
TEXT
  5
116
  8
_________2
 62
     7
 10
91.845258333333334
 20
26.822299999999998
 30
0.0
 40
3.6545800000000002
  1
mm
 41
0.5
 72
     1
 11
93.367999999999995
 21
26.822299999999998
 31
0.0
  0
TEXT
  5
117
  8
_________2
 62
     7
 10
85.643900000000016
 20
31.8184
 30
0.0
 40
3.0923400000000001
  1
単位
 41
0.5
  0
TEXT
  5
118
  8
_________2
 62
     7
 10
85.643900000000016
 20
19.411200000000001
 30
0.0
 40
3.0923400000000001
  1
尺度
 41
0.5
  0
TEXT
  5
119
  8
_________2
 62
     7
 10
90.548958666666664
 20
13.218199999999991
 30
0.0
 40
3.6545800000000002
  1
1 ： 4
 41
0.5
 72
     1
 11
93.959900000000005
 21
13.218199999999991
 31
0.0
  0
TEXT
  5
11A
  8
_________2
 62
     7
 10
137.974425
 20
9.1082000000000001
 30
0.0
 40
3.9357000000000002
  1
CET527
 41
0.5
 72
     1
 11
143.55000000000001
 21
9.1082000000000001
 31
0.0
  0
TEXT
  5
11B
  8
_________2
 62
     7
 10
138.07442499999999
 20
-0.892285
 30
0.0
 40
3.9357000000000002
  1
CET527
 41
0.5
 72
     1
 11
143.65000000000001
 21
-0.892285
 31
0.0
  0
TEXT
  5
11C
  8
_________2
 62
     7
 10
109.179
 20
24.2254
 30
0.0
 40
3.9357000000000002
  1
手洗器用 ボトルトラップ
 41
0.5
  0
TEXT
  5
11D
  8
_________2
 62
     7
 10
39.425600333333328
 20
13.603400000000001
 30
0.0
 40
3.6545800000000002
  1
早川
 41
0.5
 72
     1
 11
41.313800000000001
 21
13.603400000000001
 31
0.0
  0
TEXT
  5
11E
  8
_________2
 62
     7
 10
20.79059066666666
 20
13.603400000000001
 30
0.0
 40
3.6545800000000002
  1
菅原
 41
0.5
 72
     1
 11
22.739699999999988
 21
13.603400000000001
 31
0.0
  0
TEXT
  5
11F
  8
_________2
 62
     7
 10
67.786000000000001
 20
13.218199999999991
 30
0.0
 40
3.6545800000000002
  1
12.12.11
 41
0.5
  0
TEXT
  5
120
  8
_________2
 62
     7
 10
66.593400000000003
 20
19.411200000000001
 30
0.0
 40
3.0923400000000001
  1
日付
 41
0.5
  0
TEXT
  5
121
  8
_________2
 62
     7
 10
29.639700000000001
 20
19.411200000000001
 30
0.0
 40
3.0923400000000001
  1
検図
 41
0.5
  0
TEXT
  5
122
  8
_________2
 62
     7
 10
18.021799999999988
 20
5.2117699999999987
 30
0.0
 40
3.0923400000000001
  1
備考
 41
0.5
  0
TEXT
  5
123
  8
_________2
 62
     7
 10
18.021799999999988
 20
19.411200000000001
 30
0.0
 40
3.0923400000000001
  1
製図
 41
0.5
  0
TEXT
  5
124
  8
_________2
 62
     7
 10
23.788965333333341
 20
27.937100000000001
 30
0.0
 40
4.4979399999999989
  1
セラトレーディング株式会社
 41
0.5
 72
     1
 11
41.180999999999997
 21
27.937100000000001
 31
0.0
  0
LINE
  5
125
  8
_________2
 62
     7
 10
183.55099999999999
 20
-4.0907299999999998
 30
0.0
 11
17.049900000000001
 21
-4.0907299999999998
 31
0.0
  0
LINE
  5
126
  8
_________2
 62
     7
 10
17.049900000000001
 20
-4.0907299999999998
 30
0.0
 11
17.049900000000001
 21
258.911
 31
0.0
  0
LINE
  5
127
  8
_________2
 62
     7
 10
17.049900000000001
 20
258.911
 30
0.0
 11
183.55099999999999
 21
258.911
 31
0.0
  0
LINE
  5
128
  8
_________2
 62
     7
 10
183.55099999999999
 20
258.911
 30
0.0
 11
183.55099999999999
 21
-4.0907299999999998
 31
0.0
  0
LINE
  5
129
  8
_________2
 62
     7
 10
65.5501
 20
9.4092999999999982
 30
0.0
 11
65.5501
 21
35.909100000000002
 31
0.0
  0
LINE
  5
12A
  8
_________2
 62
     7
 10
84.550399999999996
 20
9.4092999999999982
 30
0.0
 11
84.550399999999996
 21
35.909100000000002
 31
0.0
  0
LINE
  5
12B
  8
_________2
 62
     7
 10
103.55
 20
-4.0907299999999998
 30
0.0
 11
103.55
 21
35.909100000000002
 31
0.0
  0
LINE
  5
12C
  8
_________2
 62
     7
 10
28.550000000000001
 20
9.4092999999999982
 30
0.0
 11
28.550000000000001
 21
23.409600000000001
 31
0.0
  0
LINE
  5
12D
  8
_________2
 62
     7
 10
17.049900000000001
 20
9.4092999999999982
 30
0.0
 11
103.55
 21
9.4092999999999982
 31
0.0
  0
LINE
  5
12E
  8
_________2
 62
     7
 10
17.049900000000001
 20
23.409600000000001
 30
0.0
 11
103.55
 21
23.409600000000001
 31
0.0
  0
LINE
  5
12F
  8
_________2
 62
     7
 10
103.55
 20
15.90889999999999
 30
0.0
 11
183.55099999999999
 21
15.90889999999999
 31
0.0
  0
LINE
  5
130
  8
_________2
 62
     7
 10
17.049900000000001
 20
35.909100000000002
 30
0.0
 11
183.55099999999999
 21
35.909100000000002
 31
0.0
  0
ENDSEC
  0
EOF
