  0
SECTION
  2
HEADER
  9
$ACADVER
  1
AC1009
  9
$INSBASE
 10
0.0
 20
0.0
 30
0.0
  9
$EXTMIN
 10
0.238058
 20
0.4482100000000001
 30
0.0
  9
$EXTMAX
 10
210.2409999999999
 20
297.44999999999987
 30
0.0
  9
$LIMMIN
 10
0.0
 20
0.0
  9
$LIMMAX
 10
12.0
 20
9.0
  9
$ORTHOMODE
 70
     0
  9
$REGENMODE
 70
     1
  9
$FILLMODE
 70
     1
  9
$QTEXTMODE
 70
     0
  9
$MIRRTEXT
 70
     1
  9
$DRAGMODE
 70
     2
  9
$LTSCALE
 40
1.0
  9
$OSMODE
 70
    37
  9
$ATTMODE
 70
     1
  9
$TEXTSIZE
 40
0.0
  9
$TRACEWID
 40
0.05
  9
$TEXTSTYLE
  7
STANDARD
  9
$CLAYER
  8
0
  9
$CELTYPE
  6
CONTINUOUS
  9
$CECOLOR
 62
   256
  9
$DIMSCALE
 40
1.0
  9
$DIMASZ
 40
0.18
  9
$DIMEXO
 40
0.0625
  9
$DIMDLI
 40
0.38
  9
$DIMRND
 40
0.0
  9
$DIMDLE
 40
0.0
  9
$DIMEXE
 40
0.18
  9
$DIMTP
 40
0.0
  9
$DIMTM
 40
0.0
  9
$DIMTXT
 40
0.18
  9
$DIMCEN
 40
0.09
  9
$DIMTSZ
 40
0.0
  9
$DIMTOL
 70
     0
  9
$DIMLIM
 70
     0
  9
$DIMTIH
 70
     1
  9
$DIMTOH
 70
     1
  9
$DIMSE1
 70
     0
  9
$DIMSE2
 70
     0
  9
$DIMTAD
 70
     0
  9
$DIMZIN
 70
     0
  9
$DIMBLK
  1

  9
$DIMASO
 70
     1
  9
$DIMSHO
 70
     1
  9
$DIMPOST
  1

  9
$DIMAPOST
  1

  9
$DIMALT
 70
     0
  9
$DIMALTD
 70
     2
  9
$DIMALTF
 40
25.399999999999999
  9
$DIMLFAC
 40
1.0
  9
$DIMTOFL
 70
     0
  9
$DIMTVP
 40
0.0
  9
$DIMTIX
 70
     0
  9
$DIMSOXD
 70
     0
  9
$DIMSAH
 70
     0
  9
$DIMBLK1
  1

  9
$DIMBLK2
  1

  9
$DIMSTYLE
  2
STANDARD
  9
$DIMCLRD
 70
     0
  9
$DIMCLRE
 70
     0
  9
$DIMCLRT
 70
     0
  9
$DIMTFAC
 40
1.0
  9
$DIMGAP
 40
0.09
  9
$LUNITS
 70
     2
  9
$LUPREC
 70
     4
  9
$SKETCHINC
 40
0.1
  9
$FILLETRAD
 40
0.0
  9
$AUNITS
 70
     0
  9
$AUPREC
 70
     0
  9
$MENU
  1
.
  9
$ELEVATION
 40
0.0
  9
$PELEVATION
 40
0.0
  9
$THICKNESS
 40
0.0
  9
$LIMCHECK
 70
     0
  9
$BLIPMODE
 70
     0
  9
$CHAMFERA
 40
0.0
  9
$CHAMFERB
 40
0.0
  9
$SKPOLY
 70
     0
  9
$TDCREATE
 40
2456350.397693981
  9
$TDUPDATE
 40
2456359.2475737031
  9
$TDINDWG
 40
0.0027022569
  9
$TDUSRTIMER
 40
0.0027022569
  9
$USRTIMER
 70
     1
  9
$ANGBASE
 50
0.0
  9
$ANGDIR
 70
     0
  9
$PDMODE
 70
     0
  9
$PDSIZE
 40
0.0
  9
$PLINEWID
 40
0.0
  9
$COORDS
 70
     1
  9
$SPLFRAME
 70
     0
  9
$SPLINETYPE
 70
     6
  9
$SPLINESEGS
 70
     8
  9
$ATTDIA
 70
     0
  9
$ATTREQ
 70
     1
  9
$HANDLING
 70
     1
  9
$HANDSEED
  5
9ED
  9
$SURFTAB1
 70
     6
  9
$SURFTAB2
 70
     6
  9
$SURFTYPE
 70
     6
  9
$SURFU
 70
     6
  9
$SURFV
 70
     6
  9
$UCSNAME
  2

  9
$UCSORG
 10
0.0
 20
0.0
 30
0.0
  9
$UCSXDIR
 10
1.0
 20
0.0
 30
0.0
  9
$UCSYDIR
 10
0.0
 20
1.0
 30
0.0
  9
$PUCSNAME
  2

  9
$PUCSORG
 10
0.0
 20
0.0
 30
0.0
  9
$PUCSXDIR
 10
1.0
 20
0.0
 30
0.0
  9
$PUCSYDIR
 10
0.0
 20
1.0
 30
0.0
  9
$USERI1
 70
     0
  9
$USERI2
 70
     0
  9
$USERI3
 70
     0
  9
$USERI4
 70
     0
  9
$USERI5
 70
     0
  9
$USERR1
 40
0.0
  9
$USERR2
 40
0.0
  9
$USERR3
 40
0.0
  9
$USERR4
 40
0.0
  9
$USERR5
 40
0.0
  9
$WORLDVIEW
 70
     1
  9
$SHADEDGE
 70
     3
  9
$SHADEDIF
 70
    70
  9
$TILEMODE
 70
     1
  9
$MAXACTVP
 70
    48
  9
$PLIMCHECK
 70
     0
  9
$PEXTMIN
 10
1.0000000000000000E+020
 20
1.0000000000000000E+020
 30
1.0000000000000000E+020
  9
$PEXTMAX
 10
-1.0000000000000000E+020
 20
-1.0000000000000000E+020
 30
-1.0000000000000000E+020
  9
$PLIMMIN
 10
0.0
 20
0.0
  9
$PLIMMAX
 10
12.0
 20
9.0
  9
$UNITMODE
 70
     0
  9
$VISRETAIN
 70
     1
  9
$PLINEGEN
 70
     0
  9
$PSLTSCALE
 70
     1
  0
ENDSEC
  0
SECTION
  2
TABLES
  0
TABLE
  2
VPORT
 70
     2
  0
VPORT
  2
*ACTIVE
 70
     0
 10
0.0
 20
0.0
 11
1.0
 21
1.0
 12
353.92086367507159
 22
148.72500139616079
 13
0.0
 23
0.0
 14
1.0
 24
1.0
 15
0.0
 25
0.0
 16
0.0
 26
0.0
 36
1.0
 17
0.0
 27
0.0
 37
0.0
 40
299.82327113698062
 41
2.2894736842105261
 42
50.0
 43
0.0
 44
0.0
 50
0.0
 51
0.0
 71
     0
 72
   100
 73
     1
 74
     1
 75
     0
 76
     0
 77
     0
 78
     0
  0
ENDTAB
  0
TABLE
  2
LTYPE
 70
     2
  0
LTYPE
  2
CONTINUOUS
 70
     0
  3
Solid line
 72
    65
 73
     0
 40
0.0
  0
LTYPE
  2
AIGENLINE001
 70
     0
  3
generate AI->DXF Converter
 72
    65
 73
     4
 40
5.8580489999999994
 49
3.5289599999999992
 49
-0.776363
 49
0.776363
 49
-0.776363
  0
ENDTAB
  0
TABLE
  2
LAYER
 70
     4
  0
LAYER
  2
0
 70
     0
 62
     7
  6
CONTINUOUS
  0
LAYER
  2
_________2
 70
     0
 62
     7
  6
CONTINUOUS
  0
LAYER
  2
LAYER_2
 70
     0
 62
     7
  6
CONTINUOUS
  0
ENDTAB
  0
TABLE
  2
STYLE
 70
     1
  0
STYLE
  2
STANDARD
 70
     0
 40
0.0
 41
0.0
 50
0.0
 71
     0
 42
0.0
  3
TXT
  4
EXTFONT.SHX
  0
ENDTAB
  0
TABLE
  2
VIEW
 70
     0
  0
ENDTAB
  0
TABLE
  2
UCS
 70
     0
  0
ENDTAB
  0
TABLE
  2
APPID
 70
     1
  0
APPID
  2
ACAD
 70
     0
  0
ENDTAB
  0
TABLE
  2
DIMSTYLE
 70
     1
  0
DIMSTYLE
  2
STANDARD
 70
     0
  3

  4

  5

  6

  7

 40
1.0
 41
0.18
 42
0.0625
 43
0.38
 44
0.18
 45
0.0
 46
0.0
 47
0.0
 48
0.0
140
0.18
141
0.09
142
0.0
143
25.399999999999999
144
1.0
145
0.0
146
1.0
147
0.09
 71
     0
 72
     0
 73
     1
 74
     1
 75
     0
 76
     0
 77
     0
 78
     0
170
     0
171
     2
172
     0
173
     0
174
     0
175
     0
176
     0
177
     0
178
     0
  0
ENDTAB
  0
ENDSEC
  0
SECTION
  2
BLOCKS
  0
BLOCK
  8
0
  2
$MODEL_SPACE
 70
     0
 10
0.0
 20
0.0
 30
0.0
  3
$MODEL_SPACE
  1

  0
ENDBLK
  5
1A
  8
0
  0
BLOCK
 67
     1
  8
0
  2
$PAPER_SPACE
 70
     0
 10
0.0
 20
0.0
 30
0.0
  3
$PAPER_SPACE
  1

  0
ENDBLK
  5
17
 67
     1
  8
0
  0
ENDSEC
  0
SECTION
  2
ENTITIES
  0
LINE
  5
22
  8
0
 62
     7
 10
106.7029999999999
 20
80.059399999999997
 30
0.0
 11
107.295
 21
77.84899999999999
 31
0.0
  0
LINE
  5
23
  8
0
 62
     7
 10
107.295
 20
77.84899999999999
 30
0.0
 11
107.8869999999999
 21
80.059399999999997
 31
0.0
  0
LINE
  5
24
  8
0
 62
     7
 10
107.8869999999999
 20
80.059399999999997
 30
0.0
 11
106.7029999999999
 21
80.059399999999997
 31
0.0
  0
LINE
  5
25
  8
0
 62
     7
 10
107.28699999999991
 20
77.84899999999999
 30
0.0
 11
107.28699999999991
 21
82.147800000000004
 31
0.0
  0
TEXT
  5
26
  8
0
 62
     7
 10
99.736536500000014
 20
73.703800000000001
 30
0.0
 40
3.0923400000000001
  1
（排水配管50A）
 41
0.5
 72
     1
 11
107.28699999999991
 21
73.703800000000001
 31
0.0
  0
TEXT
  5
27
  8
0
 62
     7
 10
67.504300000000001
 20
166.36628749999991
 30
0.0
 40
3.0923400000000001
  1
740
 50
90.0
 41
0.5
 72
     1
 11
67.504300000000001
 21
168.29900000000001
 31
0.0
  0
TEXT
  5
28
  8
0
 62
     7
 10
80.044899999999998
 20
217.238135
 30
0.0
 40
3.0923400000000001
  1
169
 50
90.0
 41
0.5
 72
     1
 11
80.044899999999998
 21
219.042
 31
0.0
  0
TEXT
  5
29
  8
0
 62
     7
 10
103.936965
 20
256.68599999999992
 30
0.0
 40
3.0923400000000001
  1
%%c115.5
 41
0.5
 72
     1
 11
107.28699999999991
 21
256.68599999999992
 31
0.0
  0
LINE
  5
2A
  8
0
  6
AIGENLINE001
 62
     7
 10
107.28699999999991
 20
83.763499999999993
 30
0.0
 11
107.28699999999991
 21
250.54400000000001
 31
0.0
  0
LINE
  5
2B
  8
0
 62
     7
 10
68.789299999999997
 20
244.99799999999999
 30
0.0
 11
68.197100000000006
 21
247.208
 31
0.0
  0
LINE
  5
2C
  8
0
 62
     7
 10
68.197100000000006
 20
247.208
 30
0.0
 11
67.604600000000005
 21
244.99799999999999
 31
0.0
  0
LINE
  5
2D
  8
0
 62
     7
 10
67.604600000000005
 20
244.99799999999999
 30
0.0
 11
68.789299999999997
 21
244.99799999999999
 31
0.0
  0
LINE
  5
2E
  8
0
 62
     7
 10
67.619399999999999
 20
91.600499999999997
 30
0.0
 11
68.211600000000004
 21
89.389399999999995
 31
0.0
  0
LINE
  5
2F
  8
0
 62
     7
 10
68.211600000000004
 20
89.389399999999995
 30
0.0
 11
68.804199999999994
 21
91.600499999999997
 31
0.0
  0
LINE
  5
30
  8
0
 62
     7
 10
68.804199999999994
 20
91.600499999999997
 30
0.0
 11
67.619399999999999
 21
91.600499999999997
 31
0.0
  0
LINE
  5
31
  8
0
 62
     7
 10
68.204400000000007
 20
247.208
 30
0.0
 11
68.204400000000007
 21
89.389399999999995
 31
0.0
  0
LINE
  5
32
  8
0
 62
     7
 10
81.329899999999995
 20
244.99799999999999
 30
0.0
 11
80.737700000000004
 21
247.208
 31
0.0
  0
LINE
  5
33
  8
0
 62
     7
 10
80.737700000000004
 20
247.208
 30
0.0
 11
80.145099999999985
 21
244.99799999999999
 31
0.0
  0
LINE
  5
34
  8
0
 62
     7
 10
80.145099999999985
 20
244.99799999999999
 30
0.0
 11
81.329899999999995
 21
244.99799999999999
 31
0.0
  0
LINE
  5
35
  8
0
 62
     7
 10
80.159999999999997
 20
193.0859999999999
 30
0.0
 11
80.752199999999988
 21
190.87499999999989
 31
0.0
  0
LINE
  5
36
  8
0
 62
     7
 10
80.752199999999988
 20
190.87499999999989
 30
0.0
 11
81.344700000000003
 21
193.0859999999999
 31
0.0
  0
LINE
  5
37
  8
0
 62
     7
 10
81.344700000000003
 20
193.0859999999999
 30
0.0
 11
80.159999999999997
 21
193.0859999999999
 31
0.0
  0
LINE
  5
38
  8
0
 62
     7
 10
80.744900000000001
 20
247.208
 30
0.0
 11
80.744900000000001
 21
190.87499999999989
 31
0.0
  0
LINE
  5
39
  8
0
 62
     7
 10
124.327
 20
254.70099999999991
 30
0.0
 11
126.53700000000001
 21
255.2939999999999
 31
0.0
  0
LINE
  5
3A
  8
0
 62
     7
 10
126.53700000000001
 20
255.2939999999999
 30
0.0
 11
124.327
 21
255.886
 31
0.0
  0
LINE
  5
3B
  8
0
 62
     7
 10
124.327
 20
255.886
 30
0.0
 11
124.327
 21
254.70099999999991
 31
0.0
  0
LINE
  5
3C
  8
0
 62
     7
 10
90.248599999999996
 20
255.87100000000001
 30
0.0
 11
88.037599999999998
 21
255.279
 31
0.0
  0
LINE
  5
3D
  8
0
 62
     7
 10
88.037599999999998
 20
255.279
 30
0.0
 11
90.248599999999996
 21
254.68599999999989
 31
0.0
  0
LINE
  5
3E
  8
0
 62
     7
 10
90.248599999999996
 20
254.68599999999989
 30
0.0
 11
90.248599999999996
 21
255.87100000000001
 31
0.0
  0
LINE
  5
3F
  8
0
 62
     7
 10
126.53700000000001
 20
255.28599999999989
 30
0.0
 11
88.037599999999998
 21
255.28599999999989
 31
0.0
  0
LINE
  5
40
  8
0
 62
     7
 10
95.884799999999998
 20
89.389399999999995
 30
0.0
 11
67.497100000000003
 21
89.389399999999995
 31
0.0
  0
LINE
  5
41
  8
0
 62
     7
 10
87.337500000000006
 20
247.208
 30
0.0
 11
67.497100000000003
 21
247.208
 31
0.0
  0
LINE
  5
42
  8
0
 62
     7
 10
115.52799999999991
 20
190.87499999999989
 30
0.0
 11
80.052099999999996
 21
190.87499999999989
 31
0.0
  0
LINE
  5
43
  8
0
 62
     7
 10
126.53700000000001
 20
247.9079999999999
 30
0.0
 11
126.53700000000001
 21
255.97900000000001
 31
0.0
  0
LINE
  5
44
  8
0
 62
     7
 10
88.037599999999998
 20
247.9079999999999
 30
0.0
 11
88.037599999999998
 21
255.97900000000001
 31
0.0
  0
TEXT
  5
45
  8
_________2
 62
     7
 10
142.91442499999999
 20
30.627400000000002
 30
0.0
 40
3.9357000000000002
  1
CET534
 41
0.5
 72
     1
 11
148.49000000000001
 21
30.627400000000002
 31
0.0
  0
TEXT
  5
46
  8
_________2
 62
     7
 10
142.91442499999999
 20
20.626999999999988
 30
0.0
 40
3.9357000000000002
  1
CET534
 41
0.5
 72
     1
 11
148.49000000000001
 21
20.626999999999988
 31
0.0
  0
TEXT
  5
47
  8
_________2
 62
     7
 10
25.710000000000001
 20
60.73640000000001
 30
0.0
 40
4.2168199999999993
  1
※ジャバラ管を市販の塩ビパイプ（VP又はVU40A管）に取替えることで直管仕様としてもご使用いただけます。
 41
0.5
  0
TEXT
  5
48
  8
_________2
 62
     7
 10
29.525700000000001
 20
22.226900000000001
 30
0.0
 40
3.9357000000000002
  1
パーティーシンク用
 41
0.5
  0
LINE
  5
49
  8
_________2
 62
     7
 10
210.2409999999999
 20
148.93100000000001
 30
0.0
 11
188.49000000000001
 21
148.93100000000001
 31
0.0
  0
LINE
  5
4A
  8
_________2
 62
     7
 10
105.2389999999999
 20
17.428499999999989
 30
0.0
 11
105.2389999999999
 21
0.4482100000000001
 31
0.0
  0
LINE
  5
4B
  8
_________2
 62
     7
 10
105.2389999999999
 20
297.44999999999987
 30
0.0
 11
105.2389999999999
 21
280.42999999999989
 31
0.0
  0
LINE
  5
4C
  8
_________2
 62
     7
 10
21.988499999999991
 20
148.93100000000001
 30
0.0
 11
0.238058
 21
148.93100000000001
 31
0.0
  0
LINE
  5
4D
  8
_________2
 62
     7
 10
81.679900000000004
 20
51.324300000000001
 30
0.0
 11
79.493700000000004
 21
51.324300000000001
 31
0.0
  0
LINE
  5
4E
  8
_________2
 62
     7
 10
82.172600000000017
 20
51.324300000000001
 30
0.0
 11
81.920400000000001
 21
51.324300000000001
 31
0.0
  0
LINE
  5
4F
  8
_________2
 62
     7
 10
82.665199999999984
 20
51.324300000000001
 30
0.0
 11
85.590100000000007
 21
51.324300000000001
 31
0.0
  0
LINE
  5
50
  8
_________2
 62
     7
 10
82.172600000000017
 20
51.324300000000001
 30
0.0
 11
82.424800000000005
 21
51.324300000000001
 31
0.0
  0
LINE
  5
51
  8
_________2
 62
     7
 10
75.776399999999995
 20
51.324300000000001
 30
0.0
 11
73.589399999999998
 21
51.324300000000001
 31
0.0
  0
LINE
  5
52
  8
_________2
 62
     7
 10
76.2684
 20
51.324300000000001
 30
0.0
 11
76.016900000000007
 21
51.324300000000001
 31
0.0
  0
LINE
  5
53
  8
_________2
 62
     7
 10
76.2684
 20
51.817
 30
0.0
 11
76.2684
 21
54.003900000000002
 31
0.0
  0
LINE
  5
54
  8
_________2
 62
     7
 10
76.2684
 20
51.324300000000001
 30
0.0
 11
76.2684
 21
51.576500000000003
 31
0.0
  0
LINE
  5
55
  8
_________2
 62
     7
 10
76.76100000000001
 20
51.324300000000001
 30
0.0
 11
78.947999999999993
 21
51.324300000000001
 31
0.0
  0
LINE
  5
56
  8
_________2
 62
     7
 10
76.2684
 20
51.324300000000001
 30
0.0
 11
76.520499999999998
 21
51.324300000000001
 31
0.0
  0
LINE
  5
57
  8
_________2
 62
     7
 10
76.2684
 20
50.832399999999993
 30
0.0
 11
76.2684
 21
48.645400000000002
 31
0.0
  0
LINE
  5
58
  8
_________2
 62
     7
 10
76.2684
 20
51.324300000000001
 30
0.0
 11
76.2684
 21
51.072800000000001
 31
0.0
  0
LINE
  5
59
  8
_________2
 62
     7
 10
79.979399999999984
 20
50.104799999999997
 30
0.0
 11
85.157399999999996
 21
49.240000000000002
 31
0.0
  0
LINE
  5
5A
  8
_________2
 62
     7
 10
79.979399999999984
 20
52.543900000000001
 30
0.0
 11
85.157399999999996
 21
53.409300000000002
 31
0.0
  0
LINE
  5
5B
  8
_________2
 62
     7
 10
85.157399999999996
 20
49.240000000000002
 30
0.0
 11
85.157399999999996
 21
53.409300000000002
 31
0.0
  0
LINE
  5
5C
  8
_________2
 62
     7
 10
79.979399999999984
 20
50.104799999999997
 30
0.0
 11
79.979399999999984
 21
52.543900000000001
 31
0.0
  0
ARC
  5
5D
  8
_________2
 62
     7
 10
76.222110000000001
 20
51.277366999999991
 30
0.0
 40
1.2673709999999989
 50
2.1232950000000002
 51
87.909056000000007
  0
ARC
  5
5E
  8
_________2
 62
     7
 10
76.315273000000005
 20
51.277400999999998
 30
0.0
 40
1.267363
 50
92.121785999999986
 51
177.878185
  0
ARC
  5
5F
  8
_________2
 62
     7
 10
76.315273000000005
 20
51.371245999999992
 30
0.0
 40
1.267363
 50
182.12181499999991
 51
267.87821400000001
  0
ARC
  5
60
  8
_________2
 62
     7
 10
76.221461000000005
 20
51.371928999999987
 30
0.0
 40
1.2680439999999991
 50
272.11916400000001
 51
357.84848499999993
  0
ARC
  5
61
  8
_________2
 62
     7
 10
76.268349999999984
 20
51.324323
 30
0.0
 40
2.0849849999999992
 50
0.00001
 51
89.999980000000008
  0
ARC
  5
62
  8
_________2
 62
     7
 10
76.348388
 20
51.245001999999992
 30
0.0
 40
2.1657860000000002
 50
92.117855000000034
 51
177.90105299999991
  0
ARC
  5
63
  8
_________2
 62
     7
 10
76.348354
 20
51.404327000000002
 30
0.0
 40
2.1657779999999991
 50
182.11700400000001
 51
267.88302499999992
  0
ARC
  5
64
  8
_________2
 62
     7
 10
76.188378999999983
 20
51.405009999999997
 30
0.0
 40
2.1664590000000001
 50
272.11546800000002
 51
357.86560400000002
  0
TEXT
  5
65
  8
_________2
 62
     7
 10
109.5439999999999
 20
23.199100000000001
 30
0.0
 40
3.0923400000000001
  1
図番
 41
0.5
  0
LINE
  5
66
  8
_________2
 62
     7
 10
108.4899999999999
 20
27.4283
 30
0.0
 11
188.49000000000001
 21
27.4283
 31
0.0
  0
TEXT
  5
67
  8
_________2
 62
     7
 10
109.5439999999999
 20
33.198900000000002
 30
0.0
 40
3.0923400000000001
  1
品番
 41
0.5
  0
TEXT
  5
68
  8
_________2
 62
     7
 10
109.5439999999999
 20
53.337699999999998
 30
0.0
 40
3.0923400000000001
  1
名称
 41
0.5
  0
TEXT
  5
69
  8
_________2
 62
     7
 10
96.784058333333334
 20
48.341500000000011
 30
0.0
 40
3.6545800000000002
  1
mm
 41
0.5
 72
     1
 11
98.306799999999996
 21
48.341500000000011
 31
0.0
  0
TEXT
  5
6A
  8
_________2
 62
     7
 10
90.582099999999997
 20
53.337699999999998
 30
0.0
 40
3.0923400000000001
  1
単位
 41
0.5
  0
TEXT
  5
6B
  8
_________2
 62
     7
 10
90.582099999999997
 20
40.930399999999999
 30
0.0
 40
3.0923400000000001
  1
尺度
 41
0.5
  0
TEXT
  5
6C
  8
_________2
 62
     7
 10
95.487658666666675
 20
34.73749999999999
 30
0.0
 40
3.6545800000000002
  1
1 ： 3
 41
0.5
 72
     1
 11
98.898600000000002
 21
34.73749999999999
 31
0.0
  0
TEXT
  5
6D
  8
_________2
 62
     7
 10
114.11799999999999
 20
45.7453
 30
0.0
 40
3.9357000000000002
  1
排水金具（ジャバラ式）
 41
0.5
  0
TEXT
  5
6E
  8
_________2
 62
     7
 10
44.364200333333329
 20
35.122599999999991
 30
0.0
 40
3.6545800000000002
  1
早川
 41
0.5
 72
     1
 11
46.252400000000002
 21
35.122599999999991
 31
0.0
  0
TEXT
  5
6F
  8
_________2
 62
     7
 10
25.729290666666671
 20
35.122599999999991
 30
0.0
 40
3.6545800000000002
  1
菅原
 41
0.5
 72
     1
 11
27.6784
 21
35.122599999999991
 31
0.0
  0
TEXT
  5
70
  8
_________2
 62
     7
 10
72.724699999999999
 20
34.73749999999999
 30
0.0
 40
3.6545800000000002
  1
13.02.13
 41
0.5
  0
TEXT
  5
71
  8
_________2
 62
     7
 10
71.531999999999996
 20
40.930399999999999
 30
0.0
 40
3.0923400000000001
  1
日付
 41
0.5
  0
TEXT
  5
72
  8
_________2
 62
     7
 10
34.578299999999992
 20
40.930399999999999
 30
0.0
 40
3.0923400000000001
  1
検図
 41
0.5
  0
TEXT
  5
73
  8
_________2
 62
     7
 10
22.960000000000001
 20
26.730999999999991
 30
0.0
 40
3.0923400000000001
  1
備考
 41
0.5
  0
TEXT
  5
74
  8
_________2
 62
     7
 10
22.960000000000001
 20
40.930399999999999
 30
0.0
 40
3.0923400000000001
  1
製図
 41
0.5
  0
TEXT
  5
75
  8
_________2
 62
     7
 10
28.727365333333339
 20
49.456400000000002
 30
0.0
 40
4.4979399999999989
  1
セラトレーディング株式会社
 41
0.5
 72
     1
 11
46.119399999999992
 21
49.456400000000002
 31
0.0
  0
LINE
  5
76
  8
_________2
 62
     7
 10
188.49000000000001
 20
17.428499999999989
 30
0.0
 11
21.988499999999991
 21
17.428499999999989
 31
0.0
  0
LINE
  5
77
  8
_________2
 62
     7
 10
21.988499999999991
 20
17.428499999999989
 30
0.0
 11
21.988499999999991
 21
280.42999999999989
 31
0.0
  0
LINE
  5
78
  8
_________2
 62
     7
 10
21.988499999999991
 20
280.42999999999989
 30
0.0
 11
188.49000000000001
 21
280.42999999999989
 31
0.0
  0
LINE
  5
79
  8
_________2
 62
     7
 10
188.49000000000001
 20
280.42999999999989
 30
0.0
 11
188.49000000000001
 21
17.428499999999989
 31
0.0
  0
LINE
  5
7A
  8
_________2
 62
     7
 10
70.488799999999998
 20
30.9285
 30
0.0
 11
70.488799999999998
 21
57.428400000000011
 31
0.0
  0
LINE
  5
7B
  8
_________2
 62
     7
 10
89.488600000000005
 20
30.9285
 30
0.0
 11
89.488600000000005
 21
57.428400000000011
 31
0.0
  0
LINE
  5
7C
  8
_________2
 62
     7
 10
108.4899999999999
 20
17.428499999999989
 30
0.0
 11
108.4899999999999
 21
57.428400000000011
 31
0.0
  0
LINE
  5
7D
  8
_________2
 62
     7
 10
33.488300000000002
 20
30.9285
 30
0.0
 11
33.488300000000002
 21
44.928800000000003
 31
0.0
  0
LINE
  5
7E
  8
_________2
 62
     7
 10
21.988499999999991
 20
30.9285
 30
0.0
 11
108.4899999999999
 21
30.9285
 31
0.0
  0
LINE
  5
7F
  8
_________2
 62
     7
 10
21.988499999999991
 20
44.928800000000003
 30
0.0
 11
108.4899999999999
 21
44.928800000000003
 31
0.0
  0
LINE
  5
80
  8
_________2
 62
     7
 10
108.4899999999999
 20
37.428100000000001
 30
0.0
 11
188.49000000000001
 21
37.428100000000001
 31
0.0
  0
LINE
  5
81
  8
_________2
 62
     7
 10
21.988499999999991
 20
57.428400000000011
 30
0.0
 11
188.49000000000001
 21
57.428400000000011
 31
0.0
  0
LINE
  5
52C
  8
LAYER_2
 62
     7
 10
121.0853137665712
 20
231.81639684156249
 30
0.0
 11
122.6335
 21
233.36458307499129
 31
0.0
  0
LINE
  5
52D
  8
LAYER_2
 62
     7
 10
121.0349974345782
 20
228.9336107805739
 30
0.0
 11
122.08528182316
 21
229.98355160213291
 31
0.0
  0
LINE
  5
52E
  8
LAYER_2
 62
     7
 10
121.0475619467996
 20
229.65347248870069
 30
0.0
 11
122.10137164008751
 21
230.70797214905099
 31
0.0
  0
LINE
  5
52F
  8
LAYER_2
 62
     7
 10
121.0601354428092
 20
230.3738489072189
 30
0.0
 11
122.1174259388963
 21
231.43079354445879
 31
0.0
  0
LINE
  5
530
  8
LAYER_2
 62
     7
 10
121.0727100539506
 20
231.09428921526671
 30
0.0
 11
122.1426679243018
 21
232.16424708561789
 31
0.0
  0
LINE
  5
531
  8
LAYER_2
 62
     7
 10
120.8841170964084
 20
220.28918622647441
 30
0.0
 11
121.8923477695643
 21
221.29697715230799
 31
0.0
  0
LINE
  5
532
  8
LAYER_2
 62
     7
 10
120.8966807324579
 20
221.0089977358634
 30
0.0
 11
121.9084355175421
 21
222.0213045477837
 31
0.0
  0
LINE
  5
533
  8
LAYER_2
 62
     7
 10
120.9092556628118
 20
221.72945633262799
 30
0.0
 11
121.9245127062208
 21
222.7451565262088
 31
0.0
  0
LINE
  5
534
  8
LAYER_2
 62
     7
 10
120.9218276475586
 20
222.44974616599421
 30
0.0
 11
121.9405760119872
 21
223.46838344674981
 31
0.0
  0
LINE
  5
535
  8
LAYER_2
 62
     7
 10
120.93440405953579
 20
223.17028964977041
 30
0.0
 11
121.9566524958104
 21
224.1922036900894
 31
0.0
  0
LINE
  5
536
  8
LAYER_2
 62
     7
 10
120.9469653631318
 20
223.88996752532731
 30
0.0
 11
121.9727172475866
 21
224.91549571511749
 31
0.0
  0
LINE
  5
537
  8
LAYER_2
 62
     7
 10
120.9595417761707
 20
224.61051106993551
 30
0.0
 11
121.9887936894056
 21
225.6393140672775
 31
0.0
  0
LINE
  5
538
  8
LAYER_2
 62
     7
 10
120.97211580278559
 20
225.33091788855759
 30
0.0
 11
122.0048772768163
 21
226.36345413928129
 31
0.0
  0
LINE
  5
539
  8
LAYER_2
 62
     7
 10
120.98469073034011
 20
226.05137632493501
 30
0.0
 11
122.0209543510517
 21
227.08730096507071
 31
0.0
  0
LINE
  5
53A
  8
LAYER_2
 62
     7
 10
120.99725436511331
 20
226.77118776119971
 30
0.0
 11
122.0370427332668
 21
227.8116569161503
 31
0.0
  0
LINE
  5
53B
  8
LAYER_2
 62
     7
 10
121.0098287385711
 20
227.49161445158009
 30
0.0
 11
122.053098466788
 21
228.5345429073964
 31
0.0
  0
LINE
  5
53C
  8
LAYER_2
 62
     7
 10
121.02240305738199
 20
228.21203801106449
 30
0.0
 11
122.0691850986715
 21
229.25882005235391
 31
0.0
  0
LINE
  5
53E
  8
LAYER_2
 62
     7
 10
122.6335
 20
233.14649999999989
 30
0.0
 11
122.13330000000001
 21
232.14549999999991
 31
0.0
  0
LINE
  5
53F
  8
LAYER_2
 62
     7
 10
121.47490000000001
 20
202.50200000000001
 30
0.0
 11
122.13330000000001
 21
232.14549999999991
 31
0.0
  0
LINE
  5
540
  8
LAYER_2
 62
     7
 10
126.5368
 20
246.87429999999989
 30
0.0
 11
126.5368
 21
247.208
 31
0.0
  0
LINE
  5
541
  8
LAYER_2
 62
     7
 10
126.10899999999999
 20
246.62729999999999
 30
0.0
 11
126.5368
 21
247.05520000000001
 31
0.0
  0
LINE
  5
542
  8
LAYER_2
 62
     7
 10
125.803
 20
242.1876
 30
0.0
 11
125.803
 21
242.85489999999999
 31
0.0
  0
LINE
  5
543
  8
LAYER_2
 62
     7
 10
126.1365
 20
242.02069999999989
 30
0.0
 11
126.1365
 21
242.1876
 31
0.0
  0
LINE
  5
544
  8
LAYER_2
 62
     7
 10
126.1365
 20
242.1876
 30
0.0
 11
126.1365
 21
242.02069999999989
 31
0.0
  0
LINE
  5
545
  8
LAYER_2
 62
     7
 10
125.68729999999999
 20
242.02069999999989
 30
0.0
 11
125.85469999999999
 21
242.1876
 31
0.0
  0
LINE
  5
546
  8
LAYER_2
 62
     7
 10
124.3017
 20
242.85489999999999
 30
0.0
 11
124.3017
 21
243.02170000000001
 31
0.0
  0
LINE
  5
547
  8
LAYER_2
 62
     7
 10
125.3021
 20
242.85489999999999
 30
0.0
 11
125.3021
 21
243.02170000000001
 31
0.0
  0
ARC
  5
548
  8
LAYER_2
 62
     7
 10
124.8018
 20
243.0217999999999
 30
0.0
 40
0.5003000000000001
 50
359.99053719999858
 51
89.986558230000597
  0
ARC
  5
549
  8
LAYER_2
 62
     7
 10
124.80200000000001
 20
243.0217999999999
 30
0.0
 40
0.5003000000000001
 50
90.011675190000005
 51
180.0112294000015
  0
LINE
  5
54A
  8
LAYER_2
 62
     7
 10
124.3017
 20
242.85489999999999
 30
0.0
 11
124.3017
 21
243.02170000000001
 31
0.0
  0
LINE
  5
54B
  8
LAYER_2
 62
     7
 10
124.4388
 20
242.1876
 30
0.0
 11
125.3
 21
243.04859999999999
 31
0.0
  0
LINE
  5
54C
  8
LAYER_2
 62
     7
 10
123.7311
 20
242.1876
 30
0.0
 11
125.0188999999999
 21
243.47489999999999
 31
0.0
  0
LINE
  5
54D
  8
LAYER_2
 62
     7
 10
124.97969999999999
 20
242.02069999999989
 30
0.0
 11
125.1464
 21
242.1876
 31
0.0
  0
LINE
  5
54E
  8
LAYER_2
 62
     7
 10
124.2727
 20
242.02069999999989
 30
0.0
 11
124.4388
 21
242.1876
 31
0.0
  0
LINE
  5
54F
  8
LAYER_2
 62
     7
 10
121.7998
 20
242.1876
 30
0.0
 11
121.7998
 21
242.89109999999999
 31
0.0
  0
LINE
  5
550
  8
LAYER_2
 62
     7
 10
122.46680000000001
 20
242.85489999999999
 30
0.0
 11
122.46680000000001
 21
243.94649999999999
 31
0.0
  0
LINE
  5
551
  8
LAYER_2
 62
     7
 10
121.91630000000001
 20
242.02069999999989
 30
0.0
 11
121.91630000000001
 21
242.1876
 31
0.0
  0
LINE
  5
552
  8
LAYER_2
 62
     7
 10
121.91630000000001
 20
242.02069999999989
 30
0.0
 11
121.91630000000001
 21
242.1876
 31
0.0
  0
LINE
  5
553
  8
LAYER_2
 62
     7
 10
121.7998
 20
242.89109999999999
 30
0.0
 11
122.46680000000001
 21
243.94649999999999
 31
0.0
  0
LINE
  5
554
  8
LAYER_2
 62
     7
 10
122.46680000000001
 20
243.94649999999999
 30
0.0
 11
122.46680000000001
 21
242.85489999999999
 31
0.0
  0
LINE
  5
555
  8
LAYER_2
 62
     7
 10
122.3159
 20
242.1876
 30
0.0
 11
122.9829
 21
242.85489999999999
 31
0.0
  0
LINE
  5
556
  8
LAYER_2
 62
     7
 10
121.7998
 20
242.37899999999999
 30
0.0
 11
122.46680000000001
 21
243.04599999999999
 31
0.0
  0
LINE
  5
557
  8
LAYER_2
 62
     7
 10
122.04510000000001
 20
243.3321
 30
0.0
 11
122.46680000000001
 21
243.7537999999999
 31
0.0
  0
LINE
  5
558
  8
LAYER_2
 62
     7
 10
122.85680000000001
 20
242.02069999999989
 30
0.0
 11
123.0235
 21
242.1876
 31
0.0
  0
LINE
  5
559
  8
LAYER_2
 62
     7
 10
122.14919999999999
 20
242.02069999999989
 30
0.0
 11
122.3159
 21
242.1876
 31
0.0
  0
ARC
  5
55A
  8
LAYER_2
 62
     7
 10
126.65000000000001
 20
241.38779999999991
 30
0.0
 40
4.8121
 50
117.71746
 51
130.46045729999989
  0
LINE
  5
55B
  8
LAYER_2
 62
     7
 10
122.46680000000001
 20
242.85489999999999
 30
0.0
 11
124.3017
 21
242.85489999999999
 31
0.0
  0
LINE
  5
55C
  8
LAYER_2
 62
     7
 10
122.46680000000001
 20
243.52209999999999
 30
0.0
 11
124.8019
 21
243.52209999999999
 31
0.0
  0
LINE
  5
55D
  8
LAYER_2
 62
     7
 10
122.46680000000001
 20
242.85489999999999
 30
0.0
 11
124.3017
 21
242.85489999999999
 31
0.0
  0
LINE
  5
55E
  8
LAYER_2
 62
     7
 10
123.0235
 20
242.1876
 30
0.0
 11
123.69119999999999
 21
242.85489999999999
 31
0.0
  0
LINE
  5
55F
  8
LAYER_2
 62
     7
 10
123.56440000000001
 20
242.02069999999989
 30
0.0
 11
123.7311
 21
242.1876
 31
0.0
  0
LINE
  5
560
  8
LAYER_2
 62
     7
 10
125.8361
 20
242.02069999999989
 30
0.0
 11
122.3972
 21
241.72
 31
0.0
  0
LINE
  5
561
  8
LAYER_2
 62
     7
 10
126.5368
 20
246.87429999999989
 30
0.0
 11
124.4119
 21
245.64769999999999
 31
0.0
  0
LINE
  5
562
  8
LAYER_2
 62
     7
 10
124.9927
 20
245.98269999999999
 30
0.0
 11
126.1875
 21
247.1773
 31
0.0
  0
LINE
  5
563
  8
LAYER_2
 62
     7
 10
123.7201
 20
245.18180000000001
 30
0.0
 11
125.67
 21
247.13239999999999
 31
0.0
  0
LINE
  5
564
  8
LAYER_2
 62
     7
 10
121.7998
 20
242.1876
 30
0.0
 11
125.803
 21
242.1876
 31
0.0
  0
LINE
  5
565
  8
LAYER_2
 62
     7
 10
125.3021
 20
242.85489999999999
 30
0.0
 11
125.803
 21
242.85489999999999
 31
0.0
  0
LINE
  5
566
  8
LAYER_2
 62
     7
 10
121.91630000000001
 20
242.1876
 30
0.0
 11
126.1365
 21
242.1876
 31
0.0
  0
LINE
  5
567
  8
LAYER_2
 62
     7
 10
126.1365
 20
242.02069999999989
 30
0.0
 11
121.91630000000001
 21
242.02069999999989
 31
0.0
  0
LINE
  5
568
  8
LAYER_2
 62
     7
 10
121.6324
 20
242.1876
 30
0.0
 11
126.1365
 21
242.1876
 31
0.0
  0
LINE
  5
569
  8
LAYER_2
 62
     7
 10
121.6324
 20
242.02069999999989
 30
0.0
 11
126.1365
 21
242.02069999999989
 31
0.0
  0
LINE
  5
56A
  8
LAYER_2
 62
     7
 10
125.1464
 20
242.1876
 30
0.0
 11
125.803
 21
242.84370000000001
 31
0.0
  0
ARC
  5
56B
  8
LAYER_2
 62
     7
 10
120.7153
 20
246.94169999999991
 30
0.0
 40
0.2501
 50
0.000585614343177
 51
89.999414370000707
  0
ARC
  5
56C
  8
LAYER_2
 62
     7
 10
120.7153
 20
246.94169999999991
 30
0.0
 40
0.2501
 50
269.9965954999987
 51
0.0034044899187939
  0
LINE
  5
56D
  8
LAYER_2
 62
     7
 10
120.6319
 20
246.69159999999999
 30
0.0
 11
120.7153
 21
246.69159999999999
 31
0.0
  0
LINE
  5
56E
  8
LAYER_2
 62
     7
 10
120.6319
 20
246.69159999999999
 30
0.0
 11
120.5706
 21
245.83359999999999
 31
0.0
  0
ARC
  5
56F
  8
LAYER_2
 62
     7
 10
120.22709999999999
 20
245.86879999999999
 30
0.0
 40
0.3453
 50
271.77737940000088
 51
354.14134309999781
  0
LINE
  5
570
  8
LAYER_2
 62
     7
 10
120.7153
 20
246.69159999999999
 30
0.0
 11
120.6319
 21
246.69159999999999
 31
0.0
  0
LINE
  5
571
  8
LAYER_2
 62
     7
 10
120.6319
 20
246.69159999999999
 30
0.0
 11
120.5706
 21
245.83359999999999
 31
0.0
  0
LINE
  5
572
  8
LAYER_2
 62
     7
 10
120.14
 20
245.52369999999999
 30
0.0
 11
120.5796
 21
245.96340000000001
 31
0.0
  0
LINE
  5
573
  8
LAYER_2
 62
     7
 10
119.66800000000001
 20
245.52369999999999
 30
0.0
 11
120.6161
 21
246.47179999999989
 31
0.0
  0
LINE
  5
574
  8
LAYER_2
 62
     7
 10
120.6195
 20
245.85609999999991
 30
0.0
 11
121.5339
 21
246.7705
 31
0.0
  0
LINE
  5
575
  8
LAYER_2
 62
     7
 10
120.6264
 20
246.33479999999989
 30
0.0
 11
121.0171
 21
246.7252
 31
0.0
  0
ARC
  5
576
  8
LAYER_2
 62
     7
 10
118.46299999999999
 20
246.85820000000001
 30
0.0
 40
0.3336
 50
90.014585370000987
 51
180.01976460000111
  0
ARC
  5
577
  8
LAYER_2
 62
     7
 10
119.29730000000001
 20
245.85720000000001
 30
0.0
 40
0.3335
 50
179.99806979999801
 51
270.00193019999961
  0
LINE
  5
578
  8
LAYER_2
 62
     7
 10
118.1294
 20
246.69159999999999
 30
0.0
 11
118.1294
 21
246.85809999999989
 31
0.0
  0
LINE
  5
579
  8
LAYER_2
 62
     7
 10
118.1294
 20
246.69159999999999
 30
0.0
 11
118.1294
 21
246.85809999999989
 31
0.0
  0
LINE
  5
57A
  8
LAYER_2
 62
     7
 10
118.1143
 20
245.85720000000001
 30
0.0
 11
119.44889999999999
 21
247.1918
 31
0.0
  0
LINE
  5
57B
  8
LAYER_2
 62
     7
 10
117.643
 20
245.85720000000001
 30
0.0
 11
118.9776
 21
247.1918
 31
0.0
  0
LINE
  5
57C
  8
LAYER_2
 62
     7
 10
118.1294
 20
246.81610000000001
 30
0.0
 11
118.5056
 21
247.1918
 31
0.0
  0
LINE
  5
57D
  8
LAYER_2
 62
     7
 10
120.23779999999999
 20
245.52369999999999
 30
0.0
 11
119.29730000000001
 21
245.52369999999999
 31
0.0
  0
LINE
  5
57E
  8
LAYER_2
 62
     7
 10
119.2084
 20
245.53609999999989
 30
0.0
 11
120.83450000000001
 21
247.16149999999999
 31
0.0
  0
LINE
  5
57F
  8
LAYER_2
 62
     7
 10
118.97490000000001
 20
245.77379999999999
 30
0.0
 11
120.3929
 21
247.1918
 31
0.0
  0
LINE
  5
580
  8
LAYER_2
 62
     7
 10
118.58620000000001
 20
245.85720000000001
 30
0.0
 11
119.9209
 21
247.1918
 31
0.0
  0
ARC
  5
581
  8
LAYER_2
 62
     7
 10
117.0363
 20
245.27510000000001
 30
0.0
 40
0.5832000000000001
 50
86.512595800000696
 51
138.46485599999949
  0
ARC
  5
582
  8
LAYER_2
 62
     7
 10
116.878
 20
245.7987
 30
0.0
 40
0.8942999999999999
 50
86.764152769999797
 51
143.23445500000051
  0
LINE
  5
583
  8
LAYER_2
 62
     7
 10
115.7936
 20
245.8956
 30
0.0
 11
116.4847
 21
246.58670000000001
 31
0.0
  0
LINE
  5
584
  8
LAYER_2
 62
     7
 10
113.6253
 20
246.85809999999989
 30
0.0
 11
113.6253
 21
247.35849999999999
 31
0.0
  0
ARC
  5
585
  8
LAYER_2
 62
     7
 10
113.4525
 20
246.86439999999999
 30
0.0
 40
0.1729
 50
272.01364899999948
 51
357.91756859999941
  0
ARC
  5
586
  8
LAYER_2
 62
     7
 10
114.0213
 20
245.1497
 30
0.0
 40
1.4634999999999989
 50
266.63700690000007
 51
318.36246920000019
  0
LINE
  5
587
  8
LAYER_2
 62
     7
 10
113.9354
 20
243.68870000000001
 30
0.0
 11
113.9423
 21
243.68870000000001
 31
0.0
  0
LINE
  5
588
  8
LAYER_2
 62
     7
 10
113.56610000000001
 20
243.52209999999999
 30
0.0
 11
113.7328
 21
243.68870000000001
 31
0.0
  0
LINE
  5
589
  8
LAYER_2
 62
     7
 10
116.5998
 20
245.6618
 30
0.0
 11
115.11499999999999
 21
244.17729999999989
 31
0.0
  0
LINE
  5
58A
  8
LAYER_2
 62
     7
 10
116.16160000000001
 20
246.334
 30
0.0
 11
113.8017
 21
243.52209999999999
 31
0.0
  0
LINE
  5
58B
  8
LAYER_2
 62
     7
 10
116.5998
 20
245.6618
 30
0.0
 11
115.11499999999999
 21
244.17729999999989
 31
0.0
  0
LINE
  5
58C
  8
LAYER_2
 62
     7
 10
113.9423
 20
243.68870000000001
 30
0.0
 11
116.16160000000001
 21
246.334
 31
0.0
  0
LINE
  5
58D
  8
LAYER_2
 62
     7
 10
114.0663
 20
243.69640000000001
 30
0.0
 11
117.06140000000001
 21
246.69159999999999
 31
0.0
  0
LINE
  5
58E
  8
LAYER_2
 62
     7
 10
117.0718
 20
245.85720000000001
 30
0.0
 11
118.96380000000001
 21
245.85720000000001
 31
0.0
  0
LINE
  5
58F
  8
LAYER_2
 62
     7
 10
116.46129999999999
 20
245.52369999999999
 30
0.0
 11
120.23779999999999
 21
245.52369999999999
 31
0.0
  0
LINE
  5
590
  8
LAYER_2
 62
     7
 10
118.96380000000001
 20
245.85720000000001
 30
0.0
 11
117.0718
 21
245.85720000000001
 31
0.0
  0
LINE
  5
591
  8
LAYER_2
 62
     7
 10
116.9285
 20
246.69159999999999
 30
0.0
 11
118.1294
 21
246.69159999999999
 31
0.0
  0
LINE
  5
592
  8
LAYER_2
 62
     7
 10
117.17100000000001
 20
245.85720000000001
 30
0.0
 11
118.0047
 21
246.69159999999999
 31
0.0
  0
LINE
  5
593
  8
LAYER_2
 62
     7
 10
114.74079999999999
 20
243.89899999999989
 30
0.0
 11
117.5334
 21
246.69159999999999
 31
0.0
  0
ARC
  5
594
  8
LAYER_2
 62
     7
 10
112.9586
 20
245.6909
 30
0.0
 40
1.000699999999999
 50
90.018297190000212
 51
180.01605620000069
  0
LINE
  5
595
  8
LAYER_2
 62
     7
 10
111.9579
 20
243.68870000000001
 30
0.0
 11
111.9579
 21
245.69059999999999
 31
0.0
  0
LINE
  5
596
  8
LAYER_2
 62
     7
 10
113.0941
 20
243.52209999999999
 30
0.0
 11
113.2615
 21
243.68870000000001
 31
0.0
  0
LINE
  5
597
  8
LAYER_2
 62
     7
 10
112.6228
 20
243.52209999999999
 30
0.0
 11
112.7895
 21
243.68870000000001
 31
0.0
  0
LINE
  5
598
  8
LAYER_2
 62
     7
 10
112.1508
 20
243.52209999999999
 30
0.0
 11
112.3175
 21
243.68870000000001
 31
0.0
  0
LINE
  5
599
  8
LAYER_2
 62
     7
 10
111.6788
 20
243.52209999999999
 30
0.0
 11
111.8456
 21
243.68870000000001
 31
0.0
  0
ARC
  5
59A
  8
LAYER_2
 62
     7
 10
110.6293
 20
244.06700000000001
 30
0.0
 40
0.8665000000000001
 50
218.9643045000004
 51
304.76999629999978
  0
LINE
  5
59B
  8
LAYER_2
 62
     7
 10
109.2886
 20
243.68870000000001
 30
0.0
 11
109.2886
 21
245.69059999999999
 31
0.0
  0
LINE
  5
59C
  8
LAYER_2
 62
     7
 10
110.73560000000001
 20
243.52209999999999
 30
0.0
 11
110.9023
 21
243.68870000000001
 31
0.0
  0
LINE
  5
59D
  8
LAYER_2
 62
     7
 10
110.2636
 20
243.52209999999999
 30
0.0
 11
110.4303
 21
243.68870000000001
 31
0.0
  0
LINE
  5
59E
  8
LAYER_2
 62
     7
 10
109.7916
 20
243.52209999999999
 30
0.0
 11
109.95829999999999
 21
243.68870000000001
 31
0.0
  0
LINE
  5
59F
  8
LAYER_2
 62
     7
 10
109.31959999999999
 20
243.52209999999999
 30
0.0
 11
109.4871
 21
243.68870000000001
 31
0.0
  0
LINE
  5
5A0
  8
LAYER_2
 62
     7
 10
111.12350000000001
 20
243.3552
 30
0.0
 11
111.2902
 21
243.52209999999999
 31
0.0
  0
LINE
  5
5A1
  8
LAYER_2
 62
     7
 10
109.2886
 20
247.35849999999999
 30
0.0
 11
111.9579
 21
247.35849999999999
 31
0.0
  0
LINE
  5
5A2
  8
LAYER_2
 62
     7
 10
111.2075
 20
243.52209999999999
 30
0.0
 11
111.3736
 21
243.68870000000001
 31
0.0
  0
LINE
  5
5A3
  8
LAYER_2
 62
     7
 10
109.2886
 20
247.35849999999999
 30
0.0
 11
109.2886
 21
247.69220000000001
 31
0.0
  0
LINE
  5
5A4
  8
LAYER_2
 62
     7
 10
111.9579
 20
247.35849999999999
 30
0.0
 11
111.9579
 21
247.69220000000001
 31
0.0
  0
LINE
  5
5A5
  8
LAYER_2
 62
     7
 10
107.62050000000001
 20
246.85809999999989
 30
0.0
 11
107.62050000000001
 21
247.35849999999999
 31
0.0
  0
ARC
  5
5A6
  8
LAYER_2
 62
     7
 10
107.7937
 20
246.86479999999989
 30
0.0
 40
0.1733
 50
182.2158534999954
 51
267.85292900000047
  0
LINE
  5
5A7
  8
LAYER_2
 62
     7
 10
107.7872
 20
246.69159999999999
 30
0.0
 11
108.2882
 21
246.69159999999999
 31
0.0
  0
LINE
  5
5A8
  8
LAYER_2
 62
     7
 10
107.28699999999991
 20
246.69159999999999
 30
0.0
 11
108.2882
 21
246.69159999999999
 31
0.0
  0
LINE
  5
5A9
  8
LAYER_2
 62
     7
 10
108.84829999999999
 20
243.52209999999999
 30
0.0
 11
109.0151
 21
243.68870000000001
 31
0.0
  0
LINE
  5
5AA
  8
LAYER_2
 62
     7
 10
108.3764
 20
243.52209999999999
 30
0.0
 11
108.5431
 21
243.68870000000001
 31
0.0
  0
LINE
  5
5AB
  8
LAYER_2
 62
     7
 10
107.9044
 20
243.52209999999999
 30
0.0
 11
108.0711
 21
243.68870000000001
 31
0.0
  0
LINE
  5
5AC
  8
LAYER_2
 62
     7
 10
107.4324
 20
243.52209999999999
 30
0.0
 11
107.59910000000001
 21
243.68870000000001
 31
0.0
  0
LINE
  5
5AD
  8
LAYER_2
 62
     7
 10
107.28699999999991
 20
247.208
 30
0.0
 11
107.62050000000001
 21
247.208
 31
0.0
  0
ARC
  5
5AE
  8
LAYER_2
 62
     7
 10
107.9541
 20
247.3586
 30
0.0
 40
0.3336
 50
90.012920340001074
 51
180.0214296999992
  0
LINE
  5
5AF
  8
LAYER_2
 62
     7
 10
107.95399999999999
 20
247.69220000000001
 30
0.0
 11
113.29179999999999
 21
247.69220000000001
 31
0.0
  0
ARC
  5
5B0
  8
LAYER_2
 62
     7
 10
108.28789999999999
 20
245.6909
 30
0.0
 40
1.000699999999999
 50
359.98396740000061
 51
89.981679180000398
  0
ARC
  5
5B1
  8
LAYER_2
 62
     7
 10
113.29170000000001
 20
247.3586
 30
0.0
 40
0.3336
 50
359.97769829999902
 51
89.987951719999486
  0
LINE
  5
5B2
  8
LAYER_2
 62
     7
 10
112.95829999999999
 20
246.69159999999999
 30
0.0
 11
113.4586
 21
246.69159999999999
 31
0.0
  0
LINE
  5
5B3
  8
LAYER_2
 62
     7
 10
112.95829999999999
 20
246.69159999999999
 30
0.0
 11
118.1294
 21
246.69159999999999
 31
0.0
  0
LINE
  5
5B4
  8
LAYER_2
 62
     7
 10
107.28699999999991
 20
243.68870000000001
 30
0.0
 11
113.9354
 21
243.68870000000001
 31
0.0
  0
LINE
  5
5B5
  8
LAYER_2
 62
     7
 10
107.28699999999991
 20
243.52209999999999
 30
0.0
 11
113.8017
 21
243.52209999999999
 31
0.0
  0
LINE
  5
5B6
  8
LAYER_2
 62
     7
 10
112.95829999999999
 20
246.69159999999999
 30
0.0
 11
120.6319
 21
246.69159999999999
 31
0.0
  0
ARC
  5
5B7
  8
LAYER_2
 62
     7
 10
128.05969999999999
 20
239.65880000000001
 30
0.0
 40
7.0425000000000004
 50
130.0580731
 51
155.8729474999999
  0
LINE
  5
5B8
  8
LAYER_2
 62
     7
 10
121.6324
 20
242.53749999999999
 30
0.0
 11
121.0488
 21
241.95339999999999
 31
0.0
  0
LINE
  5
5B9
  8
LAYER_2
 62
     7
 10
126.5368
 20
247.208
 30
0.0
 11
120.6319
 21
246.69159999999999
 31
0.0
  0
LINE
  5
5BA
  8
LAYER_2
 62
     7
 10
120.56440000000001
 20
242.02600000000001
 30
0.0
 11
122.4158
 21
243.87799999999999
 31
0.0
  0
LINE
  5
5BB
  8
LAYER_2
 62
     7
 10
120.57129999999999
 20
242.50470000000001
 30
0.0
 11
125.1533
 21
247.08709999999999
 31
0.0
  0
LINE
  5
5BC
  8
LAYER_2
 62
     7
 10
120.5782
 20
242.98339999999999
 30
0.0
 11
124.6358
 21
247.04179999999999
 31
0.0
  0
LINE
  5
5BD
  8
LAYER_2
 62
     7
 10
120.5851
 20
243.4623
 30
0.0
 11
124.1191
 21
246.9965
 31
0.0
  0
LINE
  5
5BE
  8
LAYER_2
 62
     7
 10
120.592
 20
243.941
 30
0.0
 11
123.6023
 21
246.9513
 31
0.0
  0
LINE
  5
5BF
  8
LAYER_2
 62
     7
 10
120.5989
 20
244.41969999999989
 30
0.0
 11
123.0848
 21
246.90600000000001
 31
0.0
  0
LINE
  5
5C0
  8
LAYER_2
 62
     7
 10
120.6058
 20
244.89840000000001
 30
0.0
 11
122.5681
 21
246.86069999999989
 31
0.0
  0
LINE
  5
5C1
  8
LAYER_2
 62
     7
 10
120.6126
 20
245.37739999999999
 30
0.0
 11
122.0506
 21
246.81540000000001
 31
0.0
  0
LINE
  5
5C2
  8
LAYER_2
 62
     7
 10
113.6253
 20
247.208
 30
0.0
 11
126.5368
 21
247.208
 31
0.0
  0
ARC
  5
5C3
  8
LAYER_2
 62
     7
 10
123.2933
 20
239.6961
 30
0.0
 40
0.6599000000000002
 50
94.409577990000074
 51
180.59763370000039
  0
LINE
  5
5C4
  8
LAYER_2
 62
     7
 10
121.733
 20
236.70819999999989
 30
0.0
 11
122.6335
 21
237.60889999999989
 31
0.0
  0
LINE
  5
5C5
  8
LAYER_2
 62
     7
 10
121.733
 20
237.416
 30
0.0
 11
122.6335
 21
238.31669999999991
 31
0.0
  0
LINE
  5
5C6
  8
LAYER_2
 62
     7
 10
121.733
 20
238.12379999999999
 30
0.0
 11
122.6335
 21
239.02430000000001
 31
0.0
  0
LINE
  5
5C7
  8
LAYER_2
 62
     7
 10
121.733
 20
238.8312
 30
0.0
 11
122.6356
 21
239.7345
 31
0.0
  0
LINE
  5
5C8
  8
LAYER_2
 62
     7
 10
121.733
 20
236.1150999999999
 30
0.0
 11
121.733
 21
240.78579999999999
 31
0.0
  0
LINE
  5
5C9
  8
LAYER_2
 62
     7
 10
121.733
 20
240.78579999999999
 30
0.0
 11
121.733
 21
240.99459999999999
 31
0.0
  0
LINE
  5
5CA
  8
LAYER_2
 62
     7
 10
125.3793
 20
240.54089999999999
 30
0.0
 11
123.2426
 21
240.35400000000001
 31
0.0
  0
LINE
  5
5CB
  8
LAYER_2
 62
     7
 10
125.3793
 20
240.54089999999999
 30
0.0
 11
123.2426
 21
240.35400000000001
 31
0.0
  0
LINE
  5
5CC
  8
LAYER_2
 62
     7
 10
122.6335
 20
233.14649999999989
 30
0.0
 11
122.6335
 21
239.6892
 31
0.0
  0
LINE
  5
5CD
  8
LAYER_2
 62
     7
 10
122.6335
 20
239.6892
 30
0.0
 11
122.6335
 21
234.68109999999999
 31
0.0
  0
ARC
  5
5CE
  8
LAYER_2
 62
     7
 10
125.3416
 20
241.03399999999999
 30
0.0
 40
0.4945000000000001
 50
274.36860380000019
 51
0.6302828951008963
  0
LINE
  5
5CF
  8
LAYER_2
 62
     7
 10
124.8074
 20
240.4907
 30
0.0
 11
125.8361
 21
241.51939999999999
 31
0.0
  0
LINE
  5
5D0
  8
LAYER_2
 62
     7
 10
119.965
 20
237.19929999999999
 30
0.0
 11
120.2482
 21
237.19929999999999
 31
0.0
  0
LINE
  5
5D1
  8
LAYER_2
 62
     7
 10
119.9939
 20
237.19929999999999
 30
0.0
 11
120.4941
 21
237.19929999999999
 31
0.0
  0
LINE
  5
5D2
  8
LAYER_2
 62
     7
 10
120.4803999999999
 20
236.28100000000001
 30
0.0
 11
121.0488
 21
236.84889999999999
 31
0.0
  0
LINE
  5
5D3
  8
LAYER_2
 62
     7
 10
120.4879
 20
236.7596999999999
 30
0.0
 11
121.0488
 21
237.32069999999999
 31
0.0
  0
LINE
  5
5D4
  8
LAYER_2
 62
     7
 10
120.4948
 20
237.23840000000001
 30
0.0
 11
121.0488
 21
237.79249999999999
 31
0.0
  0
LINE
  5
5D5
  8
LAYER_2
 62
     7
 10
120.5017
 20
237.71729999999999
 30
0.0
 11
121.0488
 21
238.2645
 31
0.0
  0
LINE
  5
5D6
  8
LAYER_2
 62
     7
 10
120.5086
 20
238.19599999999991
 30
0.0
 11
121.0488
 21
238.7362
 31
0.0
  0
LINE
  5
5D7
  8
LAYER_2
 62
     7
 10
120.5155
 20
238.6747
 30
0.0
 11
121.0488
 21
239.2081
 31
0.0
  0
LINE
  5
5D8
  8
LAYER_2
 62
     7
 10
120.5224
 20
239.1534
 30
0.0
 11
121.0488
 21
239.6799
 31
0.0
  0
LINE
  5
5D9
  8
LAYER_2
 62
     7
 10
120.52930000000001
 20
239.63209999999989
 30
0.0
 11
121.0488
 21
240.15159999999989
 31
0.0
  0
LINE
  5
5DA
  8
LAYER_2
 62
     7
 10
120.53619999999999
 20
240.11089999999999
 30
0.0
 11
121.0488
 21
240.62339999999989
 31
0.0
  0
LINE
  5
5DB
  8
LAYER_2
 62
     7
 10
120.5431
 20
240.5898
 30
0.0
 11
121.0488
 21
241.09520000000001
 31
0.0
  0
LINE
  5
5DC
  8
LAYER_2
 62
     7
 10
120.54989999999999
 20
241.06849999999989
 30
0.0
 11
121.0488
 21
241.5671999999999
 31
0.0
  0
LINE
  5
5DD
  8
LAYER_2
 62
     7
 10
119.965
 20
237.19929999999999
 30
0.0
 11
120.4314
 21
237.19929999999999
 31
0.0
  0
LINE
  5
5DE
  8
LAYER_2
 62
     7
 10
119.965
 20
237.53299999999999
 30
0.0
 11
120.2482
 21
237.53299999999999
 31
0.0
  0
LINE
  5
5DF
  8
LAYER_2
 62
     7
 10
120.2482
 20
237.19929999999999
 30
0.0
 11
120.2482
 21
237.53299999999999
 31
0.0
  0
LINE
  5
5E0
  8
LAYER_2
 62
     7
 10
119.965
 20
237.19929999999999
 30
0.0
 11
120.2482
 21
237.19929999999999
 31
0.0
  0
LINE
  5
5E1
  8
LAYER_2
 62
     7
 10
120.12690000000001
 20
237.19929999999999
 30
0.0
 11
119.80370000000001
 21
237.52180000000001
 31
0.0
  0
LINE
  5
5E2
  8
LAYER_2
 62
     7
 10
119.43989999999999
 20
236.9425
 30
0.0
 11
119.2029
 21
237.1797
 31
0.0
  0
LINE
  5
5E3
  8
LAYER_2
 62
     7
 10
119.3035
 20
236.6071
 30
0.0
 11
119.0279
 21
236.8827
 31
0.0
  0
LINE
  5
5E4
  8
LAYER_2
 62
     7
 10
119.29730000000001
 20
236.14109999999999
 30
0.0
 11
118.96380000000001
 21
236.47479999999999
 31
0.0
  0
ARC
  5
5E5
  8
LAYER_2
 62
     7
 10
119.9648
 20
236.53200000000001
 30
0.0
 40
1.000999999999999
 50
89.989015260000414
 51
179.98808930000061
  0
ARC
  5
5E6
  8
LAYER_2
 62
     7
 10
119.96469999999999
 20
236.53189999999989
 30
0.0
 40
0.6674
 50
89.9749388700004
 51
179.9735515999991
  0
LINE
  5
5E7
  8
LAYER_2
 62
     7
 10
119.7052
 20
237.14879999999999
 30
0.0
 11
119.4592
 21
237.39500000000001
 31
0.0
  0
LINE
  5
5E8
  8
LAYER_2
 62
     7
 10
119.96429999999999
 20
235.1977
 30
0.0
 11
121.0488
 21
235.1977
 31
0.0
  0
LINE
  5
5E9
  8
LAYER_2
 62
     7
 10
121.0488
 20
235.1977
 30
0.0
 11
121.0488
 21
235.53139999999999
 31
0.0
  0
LINE
  5
5EA
  8
LAYER_2
 62
     7
 10
120.81319999999999
 20
235.1977
 30
0.0
 11
121.0488
 21
235.43369999999999
 31
0.0
  0
ARC
  5
5EB
  8
LAYER_2
 62
     7
 10
118.2963
 20
232.0284
 30
0.0
 40
0.6675
 50
269.98894709999951
 51
359.98529999999909
  0
LINE
  5
5EC
  8
LAYER_2
 62
     7
 10
119.29730000000001
 20
235.1977
 30
0.0
 11
118.96380000000001
 21
235.53139999999999
 31
0.0
  0
LINE
  5
5ED
  8
LAYER_2
 62
     7
 10
119.29730000000001
 20
234.7259
 30
0.0
 11
118.96380000000001
 21
235.05950000000001
 31
0.0
  0
LINE
  5
5EE
  8
LAYER_2
 62
     7
 10
119.29730000000001
 20
234.25409999999999
 30
0.0
 11
118.96380000000001
 21
234.58770000000001
 31
0.0
  0
LINE
  5
5EF
  8
LAYER_2
 62
     7
 10
119.29730000000001
 20
233.78229999999999
 30
0.0
 11
118.96380000000001
 21
234.11590000000001
 31
0.0
  0
LINE
  5
5F0
  8
LAYER_2
 62
     7
 10
119.29730000000001
 20
233.31049999999999
 30
0.0
 11
118.96380000000001
 21
233.64400000000001
 31
0.0
  0
LINE
  5
5F1
  8
LAYER_2
 62
     7
 10
119.29730000000001
 20
232.83850000000001
 30
0.0
 11
118.96380000000001
 21
233.1722
 31
0.0
  0
LINE
  5
5F2
  8
LAYER_2
 62
     7
 10
119.29730000000001
 20
232.36669999999989
 30
0.0
 11
118.96380000000001
 21
232.70029999999991
 31
0.0
  0
LINE
  5
5F3
  8
LAYER_2
 62
     7
 10
119.289
 20
231.9032
 30
0.0
 11
118.96380000000001
 21
232.2285
 31
0.0
  0
LINE
  5
5F4
  8
LAYER_2
 62
     7
 10
119.17400000000001
 20
231.54660000000001
 30
0.0
 11
118.9225
 21
231.7979
 31
0.0
  0
LINE
  5
5F5
  8
LAYER_2
 62
     7
 10
118.9645
 20
231.28419999999991
 30
0.0
 11
118.7282
 21
231.52059999999989
 31
0.0
  0
LINE
  5
5F6
  8
LAYER_2
 62
     7
 10
118.67440000000001
 20
231.10249999999999
 30
0.0
 11
118.4071
 21
231.37020000000001
 31
0.0
  0
LINE
  5
5F7
  8
LAYER_2
 62
     7
 10
118.27760000000001
 20
231.0274
 30
0.0
 11
117.94410000000001
 21
231.36089999999999
 31
0.0
  0
LINE
  5
5F8
  8
LAYER_2
 62
     7
 10
117.8056
 20
231.0274
 30
0.0
 11
117.4721
 21
231.36089999999999
 31
0.0
  0
ARC
  5
5F9
  8
LAYER_2
 62
     7
 10
118.2963
 20
232.0284
 30
0.0
 40
1.000999999999999
 50
269.99262969999972
 51
359.99019789999971
  0
LINE
  5
5FA
  8
LAYER_2
 62
     7
 10
121.14870000000001
 20
240.11850000000001
 30
0.0
 11
121.14870000000001
 21
235.44800000000001
 31
0.0
  0
LINE
  5
5FB
  8
LAYER_2
 62
     7
 10
119.9939
 20
237.19929999999999
 30
0.0
 11
119.96429999999999
 21
235.1977
 31
0.0
  0
LINE
  5
5FC
  8
LAYER_2
 62
     7
 10
120.4666
 20
235.32329999999999
 30
0.0
 11
121.0488
 21
235.90549999999999
 31
0.0
  0
LINE
  5
5FD
  8
LAYER_2
 62
     7
 10
120.4735
 20
235.80199999999999
 30
0.0
 11
121.0488
 21
236.37710000000001
 31
0.0
  0
LINE
  5
5FE
  8
LAYER_2
 62
     7
 10
119.29730000000001
 20
232.0282
 30
0.0
 11
119.29730000000001
 21
236.53349999999989
 31
0.0
  0
LINE
  5
5FF
  8
LAYER_2
 62
     7
 10
118.96380000000001
 20
232.0282
 30
0.0
 11
118.96380000000001
 21
236.5321999999999
 31
0.0
  0
LINE
  5
600
  8
LAYER_2
 62
     7
 10
119.29730000000001
 20
235.6695
 30
0.0
 11
118.96380000000001
 21
236.00299999999999
 31
0.0
  0
LINE
  5
601
  8
LAYER_2
 62
     7
 10
115.9948
 20
233.72969999999989
 30
0.0
 11
115.9948
 21
235.16449999999989
 31
0.0
  0
LINE
  5
602
  8
LAYER_2
 62
     7
 10
117.3336
 20
231.0274
 30
0.0
 11
117.0008
 21
231.36089999999999
 31
0.0
  0
LINE
  5
603
  8
LAYER_2
 62
     7
 10
116.8623
 20
231.0274
 30
0.0
 11
116.5288
 21
231.36089999999999
 31
0.0
  0
LINE
  5
604
  8
LAYER_2
 62
     7
 10
116.3903
 20
231.0274
 30
0.0
 11
116.0569
 21
231.36089999999999
 31
0.0
  0
LINE
  5
605
  8
LAYER_2
 62
     7
 10
115.91840000000001
 20
231.0274
 30
0.0
 11
115.5849
 21
231.36089999999999
 31
0.0
  0
LINE
  5
606
  8
LAYER_2
 62
     7
 10
114.5934
 20
233.72969999999989
 30
0.0
 11
114.5934
 21
235.16449999999989
 31
0.0
  0
ARC
  5
607
  8
LAYER_2
 62
     7
 10
115.294
 20
233.72980000000001
 30
0.0
 40
0.7006000000000001
 50
180.01028140000039
 51
270.00607480000002
  0
LINE
  5
608
  8
LAYER_2
 62
     7
 10
114.9751
 20
231.0274
 30
0.0
 11
114.6409
 21
231.36089999999999
 31
0.0
  0
LINE
  5
609
  8
LAYER_2
 62
     7
 10
114.5031
 20
231.0274
 30
0.0
 11
114.1696
 21
231.36089999999999
 31
0.0
  0
LINE
  5
60A
  8
LAYER_2
 62
     7
 10
114.0311
 20
231.0274
 30
0.0
 11
113.6977
 21
231.36089999999999
 31
0.0
  0
ARC
  5
60B
  8
LAYER_2
 62
     7
 10
115.2942
 20
233.72980000000001
 30
0.0
 40
0.7006000000000001
 50
269.99310349999951
 51
359.99054029999883
  0
LINE
  5
60C
  8
LAYER_2
 62
     7
 10
115.4464
 20
231.0274
 30
0.0
 11
115.1129
 21
231.36089999999999
 31
0.0
  0
ARC
  5
60D
  8
LAYER_2
 62
     7
 10
115.2942
 20
235.16439999999989
 30
0.0
 40
0.7006000000000001
 50
0.0097538163552127
 51
90.006602369999896
  0
ARC
  5
60E
  8
LAYER_2
 62
     7
 10
115.294
 20
235.16439999999989
 30
0.0
 40
0.7006000000000001
 50
89.994219319999701
 51
179.98942440000039
  0
ARC
  5
60F
  8
LAYER_2
 62
     7
 10
113.70910000000001
 20
225.10639999999989
 30
0.0
 40
0.8339999999999999
 50
359.98568370000078
 51
89.979964239999504
  0
LINE
  5
610
  8
LAYER_2
 62
     7
 10
113.7569
 20
218.76669999999999
 30
0.0
 11
114.5431
 21
219.5532
 31
0.0
  0
LINE
  5
611
  8
LAYER_2
 62
     7
 10
113.7445
 20
219.46219999999991
 30
0.0
 11
114.5431
 21
220.26060000000001
 31
0.0
  0
LINE
  5
612
  8
LAYER_2
 62
     7
 10
113.7328
 20
220.15799999999999
 30
0.0
 11
114.5431
 21
220.9684
 31
0.0
  0
LINE
  5
613
  8
LAYER_2
 62
     7
 10
113.7204
 20
220.8535
 30
0.0
 11
114.5431
 21
221.67619999999999
 31
0.0
  0
LINE
  5
614
  8
LAYER_2
 62
     7
 10
113.66249999999999
 20
221.5033
 30
0.0
 11
114.5431
 21
222.38380000000001
 31
0.0
  0
ARC
  5
615
  8
LAYER_2
 62
     7
 10
111.2903
 20
233.72989999999999
 30
0.0
 40
0.7007
 50
269.98860509999957
 51
359.98686239999989
  0
LINE
  5
616
  8
LAYER_2
 62
     7
 10
111.991
 20
233.72969999999989
 30
0.0
 11
111.991
 21
235.16449999999989
 31
0.0
  0
LINE
  5
617
  8
LAYER_2
 62
     7
 10
113.0879
 20
231.0274
 30
0.0
 11
112.7544
 21
231.36089999999999
 31
0.0
  0
LINE
  5
618
  8
LAYER_2
 62
     7
 10
112.6159
 20
231.0274
 30
0.0
 11
112.2824
 21
231.36089999999999
 31
0.0
  0
LINE
  5
619
  8
LAYER_2
 62
     7
 10
112.1439
 20
231.0274
 30
0.0
 11
111.8104
 21
231.36089999999999
 31
0.0
  0
LINE
  5
61A
  8
LAYER_2
 62
     7
 10
111.6726
 20
231.0274
 30
0.0
 11
111.3385
 21
231.36089999999999
 31
0.0
  0
LINE
  5
61B
  8
LAYER_2
 62
     7
 10
110.5895
 20
233.72969999999989
 30
0.0
 11
110.5895
 21
235.16449999999989
 31
0.0
  0
ARC
  5
61C
  8
LAYER_2
 62
     7
 10
109.9434
 20
235.01799999999989
 30
0.0
 40
0.3466
 50
2.1137934119998092
 51
87.989163920000934
  0
LINE
  5
61D
  8
LAYER_2
 62
     7
 10
110.2898
 20
234.36349999999999
 30
0.0
 11
110.2898
 21
235.0308
 31
0.0
  0
LINE
  5
61E
  8
LAYER_2
 62
     7
 10
109.9556
 20
234.36349999999999
 30
0.0
 11
110.2898
 21
234.36349999999999
 31
0.0
  0
LINE
  5
61F
  8
LAYER_2
 62
     7
 10
111.20059999999999
 20
231.0274
 30
0.0
 11
110.8672
 21
231.36089999999999
 31
0.0
  0
LINE
  5
620
  8
LAYER_2
 62
     7
 10
110.7287
 20
231.0274
 30
0.0
 11
110.3952
 21
231.36089999999999
 31
0.0
  0
LINE
  5
621
  8
LAYER_2
 62
     7
 10
110.2567
 20
231.0274
 30
0.0
 11
109.92319999999999
 21
231.36089999999999
 31
0.0
  0
LINE
  5
622
  8
LAYER_2
 62
     7
 10
109.7847
 20
231.0274
 30
0.0
 11
109.4512
 21
231.36089999999999
 31
0.0
  0
LINE
  5
623
  8
LAYER_2
 62
     7
 10
110.0121
 20
234.36349999999999
 30
0.0
 11
110.2898
 21
234.64080000000001
 31
0.0
  0
LINE
  5
624
  8
LAYER_2
 62
     7
 10
109.43470000000001
 20
234.25769999999989
 30
0.0
 11
110.28149999999999
 21
235.10470000000001
 31
0.0
  0
ARC
  5
625
  8
LAYER_2
 62
     7
 10
111.2901
 20
233.72980000000001
 30
0.0
 40
0.7006000000000001
 50
180.01069140000001
 51
270.00566480000037
  0
ARC
  5
626
  8
LAYER_2
 62
     7
 10
111.2903
 20
235.1643
 30
0.0
 40
0.7007
 50
0.0134317365092226
 51
90.011100809999505
  0
ARC
  5
627
  8
LAYER_2
 62
     7
 10
111.2901
 20
235.16439999999989
 30
0.0
 40
0.7006000000000001
 50
89.994629289999807
 51
179.98901450000119
  0
LINE
  5
628
  8
LAYER_2
 62
     7
 10
108.2882
 20
231.0274
 30
0.0
 11
108.2882
 21
231.36089999999999
 31
0.0
  0
LINE
  5
629
  8
LAYER_2
 62
     7
 10
108.6216
 20
231.36089999999999
 30
0.0
 11
108.6216
 21
233.0292
 31
0.0
  0
ARC
  5
62A
  8
LAYER_2
 62
     7
 10
108.9552
 20
235.0308
 30
0.0
 40
0.3336
 50
90.013110040000214
 51
180.00406749999979
  0
LINE
  5
62B
  8
LAYER_2
 62
     7
 10
107.28699999999991
 20
235.0308
 30
0.0
 11
108.6216
 21
235.0308
 31
0.0
  0
LINE
  5
62C
  8
LAYER_2
 62
     7
 10
107.28699999999991
 20
234.69709999999989
 30
0.0
 11
108.6216
 21
234.69709999999989
 31
0.0
  0
ARC
  5
62D
  8
LAYER_2
 62
     7
 10
108.6216
 20
234.36359999999999
 30
0.0
 40
0.3335
 50
359.99005439999871
 51
89.99276805999979
  0
ARC
  5
62E
  8
LAYER_2
 62
     7
 10
108.6216999999999
 20
234.36359999999999
 30
0.0
 40
0.3334
 50
269.97573310000001
 51
359.98989629999778
  0
LINE
  5
62F
  8
LAYER_2
 62
     7
 10
108.2882
 20
234.03020000000001
 30
0.0
 11
108.6216
 21
234.03020000000001
 31
0.0
  0
LINE
  5
630
  8
LAYER_2
 62
     7
 10
108.2882
 20
231.36089999999999
 30
0.0
 11
108.2882
 21
234.03020000000001
 31
0.0
  0
ARC
  5
631
  8
LAYER_2
 62
     7
 10
107.3892
 20
232.06169999999989
 30
0.0
 40
1.371699999999999
 50
265.72727190000001
 51
311.0603633999998
  0
LINE
  5
632
  8
LAYER_2
 62
     7
 10
107.28699999999991
 20
231.0274
 30
0.0
 11
108.6216
 21
231.0274
 31
0.0
  0
LINE
  5
633
  8
LAYER_2
 62
     7
 10
107.28699999999991
 20
234.69709999999989
 30
0.0
 11
107.28699999999991
 21
235.0308
 31
0.0
  0
LINE
  5
634
  8
LAYER_2
 62
     7
 10
108.84139999999999
 20
231.0274
 30
0.0
 11
108.508
 21
231.36089999999999
 31
0.0
  0
LINE
  5
635
  8
LAYER_2
 62
     7
 10
108.3695
 20
231.0274
 30
0.0
 11
108.2882
 21
231.10919999999999
 31
0.0
  0
LINE
  5
636
  8
LAYER_2
 62
     7
 10
108.42529999999999
 20
231.36089999999999
 30
0.0
 11
108.6216
 21
231.5573
 31
0.0
  0
LINE
  5
637
  8
LAYER_2
 62
     7
 10
108.2882
 20
231.69560000000001
 30
0.0
 11
108.6216
 21
232.0292
 31
0.0
  0
LINE
  5
638
  8
LAYER_2
 62
     7
 10
108.2882
 20
232.16739999999999
 30
0.0
 11
108.6216
 21
232.501
 31
0.0
  0
LINE
  5
639
  8
LAYER_2
 62
     7
 10
108.2882
 20
232.63919999999999
 30
0.0
 11
108.6216
 21
232.9728999999999
 31
0.0
  0
LINE
  5
63A
  8
LAYER_2
 62
     7
 10
108.2882
 20
233.1107999999999
 30
0.0
 11
108.72709999999999
 21
233.5504
 31
0.0
  0
LINE
  5
63B
  8
LAYER_2
 62
     7
 10
108.2882
 20
233.58260000000001
 30
0.0
 11
108.7719
 21
234.06679999999989
 31
0.0
  0
LINE
  5
63C
  8
LAYER_2
 62
     7
 10
108.459
 20
234.69709999999989
 30
0.0
 11
109.126
 21
235.36439999999999
 31
0.0
  0
LINE
  5
63D
  8
LAYER_2
 62
     7
 10
107.9871
 20
234.69709999999989
 30
0.0
 11
108.3205
 21
235.0308
 31
0.0
  0
LINE
  5
63E
  8
LAYER_2
 62
     7
 10
107.5151
 20
234.69709999999989
 30
0.0
 11
107.8486
 21
235.0308
 31
0.0
  0
LINE
  5
63F
  8
LAYER_2
 62
     7
 10
107.28699999999991
 20
234.9409
 30
0.0
 11
107.3766
 21
235.0308
 31
0.0
  0
ARC
  5
640
  8
LAYER_2
 62
     7
 10
109.9558
 20
233.02930000000001
 30
0.0
 40
1.3342000000000001
 50
90.006632030000006
 51
180.0062515999999
  0
LINE
  5
641
  8
LAYER_2
 62
     7
 10
107.28699999999991
 20
235.36439999999999
 30
0.0
 11
109.9556
 21
235.36439999999999
 31
0.0
  0
LINE
  5
642
  8
LAYER_2
 62
     7
 10
109.3134
 20
231.0274
 30
0.0
 11
108.97929999999999
 21
231.36089999999999
 31
0.0
  0
LINE
  5
643
  8
LAYER_2
 62
     7
 10
108.9551
 20
235.36439999999999
 30
0.0
 11
109.9556
 21
235.36439999999999
 31
0.0
  0
LINE
  5
644
  8
LAYER_2
 62
     7
 10
108.9234
 20
234.21789999999999
 30
0.0
 11
110.0548
 21
235.34999999999999
 31
0.0
  0
LINE
  5
645
  8
LAYER_2
 62
     7
 10
108.8442
 20
234.61069999999989
 30
0.0
 11
109.598
 21
235.36439999999999
 31
0.0
  0
LINE
  5
646
  8
LAYER_2
 62
     7
 10
112.2114
 20
225.0061
 30
0.0
 11
113.14570000000001
 21
225.9403999999999
 31
0.0
  0
LINE
  5
647
  8
LAYER_2
 62
     7
 10
111.5038
 20
225.0061
 30
0.0
 11
112.43810000000001
 21
225.9403999999999
 31
0.0
  0
LINE
  5
648
  8
LAYER_2
 62
     7
 10
110.0886
 20
225.0061
 30
0.0
 11
111.02290000000001
 21
225.9403999999999
 31
0.0
  0
LINE
  5
649
  8
LAYER_2
 62
     7
 10
109.38030000000001
 20
225.0061
 30
0.0
 11
110.3146
 21
225.9403999999999
 31
0.0
  0
LINE
  5
64A
  8
LAYER_2
 62
     7
 10
110.7962
 20
225.0061
 30
0.0
 11
111.73050000000001
 21
225.9403999999999
 31
0.0
  0
LINE
  5
64B
  8
LAYER_2
 62
     7
 10
112.3747
 20
220.66900000000001
 30
0.0
 11
112.3747
 21
221.5033
 31
0.0
  0
LINE
  5
64C
  8
LAYER_2
 62
     7
 10
112.87569999999999
 20
221.48140000000001
 30
0.0
 11
112.89700000000001
 21
221.5033
 31
0.0
  0
LINE
  5
64D
  8
LAYER_2
 62
     7
 10
112.875
 20
225.0061
 30
0.0
 11
112.875
 21
221.5033
 31
0.0
  0
LINE
  5
64E
  8
LAYER_2
 62
     7
 10
107.28699999999991
 20
229.6103
 30
0.0
 11
109.1219
 21
229.6103
 31
0.0
  0
LINE
  5
64F
  8
LAYER_2
 62
     7
 10
108.6216
 20
227.2747
 30
0.0
 11
108.6216
 21
225.9403999999999
 31
0.0
  0
LINE
  5
650
  8
LAYER_2
 62
     7
 10
107.28699999999991
 20
228.60929999999999
 30
0.0
 11
108.2041
 21
228.60929999999999
 31
0.0
  0
LINE
  5
651
  8
LAYER_2
 62
     7
 10
108.9551
 20
229.6103
 30
0.0
 11
108.9551
 21
229.5781999999999
 31
0.0
  0
LINE
  5
652
  8
LAYER_2
 62
     7
 10
109.1219
 20
229.6103
 30
0.0
 11
109.1219
 21
228.2756
 31
0.0
  0
LINE
  5
653
  8
LAYER_2
 62
     7
 10
109.1219
 20
228.2756
 30
0.0
 11
108.6216
 21
227.2747
 31
0.0
  0
ARC
  5
654
  8
LAYER_2
 62
     7
 10
107.98950000000001
 20
229.55109999999999
 30
0.0
 40
0.966
 50
282.83549850000031
 51
1.605559624999622
  0
LINE
  5
655
  8
LAYER_2
 62
     7
 10
107.28699999999991
 20
225.0061
 30
0.0
 11
107.28699999999991
 21
229.6103
 31
0.0
  0
LINE
  5
656
  8
LAYER_2
 62
     7
 10
107.9649999999999
 20
225.0061
 30
0.0
 11
108.8993
 21
225.9403999999999
 31
0.0
  0
LINE
  5
657
  8
LAYER_2
 62
     7
 10
107.28699999999991
 20
225.03589999999991
 30
0.0
 11
108.6216
 21
226.37020000000001
 31
0.0
  0
LINE
  5
658
  8
LAYER_2
 62
     7
 10
107.28699999999991
 20
225.7433
 30
0.0
 11
108.6216
 21
227.078
 31
0.0
  0
LINE
  5
659
  8
LAYER_2
 62
     7
 10
107.28699999999991
 20
226.4511
 30
0.0
 11
109.1219
 21
228.28599999999989
 31
0.0
  0
LINE
  5
65A
  8
LAYER_2
 62
     7
 10
107.28699999999991
 20
227.15870000000001
 30
0.0
 11
109.1219
 21
228.99379999999999
 31
0.0
  0
LINE
  5
65B
  8
LAYER_2
 62
     7
 10
107.28699999999991
 20
227.8665
 30
0.0
 11
108.02979999999999
 21
228.60929999999999
 31
0.0
  0
LINE
  5
65C
  8
LAYER_2
 62
     7
 10
108.9517
 20
229.53139999999999
 30
0.0
 11
109.0309
 21
229.6103
 31
0.0
  0
LINE
  5
65D
  8
LAYER_2
 62
     7
 10
107.28699999999991
 20
228.57429999999999
 30
0.0
 11
107.3222
 21
228.60929999999999
 31
0.0
  0
LINE
  5
65E
  8
LAYER_2
 62
     7
 10
107.28699999999991
 20
220.66900000000001
 30
0.0
 11
112.8853
 21
220.66900000000001
 31
0.0
  0
LINE
  5
65F
  8
LAYER_2
 62
     7
 10
107.28699999999991
 20
225.0061
 30
0.0
 11
112.875
 21
225.0061
 31
0.0
  0
LINE
  5
660
  8
LAYER_2
 62
     7
 10
108.6726
 20
225.0061
 30
0.0
 11
109.6069
 21
225.9403999999999
 31
0.0
  0
LINE
  5
661
  8
LAYER_2
 62
     7
 10
107.28699999999991
 20
221.5033
 30
0.0
 11
113.7094
 21
221.5033
 31
0.0
  0
LINE
  5
662
  8
LAYER_2
 62
     7
 10
112.91079999999999
 20
218.68549999999999
 30
0.0
 11
113.74379999999999
 21
219.5189
 31
0.0
  0
LINE
  5
663
  8
LAYER_2
 62
     7
 10
112.90179999999999
 20
219.3845
 30
0.0
 11
113.73139999999999
 21
220.21449999999999
 31
0.0
  0
LINE
  5
664
  8
LAYER_2
 62
     7
 10
112.8929
 20
220.08369999999999
 30
0.0
 11
113.7197
 21
220.9102
 31
0.0
  0
LINE
  5
665
  8
LAYER_2
 62
     7
 10
112.8839
 20
220.7824
 30
0.0
 11
113.6046
 21
221.5033
 31
0.0
  0
LINE
  5
666
  8
LAYER_2
 62
     7
 10
112.875
 20
221.5033
 30
0.0
 11
113.7094
 21
221.5033
 31
0.0
  0
LINE
  5
667
  8
LAYER_2
 62
     7
 10
108.6216
 20
225.9403999999999
 30
0.0
 11
113.7094
 21
225.9403999999999
 31
0.0
  0
LINE
  5
668
  8
LAYER_2
 62
     7
 10
112.95489999999999
 20
221.5033
 30
0.0
 11
114.5431
 21
223.0916
 31
0.0
  0
LINE
  5
669
  8
LAYER_2
 62
     7
 10
112.875
 20
222.1311
 30
0.0
 11
114.5431
 21
223.79929999999999
 31
0.0
  0
LINE
  5
66A
  8
LAYER_2
 62
     7
 10
112.875
 20
222.8389
 30
0.0
 11
114.5431
 21
224.50689999999989
 31
0.0
  0
LINE
  5
66B
  8
LAYER_2
 62
     7
 10
112.875
 20
223.54669999999999
 30
0.0
 11
114.5355
 21
225.2073
 31
0.0
  0
LINE
  5
66C
  8
LAYER_2
 62
     7
 10
112.875
 20
224.25450000000001
 30
0.0
 11
114.30670000000001
 21
225.68629999999999
 31
0.0
  0
LINE
  5
66D
  8
LAYER_2
 62
     7
 10
112.875
 20
224.96199999999999
 30
0.0
 11
113.8437
 21
225.9306
 31
0.0
  0
LINE
  5
66E
  8
LAYER_2
 62
     7
 10
108.2882
 20
231.0274
 30
0.0
 11
118.2962
 21
231.0274
 31
0.0
  0
LINE
  5
66F
  8
LAYER_2
 62
     7
 10
108.2882
 20
231.36089999999999
 30
0.0
 11
118.2962
 21
231.36089999999999
 31
0.0
  0
LINE
  5
670
  8
LAYER_2
 62
     7
 10
107.28699999999991
 20
237.53299999999999
 30
0.0
 11
120.2482
 21
237.53299999999999
 31
0.0
  0
LINE
  5
671
  8
LAYER_2
 62
     7
 10
113.5592
 20
231.0274
 30
0.0
 11
113.2257
 21
231.36089999999999
 31
0.0
  0
LINE
  5
672
  8
LAYER_2
 62
     7
 10
113.87609999999999
 20
214.8306
 30
0.0
 11
113.87609999999999
 21
213.05179999999999
 31
0.0
  0
LINE
  5
673
  8
LAYER_2
 62
     7
 10
113.87609999999999
 20
213.22399999999999
 30
0.0
 11
114.5431
 21
213.8913
 31
0.0
  0
LINE
  5
674
  8
LAYER_2
 62
     7
 10
113.87609999999999
 20
213.93180000000001
 30
0.0
 11
114.5431
 21
214.59909999999999
 31
0.0
  0
LINE
  5
675
  8
LAYER_2
 62
     7
 10
113.87609999999999
 20
214.6396
 30
0.0
 11
114.5431
 21
215.30690000000001
 31
0.0
  0
LINE
  5
676
  8
LAYER_2
 62
     7
 10
113.8175
 20
215.28899999999999
 30
0.0
 11
114.5431
 21
216.01439999999999
 31
0.0
  0
LINE
  5
677
  8
LAYER_2
 62
     7
 10
113.8051
 20
215.98439999999999
 30
0.0
 11
114.5431
 21
216.7221999999999
 31
0.0
  0
LINE
  5
678
  8
LAYER_2
 62
     7
 10
113.79340000000001
 20
216.68000000000001
 30
0.0
 11
114.5431
 21
217.42979999999989
 31
0.0
  0
LINE
  5
679
  8
LAYER_2
 62
     7
 10
113.78100000000001
 20
217.37549999999999
 30
0.0
 11
114.5431
 21
218.13759999999999
 31
0.0
  0
LINE
  5
67A
  8
LAYER_2
 62
     7
 10
116.0445
 20
210.5936999999999
 30
0.0
 11
116.8789
 21
210.5936999999999
 31
0.0
  0
LINE
  5
67B
  8
LAYER_2
 62
     7
 10
116.0445
 20
206.89999999999989
 30
0.0
 11
116.8789
 21
207.73410000000001
 31
0.0
  0
LINE
  5
67C
  8
LAYER_2
 62
     7
 10
116.0445
 20
207.60779999999991
 30
0.0
 11
116.8789
 21
208.4417
 31
0.0
  0
LINE
  5
67D
  8
LAYER_2
 62
     7
 10
116.0445
 20
208.31559999999999
 30
0.0
 11
116.8789
 21
209.14949999999999
 31
0.0
  0
LINE
  5
67E
  8
LAYER_2
 62
     7
 10
116.0445
 20
209.0232
 30
0.0
 11
116.8789
 21
209.85730000000001
 31
0.0
  0
LINE
  5
67F
  8
LAYER_2
 62
     7
 10
116.0445
 20
209.73070000000001
 30
0.0
 11
116.8789
 21
210.56489999999999
 31
0.0
  0
LINE
  5
680
  8
LAYER_2
 62
     7
 10
115.6896
 20
210.084
 30
0.0
 11
116.1995
 21
210.5936999999999
 31
0.0
  0
LINE
  5
681
  8
LAYER_2
 62
     7
 10
114.8676
 20
210.67719999999991
 30
0.0
 11
115.27209999999999
 21
211.08150000000001
 31
0.0
  0
LINE
  5
682
  8
LAYER_2
 62
     7
 10
114.53959999999999
 20
211.0565
 30
0.0
 11
114.9468
 21
211.46430000000001
 31
0.0
  0
LINE
  5
683
  8
LAYER_2
 62
     7
 10
114.2647
 20
211.49010000000001
 30
0.0
 11
114.7029
 21
211.92809999999989
 31
0.0
  0
LINE
  5
684
  8
LAYER_2
 62
     7
 10
114.05110000000001
 20
211.98410000000001
 30
0.0
 11
114.5596
 21
212.49209999999999
 31
0.0
  0
LINE
  5
685
  8
LAYER_2
 62
     7
 10
115.25
 20
210.35239999999999
 30
0.0
 11
115.6738
 21
210.7756
 31
0.0
  0
ARC
  5
686
  8
LAYER_2
 62
     7
 10
116.7552
 20
212.6902
 30
0.0
 40
2.2136999999999989
 50
177.8073226000003
 51
251.2748035999999
  0
ARC
  5
687
  8
LAYER_2
 62
     7
 10
117.0394
 20
212.9316
 30
0.0
 40
3.1655999999999991
 50
177.8233384000001
 51
251.68242549999991
  0
LINE
  5
688
  8
LAYER_2
 62
     7
 10
113.914
 20
212.55389999999991
 30
0.0
 11
114.5431
 21
213.18350000000001
 31
0.0
  0
ARC
  5
689
  8
LAYER_2
 62
     7
 10
120.16379999999999
 20
202.5421
 30
0.0
 40
0.4106
 50
286.12231790000021
 51
357.92944169999947
  0
LINE
  5
68A
  8
LAYER_2
 62
     7
 10
120.1379
 20
201.14309999999989
 30
0.0
 11
121.4746902127816
 21
202.4796899895789
 31
0.0
  0
LINE
  5
68B
  8
LAYER_2
 62
     7
 10
120.5823
 20
203.00290000000001
 30
0.0
 11
121.5065535185319
 21
203.9271535185319
 31
0.0
  0
LINE
  5
68C
  8
LAYER_2
 62
     7
 10
120.5954
 20
203.72349999999989
 30
0.0
 11
121.5226198721743
 21
204.65051766524539
 31
0.0
  0
LINE
  5
68D
  8
LAYER_2
 62
     7
 10
120.6078
 20
204.4437999999999
 30
0.0
 11
121.53869758111411
 21
205.3743930676757
 31
0.0
  0
LINE
  5
68E
  8
LAYER_2
 62
     7
 10
120.6202
 20
205.16390000000001
 30
0.0
 11
121.5547799879938
 21
206.09847998799381
 31
0.0
  0
LINE
  5
68F
  8
LAYER_2
 62
     7
 10
118.3272
 20
197.61600000000001
 30
0.0
 11
118.5635
 21
197.38
 31
0.0
  0
LINE
  5
690
  8
LAYER_2
 62
     7
 10
117.85590000000001
 20
197.61600000000001
 30
0.0
 11
118.5635
 21
196.90819999999999
 31
0.0
  0
LINE
  5
691
  8
LAYER_2
 62
     7
 10
119.1712
 20
200.88419999999999
 30
0.0
 11
121.4904757503809
 21
203.20327545020371
 31
0.0
  0
LINE
  5
692
  8
LAYER_2
 62
     7
 10
118.2045
 20
200.625
 30
0.0
 11
119.5254
 21
201.946
 31
0.0
  0
LINE
  5
693
  8
LAYER_2
 62
     7
 10
116.2705
 20
203.58770000000001
 30
0.0
 11
116.8789
 21
204.19550000000001
 31
0.0
  0
LINE
  5
694
  8
LAYER_2
 62
     7
 10
116.0445
 20
204.06919999999991
 30
0.0
 11
116.8789
 21
204.9032
 31
0.0
  0
LINE
  5
695
  8
LAYER_2
 62
     7
 10
116.0445
 20
204.77699999999999
 30
0.0
 11
116.8789
 21
205.61089999999999
 31
0.0
  0
LINE
  5
696
  8
LAYER_2
 62
     7
 10
116.0445
 20
205.48439999999999
 30
0.0
 11
116.8789
 21
206.31870000000001
 31
0.0
  0
LINE
  5
697
  8
LAYER_2
 62
     7
 10
114.0215
 20
203.58770000000001
 30
0.0
 11
116.8789
 21
203.58770000000001
 31
0.0
  0
ARC
  5
698
  8
LAYER_2
 62
     7
 10
117.5254
 20
199.44550000000001
 30
0.0
 40
0.964
 50
103.3224591000002
 51
181.70552470000021
  0
LINE
  5
699
  8
LAYER_2
 62
     7
 10
116.56189999999999
 20
199.51750000000001
 30
0.0
 11
117.2289
 21
198.8502
 31
0.0
  0
LINE
  5
69A
  8
LAYER_2
 62
     7
 10
116.56189999999999
 20
198.8502
 30
0.0
 11
117.2289
 21
198.8502
 31
0.0
  0
LINE
  5
69B
  8
LAYER_2
 62
     7
 10
115.4037
 20
200.8828
 30
0.0
 11
115.7261
 21
200.92799999999991
 31
0.0
  0
LINE
  5
69C
  8
LAYER_2
 62
     7
 10
115.4602
 20
195.75810000000001
 30
0.0
 11
116.56189999999999
 21
196.85900000000001
 31
0.0
  0
LINE
  5
69D
  8
LAYER_2
 62
     7
 10
115.4602
 20
196.4659
 30
0.0
 11
116.56189999999999
 21
197.56669999999991
 31
0.0
  0
LINE
  5
69E
  8
LAYER_2
 62
     7
 10
115.4602
 20
197.1737
 30
0.0
 11
116.56189999999999
 21
198.27449999999999
 31
0.0
  0
LINE
  5
69F
  8
LAYER_2
 62
     7
 10
115.4602
 20
197.88130000000001
 30
0.0
 11
116.56189999999999
 21
198.98220000000001
 31
0.0
  0
LINE
  5
6A0
  8
LAYER_2
 62
     7
 10
115.4602
 20
198.58869999999999
 30
0.0
 11
116.6191
 21
199.7473
 31
0.0
  0
LINE
  5
6A1
  8
LAYER_2
 62
     7
 10
114.7932
 20
200.1848
 30
0.0
 11
114.7897
 21
200.1848
 31
0.0
  0
LINE
  5
6A2
  8
LAYER_2
 62
     7
 10
114.3005
 20
200.2594
 30
0.0
 11
114.9847
 21
200.94409999999999
 31
0.0
  0
ARC
  5
6A3
  8
LAYER_2
 62
     7
 10
114.7931
 20
199.51769999999999
 30
0.0
 40
0.6671000000000001
 50
359.98605190000029
 51
89.988183709999888
  0
LINE
  5
6A4
  8
LAYER_2
 62
     7
 10
114.9207
 20
200.17240000000001
 30
0.0
 11
115.6634
 21
200.9145
 31
0.0
  0
ARC
  5
6A5
  8
LAYER_2
 62
     7
 10
115.38
 20
202.2165
 30
0.0
 40
1.3339000000000001
 50
180.97749440000061
 51
271.01927069999999
  0
LINE
  5
6A6
  8
LAYER_2
 62
     7
 10
115.34650000000001
 20
199.8903
 30
0.0
 11
116.6253
 21
201.16890000000001
 31
0.0
  0
LINE
  5
6A7
  8
LAYER_2
 62
     7
 10
113.82510000000001
 20
200.49250000000001
 30
0.0
 11
114.5265
 21
201.19359999999989
 31
0.0
  0
LINE
  5
6A8
  8
LAYER_2
 62
     7
 10
113.46550000000001
 20
200.84039999999999
 30
0.0
 11
114.2075
 21
201.5824999999999
 31
0.0
  0
LINE
  5
6A9
  8
LAYER_2
 62
     7
 10
120.4859
 20
201.23649999999989
 30
0.0
 11
117.30329999999989
 21
200.3835
 31
0.0
  0
LINE
  5
6AA
  8
LAYER_2
 62
     7
 10
120.2778
 20
202.1476999999999
 30
0.0
 11
115.7261
 21
200.92799999999991
 31
0.0
  0
LINE
  5
6AB
  8
LAYER_2
 62
     7
 10
115.7261
 20
200.92799999999991
 30
0.0
 11
120.2778
 21
202.1476999999999
 31
0.0
  0
LINE
  5
6AC
  8
LAYER_2
 62
     7
 10
117.2323
 20
200.36049999999989
 30
0.0
 11
118.5587
 21
201.68709999999999
 31
0.0
  0
LINE
  5
6AD
  8
LAYER_2
 62
     7
 10
115.4602
 20
199.29650000000001
 30
0.0
 11
117.592
 21
201.42799999999991
 31
0.0
  0
LINE
  5
6AE
  8
LAYER_2
 62
     7
 10
117.3288
 20
197.61600000000001
 30
0.0
 11
118.5635
 21
197.61600000000001
 31
0.0
  0
LINE
  5
6AF
  8
LAYER_2
 62
     7
 10
117.3839
 20
197.61600000000001
 30
0.0
 11
118.5635
 21
196.43639999999999
 31
0.0
  0
LINE
  5
6B0
  8
LAYER_2
 62
     7
 10
117.3288
 20
197.19879999999989
 30
0.0
 11
118.5635
 21
195.96459999999999
 31
0.0
  0
LINE
  5
6B1
  8
LAYER_2
 62
     7
 10
117.3288
 20
196.72730000000001
 30
0.0
 11
118.5635
 21
195.49279999999999
 31
0.0
  0
LINE
  5
6B2
  8
LAYER_2
 62
     7
 10
117.3288
 20
197.61600000000001
 30
0.0
 11
118.5635
 21
197.61600000000001
 31
0.0
  0
LINE
  5
6B3
  8
LAYER_2
 62
     7
 10
116.8789
 20
210.5936999999999
 30
0.0
 11
116.8789
 21
203.58770000000001
 31
0.0
  0
LINE
  5
6B4
  8
LAYER_2
 62
     7
 10
116.0445
 20
209.9264
 30
0.0
 11
116.0445
 21
203.58770000000001
 31
0.0
  0
LINE
  5
6B5
  8
LAYER_2
 62
     7
 10
116.0445
 20
206.19220000000001
 30
0.0
 11
116.8789
 21
207.0265
 31
0.0
  0
LINE
  5
6B6
  8
LAYER_2
 62
     7
 10
107.28699999999991
 20
200.1848
 30
0.0
 11
114.7932
 21
200.1848
 31
0.0
  0
ARC
  5
6B7
  8
LAYER_2
 62
     7
 10
114.78740000000001
 20
201.85069999999999
 30
0.0
 40
1.665899999999999
 50
180.64604380000031
 51
270.07982209999977
  0
LINE
  5
6B8
  8
LAYER_2
 62
     7
 10
113.2174
 20
201.29969999999989
 30
0.0
 11
114.0504
 21
202.13269999999989
 31
0.0
  0
LINE
  5
6B9
  8
LAYER_2
 62
     7
 10
113.12090000000001
 20
201.91079999999999
 30
0.0
 11
114.03530000000001
 21
202.82529999999991
 31
0.0
  0
LINE
  5
6BA
  8
LAYER_2
 62
     7
 10
113.11199999999999
 20
202.60980000000001
 30
0.0
 11
114.02290000000001
 21
203.52090000000001
 31
0.0
  0
LINE
  5
6BB
  8
LAYER_2
 62
     7
 10
113.10299999999999
 20
203.30889999999999
 30
0.0
 11
114.01049999999999
 21
204.21629999999999
 31
0.0
  0
LINE
  5
6BC
  8
LAYER_2
 62
     7
 10
113.09480000000001
 20
204.00789999999989
 30
0.0
 11
113.9988
 21
204.9119
 31
0.0
  0
LINE
  5
6BD
  8
LAYER_2
 62
     7
 10
113.08580000000001
 20
204.70649999999989
 30
0.0
 11
113.9864
 21
205.60740000000001
 31
0.0
  0
LINE
  5
6BE
  8
LAYER_2
 62
     7
 10
113.07680000000001
 20
205.40549999999999
 30
0.0
 11
113.9746
 21
206.30299999999991
 31
0.0
  0
LINE
  5
6BF
  8
LAYER_2
 62
     7
 10
113.0686
 20
206.1046
 30
0.0
 11
113.9622
 21
206.99870000000001
 31
0.0
  0
LINE
  5
6C0
  8
LAYER_2
 62
     7
 10
113.0596
 20
206.8033999999999
 30
0.0
 11
113.9498
 21
207.69429999999991
 31
0.0
  0
LINE
  5
6C1
  8
LAYER_2
 62
     7
 10
113.05070000000001
 20
207.50239999999999
 30
0.0
 11
113.93810000000001
 21
208.38990000000001
 31
0.0
  0
LINE
  5
6C2
  8
LAYER_2
 62
     7
 10
113.0424
 20
208.20140000000001
 30
0.0
 11
113.92570000000001
 21
209.08539999999999
 31
0.0
  0
LINE
  5
6C3
  8
LAYER_2
 62
     7
 10
113.0333999999999
 20
208.90020000000001
 30
0.0
 11
113.914
 21
209.7808
 31
0.0
  0
LINE
  5
6C4
  8
LAYER_2
 62
     7
 10
113.0245
 20
209.59929999999989
 30
0.0
 11
113.9016
 21
210.47640000000001
 31
0.0
  0
LINE
  5
6C5
  8
LAYER_2
 62
     7
 10
113.0155
 20
210.29830000000001
 30
0.0
 11
113.8892
 21
211.17189999999999
 31
0.0
  0
LINE
  5
6C6
  8
LAYER_2
 62
     7
 10
113.0073
 20
210.9973
 30
0.0
 11
113.8775
 21
211.86770000000001
 31
0.0
  0
LINE
  5
6C7
  8
LAYER_2
 62
     7
 10
112.9983
 20
211.69609999999989
 30
0.0
 11
113.8651
 21
212.56319999999999
 31
0.0
  0
LINE
  5
6C8
  8
LAYER_2
 62
     7
 10
112.9893
 20
212.39510000000001
 30
0.0
 11
113.8527
 21
213.25880000000001
 31
0.0
  0
LINE
  5
6C9
  8
LAYER_2
 62
     7
 10
112.9804
 20
213.09409999999991
 30
0.0
 11
113.84099999999999
 21
213.95439999999999
 31
0.0
  0
LINE
  5
6CA
  8
LAYER_2
 62
     7
 10
112.9714
 20
213.79300000000001
 30
0.0
 11
113.82859999999999
 21
214.64989999999989
 31
0.0
  0
LINE
  5
6CB
  8
LAYER_2
 62
     7
 10
112.9631999999999
 20
214.49199999999999
 30
0.0
 11
113.8168999999999
 21
215.34549999999999
 31
0.0
  0
LINE
  5
6CC
  8
LAYER_2
 62
     7
 10
112.9542
 20
215.19099999999989
 30
0.0
 11
113.8045
 21
216.04109999999989
 31
0.0
  0
LINE
  5
6CD
  8
LAYER_2
 62
     7
 10
112.9452
 20
215.8897
 30
0.0
 11
113.792
 21
216.73660000000001
 31
0.0
  0
LINE
  5
6CE
  8
LAYER_2
 62
     7
 10
112.937
 20
216.58869999999999
 30
0.0
 11
113.7803
 21
217.43219999999999
 31
0.0
  0
LINE
  5
6CF
  8
LAYER_2
 62
     7
 10
112.928
 20
217.2877
 30
0.0
 11
113.7679
 21
218.12780000000001
 31
0.0
  0
LINE
  5
6D0
  8
LAYER_2
 62
     7
 10
120.5741
 20
202.5273
 30
0.0
 11
121.14870000000001
 21
235.44800000000001
 31
0.0
  0
LINE
  5
6D1
  8
LAYER_2
 62
     7
 10
112.875
 20
221.5033
 30
0.0
 11
113.1216
 21
201.83189999999999
 31
0.0
  0
LINE
  5
6D2
  8
LAYER_2
 62
     7
 10
113.7094
 20
221.5033
 30
0.0
 11
114.0463
 21
202.19370000000001
 31
0.0
  0
LINE
  5
6D3
  8
LAYER_2
 62
     7
 10
112.9191
 20
217.98670000000001
 30
0.0
 11
113.75620000000001
 21
218.82329999999999
 31
0.0
  0
LINE
  5
6D4
  8
LAYER_2
 62
     7
 10
114.5431
 20
225.1062
 30
0.0
 11
114.5431
 21
212.7749
 31
0.0
  0
LINE
  5
6D5
  8
LAYER_2
 62
     7
 10
114.5431
 20
225.1062
 30
0.0
 11
114.5431
 21
212.7749
 31
0.0
  0
LINE
  5
6D6
  8
LAYER_2
 62
     7
 10
113.7693
 20
218.0711
 30
0.0
 11
114.5431
 21
218.84540000000001
 31
0.0
  0
LINE
  5
6D7
  8
LAYER_2
 62
     7
 10
121.733
 20
240.78579999999999
 30
0.0
 11
121.14870000000001
 21
240.11850000000001
 31
0.0
  0
ARC
  5
6D8
  8
LAYER_2
 62
     7
 10
120.19240000000001
 20
202.4847
 30
0.0
 40
1.2823
 50
283.23011509999981
 51
0.7708385641998019
  0
LINE
  5
6D9
  8
LAYER_2
 62
     7
 10
121.733
 20
236.1150999999999
 30
0.0
 11
121.14870000000001
 21
235.44800000000001
 31
0.0
  0
LINE
  5
6DA
  8
LAYER_2
 62
     7
 10
120.6326
 20
205.8844
 30
0.0
 11
121.57085759211429
 21
206.8223506710832
 31
0.0
  0
LINE
  5
6DB
  8
LAYER_2
 62
     7
 10
120.64570000000001
 20
206.6046
 30
0.0
 11
121.5869380900059
 21
207.5463516419974
 31
0.0
  0
LINE
  5
6DC
  8
LAYER_2
 62
     7
 10
120.6581
 20
207.32499999999999
 30
0.0
 11
121.6029993675014
 21
208.26948724260001
 31
0.0
  0
LINE
  5
6DD
  8
LAYER_2
 62
     7
 10
120.6705
 20
208.04519999999999
 30
0.0
 11
121.6190817913255
 21
208.99357492581649
 31
0.0
  0
LINE
  5
6DE
  8
LAYER_2
 62
     7
 10
120.6829
 20
208.7655
 30
0.0
 11
121.6351594473557
 21
209.7174479460644
 31
0.0
  0
LINE
  5
6DF
  8
LAYER_2
 62
     7
 10
120.6953
 20
209.48570000000001
 30
0.0
 11
121.65124191676
 21
210.44153768146219
 31
0.0
  0
LINE
  5
6E0
  8
LAYER_2
 62
     7
 10
120.7084
 20
210.20609999999999
 30
0.0
 11
121.66730356309191
 21
211.16468988839031
 31
0.0
  0
LINE
  5
6E1
  8
LAYER_2
 62
     7
 10
120.7208
 20
210.92609999999999
 30
0.0
 11
121.6833839065589
 21
211.8886839065589
 31
0.0
  0
LINE
  5
6E2
  8
LAYER_2
 62
     7
 10
120.7332
 20
211.64670000000001
 30
0.0
 11
121.6994611808335
 21
212.61253973881799
 31
0.0
  0
LINE
  5
6E3
  8
LAYER_2
 62
     7
 10
120.74630000000001
 20
212.36689999999999
 30
0.0
 11
121.7155446271867
 21
213.33667345991651
 31
0.0
  0
LINE
  5
6E4
  8
LAYER_2
 62
     7
 10
120.7587
 20
213.0872
 30
0.0
 11
121.7316222939953
 21
214.06054696544629
 31
0.0
  0
LINE
  5
6E5
  8
LAYER_2
 62
     7
 10
120.7711
 20
213.8074
 30
0.0
 11
121.7476879900109
 21
214.78388150347831
 31
0.0
  0
LINE
  5
6E6
  8
LAYER_2
 62
     7
 10
120.7835
 20
214.52780000000001
 30
0.0
 11
121.7637654293335
 21
215.5077447667789
 31
0.0
  0
LINE
  5
6E7
  8
LAYER_2
 62
     7
 10
120.7966
 20
215.24799999999999
 30
0.0
 11
121.7798297033612
 21
216.23101528187979
 31
0.0
  0
LINE
  5
6E8
  8
LAYER_2
 62
     7
 10
120.809
 20
215.96839999999989
 30
0.0
 11
121.7959071006748
 21
216.95487665378761
 31
0.0
  0
LINE
  5
6E9
  8
LAYER_2
 62
     7
 10
120.8214
 20
216.68860000000001
 30
0.0
 11
121.8119897325909
 21
217.67897370604359
 31
0.0
  0
LINE
  5
6EA
  8
LAYER_2
 62
     7
 10
120.8338
 20
217.40889999999999
 30
0.0
 11
121.8280672845748
 21
218.4028420417601
 31
0.0
  0
LINE
  5
6EB
  8
LAYER_2
 62
     7
 10
120.84690000000001
 20
218.12909999999999
 30
0.0
 11
121.8441513647789
 21
219.12700430107191
 31
0.0
  0
LINE
  5
6EC
  8
LAYER_2
 62
     7
 10
120.8593
 20
218.84950000000001
 30
0.0
 11
121.8602114003111
 21
219.8500839840859
 31
0.0
  0
LINE
  5
6ED
  8
LAYER_2
 62
     7
 10
120.8717
 20
219.56970000000001
 30
0.0
 11
121.8762965989422
 21
220.5742965989422
 31
0.0
  0
LINE
  5
6EE
  8
LAYER_2
 62
     7
 10
121.0976999999999
 20
232.535
 30
0.0
 11
122.6335
 21
234.0700792632135
 31
0.0
  0
LINE
  5
6EF
  8
LAYER_2
 62
     7
 10
121.1108
 20
233.2552
 30
0.0
 11
122.6335
 21
234.77809999999999
 31
0.0
  0
LINE
  5
6F0
  8
LAYER_2
 62
     7
 10
121.1232
 20
233.97550000000001
 30
0.0
 11
122.6335
 21
235.48589999999999
 31
0.0
  0
LINE
  5
6F1
  8
LAYER_2
 62
     7
 10
121.1356
 20
234.69569999999999
 30
0.0
 11
122.6335
 21
236.19370000000001
 31
0.0
  0
LINE
  5
6F2
  8
LAYER_2
 62
     7
 10
121.14870000000001
 20
235.41609999999989
 30
0.0
 11
122.6335
 21
236.90129999999999
 31
0.0
  0
LINE
  5
6F3
  8
LAYER_2
 62
     7
 10
121.6324
 20
236.1150999999999
 30
0.0
 11
121.0488
 21
235.53139999999999
 31
0.0
  0
ARC
  5
6F4
  8
LAYER_2
 62
     7
 10
117.896
 20
188.5403
 30
0.0
 40
0.6675
 50
269.97996689999991
 51
359.9856985999993
  0
LINE
  5
6F5
  8
LAYER_2
 62
     7
 10
117.2289
 20
192.17789999999999
 30
0.0
 11
116.56189999999999
 21
191.51060000000001
 31
0.0
  0
LINE
  5
6F6
  8
LAYER_2
 62
     7
 10
116.56189999999999
 20
192.17789999999999
 30
0.0
 11
117.2289
 21
192.17789999999999
 31
0.0
  0
LINE
  5
6F7
  8
LAYER_2
 62
     7
 10
115.4602
 20
192.51140000000001
 30
0.0
 11
116.2277
 21
190.87530000000001
 31
0.0
  0
LINE
  5
6F8
  8
LAYER_2
 62
     7
 10
116.22150000000001
 20
190.88929999999999
 30
0.0
 11
116.56189999999999
 21
191.19730000000001
 31
0.0
  0
LINE
  5
6F9
  8
LAYER_2
 62
     7
 10
115.999
 20
191.34209999999999
 30
0.0
 11
116.56189999999999
 21
191.9049
 31
0.0
  0
LINE
  5
6FA
  8
LAYER_2
 62
     7
 10
115.7756999999999
 20
191.82689999999999
 30
0.0
 11
116.56189999999999
 21
192.61269999999999
 31
0.0
  0
LINE
  5
6FB
  8
LAYER_2
 62
     7
 10
115.55249999999999
 20
192.31139999999999
 30
0.0
 11
116.56189999999999
 21
193.32050000000001
 31
0.0
  0
LINE
  5
6FC
  8
LAYER_2
 62
     7
 10
115.4602
 20
192.9272
 30
0.0
 11
116.56189999999999
 21
194.02829999999989
 31
0.0
  0
LINE
  5
6FD
  8
LAYER_2
 62
     7
 10
115.4602
 20
193.63489999999999
 30
0.0
 11
116.56189999999999
 21
194.73570000000001
 31
0.0
  0
LINE
  5
6FE
  8
LAYER_2
 62
     7
 10
116.56189999999999
 20
190.87530000000001
 30
0.0
 11
116.56189999999999
 21
191.51060000000001
 31
0.0
  0
LINE
  5
6FF
  8
LAYER_2
 62
     7
 10
116.2277
 20
190.87530000000001
 30
0.0
 11
116.56189999999999
 21
190.87530000000001
 31
0.0
  0
LINE
  5
700
  8
LAYER_2
 62
     7
 10
116.46129999999999
 20
190.20820000000001
 30
0.0
 11
116.46129999999999
 21
190.87530000000001
 31
0.0
  0
LINE
  5
701
  8
LAYER_2
 62
     7
 10
116.41930000000001
 20
190.20820000000001
 30
0.0
 11
116.54470000000001
 21
190.08240000000001
 31
0.0
  0
LINE
  5
702
  8
LAYER_2
 62
     7
 10
115.9473
 20
190.20820000000001
 30
0.0
 11
116.54470000000001
 21
189.61059999999989
 31
0.0
  0
LINE
  5
703
  8
LAYER_2
 62
     7
 10
116.03830000000001
 20
190.20820000000001
 30
0.0
 11
116.46129999999999
 21
190.36199999999999
 31
0.0
  0
LINE
  5
704
  8
LAYER_2
 62
     7
 10
115.5504
 20
190.20820000000001
 30
0.0
 11
116.46129999999999
 21
190.53960000000001
 31
0.0
  0
LINE
  5
705
  8
LAYER_2
 62
     7
 10
115.2941
 20
190.20820000000001
 30
0.0
 11
115.2941
 21
193.8459
 31
0.0
  0
LINE
  5
706
  8
LAYER_2
 62
     7
 10
115.2941
 20
190.20820000000001
 30
0.0
 11
115.21559999999999
 21
194.7859
 31
0.0
  0
ARC
  5
707
  8
LAYER_2
 62
     7
 10
114.8707
 20
194.7687
 30
0.0
 40
0.3453
 50
2.8598100769991008
 51
87.990028480000916
  0
LINE
  5
708
  8
LAYER_2
 62
     7
 10
114.25920000000001
 20
195.1138
 30
0.0
 11
114.25920000000001
 21
191.77760000000001
 31
0.0
  0
ARC
  5
709
  8
LAYER_2
 62
     7
 10
113.5921
 20
191.7774
 30
0.0
 40
0.6671000000000001
 50
270.01180909999982
 51
0.0139552896204039
  0
LINE
  5
70A
  8
LAYER_2
 62
     7
 10
113.59220000000001
 20
191.1103
 30
0.0
 11
113.4586
 21
191.1103
 31
0.0
  0
LINE
  5
70B
  8
LAYER_2
 62
     7
 10
114.7842
 20
195.1138
 30
0.0
 11
115.2176
 21
194.68029999999999
 31
0.0
  0
LINE
  5
70C
  8
LAYER_2
 62
     7
 10
114.31229999999999
 20
195.1138
 30
0.0
 11
115.2259
 21
194.20050000000001
 31
0.0
  0
LINE
  5
70D
  8
LAYER_2
 62
     7
 10
114.25920000000001
 20
194.69489999999999
 30
0.0
 11
115.2342
 21
193.72030000000001
 31
0.0
  0
LINE
  5
70E
  8
LAYER_2
 62
     7
 10
114.25920000000001
 20
194.22290000000001
 30
0.0
 11
115.24169999999999
 21
193.24039999999999
 31
0.0
  0
LINE
  5
70F
  8
LAYER_2
 62
     7
 10
114.25920000000001
 20
193.75110000000001
 30
0.0
 11
115.25
 21
192.76049999999989
 31
0.0
  0
LINE
  5
710
  8
LAYER_2
 62
     7
 10
114.25920000000001
 20
193.27930000000001
 30
0.0
 11
115.25830000000001
 21
192.2808
 31
0.0
  0
LINE
  5
711
  8
LAYER_2
 62
     7
 10
114.25920000000001
 20
192.80729999999991
 30
0.0
 11
115.26649999999999
 21
191.8008999999999
 31
0.0
  0
LINE
  5
712
  8
LAYER_2
 62
     7
 10
114.25920000000001
 20
192.3355
 30
0.0
 11
115.2748
 21
191.321
 31
0.0
  0
LINE
  5
713
  8
LAYER_2
 62
     7
 10
114.25920000000001
 20
191.86369999999999
 30
0.0
 11
115.2824
 21
190.87280000000001
 31
0.0
  0
LINE
  5
714
  8
LAYER_2
 62
     7
 10
114.18340000000001
 20
191.4682
 30
0.0
 11
115.2907
 21
190.39289999999991
 31
0.0
  0
LINE
  5
715
  8
LAYER_2
 62
     7
 10
115.2941
 20
190.20820000000001
 30
0.0
 11
116.54470000000001
 21
190.20820000000001
 31
0.0
  0
LINE
  5
716
  8
LAYER_2
 62
     7
 10
115.2941
 20
193.8459
 30
0.0
 11
115.4602
 21
193.8459
 31
0.0
  0
LINE
  5
717
  8
LAYER_2
 62
     7
 10
115.2941
 20
190.29230000000001
 30
0.0
 11
116.46129999999999
 21
190.71719999999991
 31
0.0
  0
LINE
  5
718
  8
LAYER_2
 62
     7
 10
115.2941
 20
190.46969999999999
 30
0.0
 11
116.4083
 21
190.87530000000001
 31
0.0
  0
LINE
  5
719
  8
LAYER_2
 62
     7
 10
115.2941
 20
190.6473
 30
0.0
 11
116.18429999999999
 21
190.9392
 31
0.0
  0
LINE
  5
71A
  8
LAYER_2
 62
     7
 10
115.2941
 20
190.82470000000001
 30
0.0
 11
116.114
 21
191.09119999999999
 31
0.0
  0
LINE
  5
71B
  8
LAYER_2
 62
     7
 10
115.2941
 20
190.97020000000001
 30
0.0
 11
116.0438
 21
191.24340000000001
 31
0.0
  0
LINE
  5
71C
  8
LAYER_2
 62
     7
 10
115.2941
 20
191.14779999999999
 30
0.0
 11
115.9742
 21
191.3954
 31
0.0
  0
LINE
  5
71D
  8
LAYER_2
 62
     7
 10
115.2941
 20
191.3253
 30
0.0
 11
115.90389999999999
 21
191.54750000000001
 31
0.0
  0
LINE
  5
71E
  8
LAYER_2
 62
     7
 10
115.2941
 20
191.50290000000001
 30
0.0
 11
115.8343
 21
191.6994
 31
0.0
  0
LINE
  5
71F
  8
LAYER_2
 62
     7
 10
115.2941
 20
191.68029999999999
 30
0.0
 11
115.764
 21
191.85169999999999
 31
0.0
  0
LINE
  5
720
  8
LAYER_2
 62
     7
 10
115.2941
 20
191.8579
 30
0.0
 11
115.6944
 21
192.00359999999989
 31
0.0
  0
LINE
  5
721
  8
LAYER_2
 62
     7
 10
115.2941
 20
192.03530000000001
 30
0.0
 11
115.6242
 21
192.15549999999999
 31
0.0
  0
LINE
  5
722
  8
LAYER_2
 62
     7
 10
115.2941
 20
192.21289999999999
 30
0.0
 11
115.55459999999999
 21
192.30779999999999
 31
0.0
  0
LINE
  5
723
  8
LAYER_2
 62
     7
 10
115.2941
 20
192.3903
 30
0.0
 11
115.4843
 21
192.4597
 31
0.0
  0
LINE
  5
724
  8
LAYER_2
 62
     7
 10
115.2941
 20
192.56790000000001
 30
0.0
 11
115.4602
 21
192.6285
 31
0.0
  0
LINE
  5
725
  8
LAYER_2
 62
     7
 10
115.2941
 20
192.74529999999999
 30
0.0
 11
115.4602
 21
192.80600000000001
 31
0.0
  0
LINE
  5
726
  8
LAYER_2
 62
     7
 10
115.2941
 20
192.9229
 30
0.0
 11
115.4602
 21
192.9836
 31
0.0
  0
LINE
  5
727
  8
LAYER_2
 62
     7
 10
115.2941
 20
193.10040000000001
 30
0.0
 11
115.4602
 21
193.16120000000001
 31
0.0
  0
LINE
  5
728
  8
LAYER_2
 62
     7
 10
115.2941
 20
193.27789999999999
 30
0.0
 11
115.4602
 21
193.33860000000001
 31
0.0
  0
LINE
  5
729
  8
LAYER_2
 62
     7
 10
115.2941
 20
193.4554
 30
0.0
 11
115.4602
 21
193.5162
 31
0.0
  0
LINE
  5
72A
  8
LAYER_2
 62
     7
 10
115.2941
 20
193.63300000000001
 30
0.0
 11
115.4602
 21
193.6936
 31
0.0
  0
LINE
  5
72B
  8
LAYER_2
 62
     7
 10
115.2941
 20
193.81059999999999
 30
0.0
 11
115.3913
 21
193.8459
 31
0.0
  0
LINE
  5
72C
  8
LAYER_2
 62
     7
 10
115.4106
 20
189.20740000000001
 30
0.0
 11
115.4106
 21
187.87280000000001
 31
0.0
  0
LINE
  5
72D
  8
LAYER_2
 62
     7
 10
115.91630000000001
 20
189.20740000000001
 30
0.0
 11
117.2509
 21
187.87280000000001
 31
0.0
  0
LINE
  5
72E
  8
LAYER_2
 62
     7
 10
115.4443
 20
189.20740000000001
 30
0.0
 11
116.77889999999999
 21
187.87280000000001
 31
0.0
  0
LINE
  5
72F
  8
LAYER_2
 62
     7
 10
115.4106
 20
188.76949999999999
 30
0.0
 11
116.307
 21
187.87280000000001
 31
0.0
  0
LINE
  5
730
  8
LAYER_2
 62
     7
 10
115.4106
 20
188.29769999999999
 30
0.0
 11
115.83499999999999
 21
187.87280000000001
 31
0.0
  0
ARC
  5
731
  8
LAYER_2
 62
     7
 10
113.7466
 20
186.55129999999991
 30
0.0
 40
0.3468
 50
272.0539071000004
 51
357.87745459999871
  0
ARC
  5
732
  8
LAYER_2
 62
     7
 10
113.7466
 20
186.5256
 30
0.0
 40
0.3468
 50
2.1400884470001942
 51
87.945722190000311
  0
LINE
  5
733
  8
LAYER_2
 62
     7
 10
113.759
 20
189.20740000000001
 30
0.0
 11
113.759
 21
186.87209999999999
 31
0.0
  0
LINE
  5
734
  8
LAYER_2
 62
     7
 10
113.59220000000001
 20
189.20740000000001
 30
0.0
 11
116.82859999999999
 21
189.20740000000001
 31
0.0
  0
LINE
  5
735
  8
LAYER_2
 62
     7
 10
113.59220000000001
 20
189.20740000000001
 30
0.0
 11
116.54470000000001
 21
189.20740000000001
 31
0.0
  0
LINE
  5
736
  8
LAYER_2
 62
     7
 10
116.82859999999999
 20
189.20740000000001
 30
0.0
 11
117.3288
 21
189.70760000000001
 31
0.0
  0
LINE
  5
737
  8
LAYER_2
 62
     7
 10
116.54470000000001
 20
190.20820000000001
 30
0.0
 11
116.54470000000001
 21
189.20740000000001
 31
0.0
  0
LINE
  5
738
  8
LAYER_2
 62
     7
 10
115.4753
 20
190.20820000000001
 30
0.0
 11
116.4765
 21
189.20740000000001
 31
0.0
  0
LINE
  5
739
  8
LAYER_2
 62
     7
 10
113.95950000000001
 20
191.22040000000001
 30
0.0
 11
116.00449999999999
 21
189.20740000000001
 31
0.0
  0
LINE
  5
73A
  8
LAYER_2
 62
     7
 10
113.5977
 20
191.1105
 30
0.0
 11
115.5325
 21
189.20740000000001
 31
0.0
  0
LINE
  5
73B
  8
LAYER_2
 62
     7
 10
113.759
 20
187.87280000000001
 30
0.0
 11
117.89579999999999
 21
187.87280000000001
 31
0.0
  0
LINE
  5
73C
  8
LAYER_2
 62
     7
 10
115.4106
 20
187.87280000000001
 30
0.0
 11
117.89579999999999
 21
187.87280000000001
 31
0.0
  0
LINE
  5
73D
  8
LAYER_2
 62
     7
 10
117.3288
 20
194.84
 30
0.0
 11
118.5635
 21
193.60560000000001
 31
0.0
  0
LINE
  5
73E
  8
LAYER_2
 62
     7
 10
117.3288
 20
194.36809999999991
 30
0.0
 11
118.5635
 21
193.13380000000001
 31
0.0
  0
LINE
  5
73F
  8
LAYER_2
 62
     7
 10
117.3288
 20
193.89619999999999
 30
0.0
 11
118.5635
 21
192.66179999999989
 31
0.0
  0
LINE
  5
740
  8
LAYER_2
 62
     7
 10
117.3288
 20
193.42439999999999
 30
0.0
 11
118.5635
 21
192.1902
 31
0.0
  0
LINE
  5
741
  8
LAYER_2
 62
     7
 10
117.3288
 20
192.95269999999999
 30
0.0
 11
118.5635
 21
191.7182
 31
0.0
  0
LINE
  5
742
  8
LAYER_2
 62
     7
 10
117.3288
 20
192.48089999999999
 30
0.0
 11
118.5635
 21
191.24639999999999
 31
0.0
  0
LINE
  5
743
  8
LAYER_2
 62
     7
 10
117.3288
 20
192.00909999999999
 30
0.0
 11
118.5635
 21
190.80659999999989
 31
0.0
  0
LINE
  5
744
  8
LAYER_2
 62
     7
 10
117.3288
 20
191.53729999999999
 30
0.0
 11
118.5635
 21
190.33500000000001
 31
0.0
  0
LINE
  5
745
  8
LAYER_2
 62
     7
 10
117.3288
 20
191.06549999999999
 30
0.0
 11
118.5635
 21
189.86320000000001
 31
0.0
  0
LINE
  5
746
  8
LAYER_2
 62
     7
 10
117.3288
 20
190.62559999999999
 30
0.0
 11
118.5635
 21
189.3914
 31
0.0
  0
LINE
  5
747
  8
LAYER_2
 62
     7
 10
117.3288
 20
190.15379999999999
 30
0.0
 11
118.5635
 21
188.9194
 31
0.0
  0
LINE
  5
748
  8
LAYER_2
 62
     7
 10
117.31570000000001
 20
189.69489999999999
 30
0.0
 11
118.5573
 21
188.4538
 31
0.0
  0
LINE
  5
749
  8
LAYER_2
 62
     7
 10
117.08
 20
189.4589
 30
0.0
 11
118.4161
 21
188.12270000000001
 31
0.0
  0
LINE
  5
74A
  8
LAYER_2
 62
     7
 10
116.84439999999999
 20
189.22290000000001
 30
0.0
 11
118.146
 21
187.92150000000001
 31
0.0
  0
LINE
  5
74B
  8
LAYER_2
 62
     7
 10
116.3883
 20
189.20740000000001
 30
0.0
 11
117.7229
 21
187.87280000000001
 31
0.0
  0
ARC
  5
74C
  8
LAYER_2
 62
     7
 10
113.7466
 20
179.87909999999999
 30
0.0
 40
0.3467
 50
270.32780730000093
 51
356.17063420000221
  0
ARC
  5
74D
  8
LAYER_2
 62
     7
 10
113.777
 20
179.85210000000001
 30
0.0
 40
0.3155
 50
0.696095741600278
 51
91.397656859999202
  0
LINE
  5
74E
  8
LAYER_2
 62
     7
 10
113.7693
 20
180.16749999999999
 30
0.0
 11
113.759
 21
180.16749999999999
 31
0.0
  0
ARC
  5
74F
  8
LAYER_2
 62
     7
 10
113.7466
 20
183.21509999999989
 30
0.0
 40
0.3468
 50
272.05130710000032
 51
357.86288219999778
  0
ARC
  5
750
  8
LAYER_2
 62
     7
 10
113.3005
 20
179.59809999999999
 30
0.0
 40
0.4529
 50
290.43073049999941
 51
351.65991999999972
  0
LINE
  5
751
  8
LAYER_2
 62
     7
 10
113.688
 20
178.39809999999991
 30
0.0
 11
114.1193
 21
178.29249999999999
 31
0.0
  0
LINE
  5
752
  8
LAYER_2
 62
     7
 10
114.1193
 20
178.29249999999999
 30
0.0
 11
114.62649999999999
 21
178.1311
 31
0.0
  0
LINE
  5
753
  8
LAYER_2
 62
     7
 10
113.759
 20
182.86859999999999
 30
0.0
 11
113.759
 21
180.16749999999999
 31
0.0
  0
ARC
  5
754
  8
LAYER_2
 62
     7
 10
113.62569999999999
 20
173.1936
 30
0.0
 40
0.3336
 50
275.9794003000008
 51
5.9954631159997867
  0
ARC
  5
755
  8
LAYER_2
 62
     7
 10
113.6139
 20
173.17910000000001
 30
0.0
 40
0.347
 50
8.1701072019980785
 51
93.915266580000804
  0
ARC
  5
756
  8
LAYER_2
 62
     7
 10
113.62560000000001
 20
176.52969999999999
 30
0.0
 40
0.3336
 50
275.99002210000037
 51
6.0001276969982129
  0
ARC
  5
757
  8
LAYER_2
 62
     7
 10
113.614
 20
176.5154
 30
0.0
 40
0.3469
 50
8.1615839549992746
 51
93.942662639999796
  0
LINE
  5
758
  8
LAYER_2
 62
     7
 10
113.4586
 20
173.51140000000001
 30
0.0
 11
113.4586
 21
176.17670000000001
 31
0.0
  0
LINE
  5
759
  8
LAYER_2
 62
     7
 10
113.4586
 20
176.84759999999989
 30
0.0
 11
113.4586
 21
179.1737
 31
0.0
  0
LINE
  5
75A
  8
LAYER_2
 62
     7
 10
113.59220000000001
 20
189.20740000000001
 30
0.0
 11
113.59220000000001
 21
179.63239999999999
 31
0.0
  0
LINE
  5
75B
  8
LAYER_2
 62
     7
 10
113.59220000000001
 20
179.63239999999999
 30
0.0
 11
113.59220000000001
 21
189.20740000000001
 31
0.0
  0
ARC
  5
75C
  8
LAYER_2
 62
     7
 10
113.74679999999999
 20
183.18929999999989
 30
0.0
 40
0.3465
 50
2.1330836809990918
 51
87.987087190001077
  0
LINE
  5
75D
  8
LAYER_2
 62
     7
 10
113.759
 20
186.20480000000001
 30
0.0
 11
113.759
 21
183.53559999999999
 31
0.0
  0
LINE
  5
75E
  8
LAYER_2
 62
     7
 10
112.95829999999999
 20
179.51439999999999
 30
0.0
 11
113.17400000000001
 21
179.2988
 31
0.0
  0
LINE
  5
75F
  8
LAYER_2
 62
     7
 10
111.2902
 20
178.1311
 30
0.0
 11
111.6609
 21
178.1688
 31
0.0
  0
LINE
  5
760
  8
LAYER_2
 62
     7
 10
111.6609
 20
178.1688
 30
0.0
 11
112.1474
 21
178.29560000000001
 31
0.0
  0
LINE
  5
761
  8
LAYER_2
 62
     7
 10
112.1474
 20
178.29560000000001
 30
0.0
 11
112.6049
 21
178.41739999999999
 31
0.0
  0
LINE
  5
762
  8
LAYER_2
 62
     7
 10
112.6049
 20
178.41739999999999
 30
0.0
 11
112.95829999999999
 21
178.46469999999999
 31
0.0
  0
LINE
  5
763
  8
LAYER_2
 62
     7
 10
112.95829999999999
 20
178.46469999999999
 30
0.0
 11
113.29940000000001
 21
178.45609999999999
 31
0.0
  0
LINE
  5
764
  8
LAYER_2
 62
     7
 10
113.29179999999999
 20
178.45679999999999
 30
0.0
 11
113.29179999999999
 21
179.2988
 31
0.0
  0
LINE
  5
765
  8
LAYER_2
 62
     7
 10
109.2886
 20
178.46469999999999
 30
0.0
 11
109.75920000000001
 21
178.4136
 31
0.0
  0
LINE
  5
766
  8
LAYER_2
 62
     7
 10
109.75920000000001
 20
178.4136
 30
0.0
 11
110.3724
 21
178.28200000000001
 31
0.0
  0
LINE
  5
767
  8
LAYER_2
 62
     7
 10
110.3724
 20
178.28200000000001
 30
0.0
 11
110.91540000000001
 21
178.1653
 31
0.0
  0
LINE
  5
768
  8
LAYER_2
 62
     7
 10
110.91540000000001
 20
178.1653
 30
0.0
 11
111.2902
 21
178.1311
 31
0.0
  0
LINE
  5
769
  8
LAYER_2
 62
     7
 10
107.28699999999991
 20
178.1311
 30
0.0
 11
107.8823
 21
178.29249999999999
 31
0.0
  0
LINE
  5
76A
  8
LAYER_2
 62
     7
 10
107.8823
 20
178.29249999999999
 30
0.0
 11
108.39570000000001
 21
178.39809999999991
 31
0.0
  0
LINE
  5
76B
  8
LAYER_2
 62
     7
 10
108.39570000000001
 20
178.39809999999991
 30
0.0
 11
108.8669
 21
178.45609999999999
 31
0.0
  0
LINE
  5
76C
  8
LAYER_2
 62
     7
 10
107.28699999999991
 20
179.2988
 30
0.0
 11
113.2587
 21
179.2988
 31
0.0
  0
LINE
  5
76D
  8
LAYER_2
 62
     7
 10
108.8669
 20
178.45609999999999
 30
0.0
 11
109.2886
 21
178.46469999999999
 31
0.0
  0
LINE
  5
76E
  8
LAYER_2
 62
     7
 10
112.95829999999999
 20
190.64189999999999
 30
0.0
 11
112.95829999999999
 21
179.2988
 31
0.0
  0
ARC
  5
76F
  8
LAYER_2
 62
     7
 10
113.2587
 20
179.63229999999999
 30
0.0
 40
0.3335
 50
270.0079786
 51
0.0091989303221811
  0
LINE
  5
770
  8
LAYER_2
 62
     7
 10
107.28699999999991
 20
195.1138
 30
0.0
 11
114.8828
 21
195.1138
 31
0.0
  0
LINE
  5
771
  8
LAYER_2
 62
     7
 10
107.28699999999991
 20
191.1103
 30
0.0
 11
113.59220000000001
 21
191.1103
 31
0.0
  0
ARC
  5
772
  8
LAYER_2
 62
     7
 10
113.459
 20
190.60849999999999
 30
0.0
 40
0.5018000000000001
 50
90.049321990000394
 51
176.17845720000139
  0
LINE
  5
773
  8
LAYER_2
 62
     7
 10
113.1995
 20
191.0369
 30
0.0
 11
115.0605
 21
189.20740000000001
 31
0.0
  0
LINE
  5
774
  8
LAYER_2
 62
     7
 10
112.988
 20
190.80869999999999
 30
0.0
 11
114.58920000000001
 21
189.20740000000001
 31
0.0
  0
LINE
  5
775
  8
LAYER_2
 62
     7
 10
112.95829999999999
 20
190.36619999999999
 30
0.0
 11
114.1173
 21
189.20740000000001
 31
0.0
  0
LINE
  5
776
  8
LAYER_2
 62
     7
 10
112.95829999999999
 20
189.89429999999999
 30
0.0
 11
113.64530000000001
 21
189.20740000000001
 31
0.0
  0
LINE
  5
777
  8
LAYER_2
 62
     7
 10
112.95829999999999
 20
189.42250000000001
 30
0.0
 11
113.59220000000001
 21
188.78859999999989
 31
0.0
  0
LINE
  5
778
  8
LAYER_2
 62
     7
 10
112.95829999999999
 20
188.95070000000001
 30
0.0
 11
113.59220000000001
 21
188.31679999999989
 31
0.0
  0
LINE
  5
779
  8
LAYER_2
 62
     7
 10
112.95829999999999
 20
188.4788999999999
 30
0.0
 11
113.59220000000001
 21
187.8449
 31
0.0
  0
LINE
  5
77A
  8
LAYER_2
 62
     7
 10
112.95829999999999
 20
188.00710000000001
 30
0.0
 11
113.59220000000001
 21
187.37309999999999
 31
0.0
  0
LINE
  5
77B
  8
LAYER_2
 62
     7
 10
112.95829999999999
 20
187.5351
 30
0.0
 11
113.59220000000001
 21
186.9014
 31
0.0
  0
LINE
  5
77C
  8
LAYER_2
 62
     7
 10
112.95829999999999
 20
187.06329999999991
 30
0.0
 11
113.59220000000001
 21
186.42959999999999
 31
0.0
  0
LINE
  5
77D
  8
LAYER_2
 62
     7
 10
112.95829999999999
 20
186.5915
 30
0.0
 11
113.59220000000001
 21
185.95779999999999
 31
0.0
  0
LINE
  5
77E
  8
LAYER_2
 62
     7
 10
112.95829999999999
 20
186.1199
 30
0.0
 11
113.59220000000001
 21
185.48599999999999
 31
0.0
  0
LINE
  5
77F
  8
LAYER_2
 62
     7
 10
112.95829999999999
 20
185.6481
 30
0.0
 11
113.59220000000001
 21
185.01419999999999
 31
0.0
  0
LINE
  5
780
  8
LAYER_2
 62
     7
 10
112.95829999999999
 20
185.1763
 30
0.0
 11
113.59220000000001
 21
184.54239999999999
 31
0.0
  0
LINE
  5
781
  8
LAYER_2
 62
     7
 10
112.95829999999999
 20
184.7045
 30
0.0
 11
113.59220000000001
 21
184.07040000000001
 31
0.0
  0
LINE
  5
782
  8
LAYER_2
 62
     7
 10
112.95829999999999
 20
184.23269999999999
 30
0.0
 11
113.59220000000001
 21
183.5986
 31
0.0
  0
LINE
  5
783
  8
LAYER_2
 62
     7
 10
112.95829999999999
 20
183.76070000000001
 30
0.0
 11
113.59220000000001
 21
183.1268
 31
0.0
  0
LINE
  5
784
  8
LAYER_2
 62
     7
 10
112.95829999999999
 20
183.28890000000001
 30
0.0
 11
113.59220000000001
 21
182.655
 31
0.0
  0
LINE
  5
785
  8
LAYER_2
 62
     7
 10
112.95829999999999
 20
182.81710000000001
 30
0.0
 11
113.59220000000001
 21
182.18340000000001
 31
0.0
  0
LINE
  5
786
  8
LAYER_2
 62
     7
 10
112.95829999999999
 20
182.34549999999999
 30
0.0
 11
113.59220000000001
 21
181.7116
 31
0.0
  0
LINE
  5
787
  8
LAYER_2
 62
     7
 10
112.95829999999999
 20
181.87360000000001
 30
0.0
 11
113.59220000000001
 21
181.23969999999991
 31
0.0
  0
LINE
  5
788
  8
LAYER_2
 62
     7
 10
112.95829999999999
 20
181.40180000000001
 30
0.0
 11
113.59220000000001
 21
180.7679
 31
0.0
  0
LINE
  5
789
  8
LAYER_2
 62
     7
 10
112.95829999999999
 20
180.93000000000001
 30
0.0
 11
113.59220000000001
 21
180.26410000000001
 31
0.0
  0
LINE
  5
78A
  8
LAYER_2
 62
     7
 10
112.95829999999999
 20
180.45820000000001
 30
0.0
 11
113.59220000000001
 21
179.82419999999991
 31
0.0
  0
LINE
  5
78B
  8
LAYER_2
 62
     7
 10
112.95829999999999
 20
179.95439999999999
 30
0.0
 11
113.51990000000001
 21
179.42500000000001
 31
0.0
  0
LINE
  5
78C
  8
LAYER_2
 62
     7
 10
113.29940000000001
 20
178.45609999999999
 30
0.0
 11
113.688
 21
178.39809999999991
 31
0.0
  0
ARC
  5
78D
  8
LAYER_2
 62
     7
 10
113.6139
 20
166.5067
 30
0.0
 40
0.347
 50
8.1571482480003255
 51
93.909357749999074
  0
ARC
  5
78E
  8
LAYER_2
 62
     7
 10
113.62569999999999
 20
169.85730000000001
 30
0.0
 40
0.3336
 50
275.9779648
 51
5.9816072859993206
  0
ARC
  5
78F
  8
LAYER_2
 62
     7
 10
113.6139
 20
169.84289999999999
 30
0.0
 40
0.347
 50
8.1571482480003255
 51
93.909357749999074
  0
LINE
  5
790
  8
LAYER_2
 62
     7
 10
113.4586
 20
166.83909999999989
 30
0.0
 11
113.4586
 21
169.50419999999991
 31
0.0
  0
ARC
  5
791
  8
LAYER_2
 62
     7
 10
113.62560000000001
 20
163.1849
 30
0.0
 40
0.3336
 50
275.98005680000023
 51
5.9948066050003028
  0
ARC
  5
792
  8
LAYER_2
 62
     7
 10
113.6139
 20
163.1704
 30
0.0
 40
0.347
 50
8.1701072019980785
 51
93.915266580000804
  0
ARC
  5
793
  8
LAYER_2
 62
     7
 10
113.62560000000001
 20
166.52109999999999
 30
0.0
 40
0.3336
 50
275.98238450000088
 51
5.9924789090021173
  0
LINE
  5
794
  8
LAYER_2
 62
     7
 10
113.4586
 20
163.50280000000001
 30
0.0
 11
113.4586
 21
166.16800000000001
 31
0.0
  0
ARC
  5
795
  8
LAYER_2
 62
     7
 10
113.61109999999999
 20
156.52420000000001
 30
0.0
 40
0.3471
 50
278.16014229999951
 51
3.9216198410021832
  0
ARC
  5
796
  8
LAYER_2
 62
     7
 10
113.61450000000001
 20
156.49870000000001
 30
0.0
 40
0.3464
 50
8.1727074310011787
 51
94.025978629999074
  0
ARC
  5
797
  8
LAYER_2
 62
     7
 10
113.62569999999999
 20
159.8486
 30
0.0
 40
0.3336
 50
275.97862129999982
 51
5.980950756000512
  0
ARC
  5
798
  8
LAYER_2
 62
     7
 10
113.6139
 20
159.83420000000001
 30
0.0
 40
0.347
 50
8.1571482480003255
 51
93.909357749999074
  0
LINE
  5
799
  8
LAYER_2
 62
     7
 10
113.4586
 20
156.83039999999991
 30
0.0
 11
113.4586
 21
159.49549999999999
 31
0.0
  0
ARC
  5
79A
  8
LAYER_2
 62
     7
 10
113.61109999999999
 20
153.18799999999999
 30
0.0
 40
0.3471
 50
278.16014229999951
 51
3.9216198410021832
  0
ARC
  5
79B
  8
LAYER_2
 62
     7
 10
113.6262
 20
153.17679999999999
 30
0.0
 40
0.333
 50
6.0085463670012871
 51
96.209042679999783
  0
LINE
  5
79C
  8
LAYER_2
 62
     7
 10
113.4586
 20
153.49420000000001
 30
0.0
 11
113.4586
 21
156.16
 31
0.0
  0
LINE
  5
79D
  8
LAYER_2
 62
     7
 10
113.4586
 20
160.16659999999999
 30
0.0
 11
113.4586
 21
162.83170000000001
 31
0.0
  0
LINE
  5
79E
  8
LAYER_2
 62
     7
 10
105.2854
 20
149.10650000000001
 30
0.0
 11
105.8683
 21
149.04859999999999
 31
0.0
  0
LINE
  5
79F
  8
LAYER_2
 62
     7
 10
105.8683
 20
149.04859999999999
 30
0.0
 11
106.4871
 21
148.95150000000001
 31
0.0
  0
LINE
  5
7A0
  8
LAYER_2
 62
     7
 10
113.4586
 20
170.17529999999999
 30
0.0
 11
113.4586
 21
172.84039999999999
 31
0.0
  0
LINE
  5
7A1
  8
LAYER_2
 62
     7
 10
117.2289
 20
192.17789999999999
 30
0.0
 11
117.2289
 21
198.8502
 31
0.0
  0
LINE
  5
7A2
  8
LAYER_2
 62
     7
 10
115.4602
 20
192.51140000000001
 30
0.0
 11
115.4602
 21
199.51750000000001
 31
0.0
  0
LINE
  5
7A3
  8
LAYER_2
 62
     7
 10
115.4602
 20
194.34249999999989
 30
0.0
 11
116.56189999999999
 21
195.4435
 31
0.0
  0
LINE
  5
7A4
  8
LAYER_2
 62
     7
 10
115.4602
 20
195.05029999999999
 30
0.0
 11
116.56189999999999
 21
196.15129999999999
 31
0.0
  0
LINE
  5
7A5
  8
LAYER_2
 62
     7
 10
116.56189999999999
 20
191.51060000000001
 30
0.0
 11
116.56189999999999
 21
199.41679999999999
 31
0.0
  0
LINE
  5
7A6
  8
LAYER_2
 62
     7
 10
118.5635
 20
197.61600000000001
 30
0.0
 11
118.5635
 21
188.5401
 31
0.0
  0
LINE
  5
7A7
  8
LAYER_2
 62
     7
 10
117.3288
 20
197.61600000000001
 30
0.0
 11
117.3288
 21
189.70760000000001
 31
0.0
  0
LINE
  5
7A8
  8
LAYER_2
 62
     7
 10
117.3288
 20
196.25540000000001
 30
0.0
 11
118.5635
 21
195.02080000000001
 31
0.0
  0
LINE
  5
7A9
  8
LAYER_2
 62
     7
 10
117.3288
 20
195.78360000000001
 30
0.0
 11
118.5635
 21
194.54900000000001
 31
0.0
  0
LINE
  5
7AA
  8
LAYER_2
 62
     7
 10
117.3288
 20
195.31180000000001
 30
0.0
 11
118.5635
 21
194.07740000000001
 31
0.0
  0
LINE
  5
7AB
  8
LAYER_2
 62
     7
 10
125.8361
 20
241.0394
 30
0.0
 11
125.8361
 21
242.02069999999989
 31
0.0
  0
LINE
  5
7AC
  8
LAYER_2
 62
     7
 10
121.733
 20
240.99459999999999
 30
0.0
 11
122.3972
 21
241.72
 31
0.0
  0
LINE
  5
7AD
  8
LAYER_2
 62
     7
 10
124.03230000000001
 20
240.42289999999991
 30
0.0
 11
125.6101
 21
242.00089999999989
 31
0.0
  0
LINE
  5
7AE
  8
LAYER_2
 62
     7
 10
123.2564
 20
240.35499999999999
 30
0.0
 11
124.8343
 21
241.9332
 31
0.0
  0
LINE
  5
7AF
  8
LAYER_2
 62
     7
 10
121.733
 20
239.53899999999999
 30
0.0
 11
124.0591
 21
241.86529999999999
 31
0.0
  0
LINE
  5
7B0
  8
LAYER_2
 62
     7
 10
121.733
 20
240.24680000000001
 30
0.0
 11
123.2833
 21
241.79750000000001
 31
0.0
  0
LINE
  5
7B1
  8
LAYER_2
 62
     7
 10
121.733
 20
240.9545
 30
0.0
 11
122.5081
 21
241.72959999999989
 31
0.0
  0
LINE
  5
7B2
  8
LAYER_2
 62
     7
 10
121.6324
 20
236.1150999999999
 30
0.0
 11
121.6324
 21
242.53749999999999
 31
0.0
  0
LINE
  5
7B3
  8
LAYER_2
 62
     7
 10
121.0488
 20
235.53139999999999
 30
0.0
 11
121.0488
 21
241.95339999999999
 31
0.0
  0
LINE
  5
7B4
  8
LAYER_2
 62
     7
 10
120.6319
 20
246.69159999999999
 30
0.0
 11
120.4652
 21
235.1977
 31
0.0
  0
LINE
  5
7B5
  8
LAYER_2
 62
     7
 10
120.5575
 20
241.54740000000001
 30
0.0
 11
121.71299999999999
 21
242.703
 31
0.0
  0
ARC
  5
7B6
  8
LAYER_2
 62
     7
 10
113.62560000000001
 20
146.1387
 30
0.0
 40
0.3336
 50
275.98309660000052
 51
5.9917668200007101
  0
ARC
  5
7B7
  8
LAYER_2
 62
     7
 10
113.6139
 20
146.12430000000001
 30
0.0
 40
0.347
 50
8.1571482480003255
 51
93.909357749999074
  0
LINE
  5
7B8
  8
LAYER_2
 62
     7
 10
113.4096
 20
147.66449999999989
 30
0.0
 11
114.8387
 21
147.98629999999989
 31
0.0
  0
LINE
  5
7B9
  8
LAYER_2
 62
     7
 10
113.4586
 20
146.45670000000001
 30
0.0
 11
113.4586
 21
147.67349999999999
 31
0.0
  0
LINE
  5
7BA
  8
LAYER_2
 62
     7
 10
113.4586
 20
143.12049999999999
 30
0.0
 11
113.4586
 21
145.78559999999999
 31
0.0
  0
LINE
  5
7BB
  8
LAYER_2
 62
     7
 10
114.8387
 20
147.98629999999989
 30
0.0
 11
116.49299999999999
 21
148.4693
 31
0.0
  0
ARC
  5
7BC
  8
LAYER_2
 62
     7
 10
113.62560000000001
 20
142.80250000000001
 30
0.0
 40
0.3336
 50
275.98076889999948
 51
5.9940945459994204
  0
ARC
  5
7BD
  8
LAYER_2
 62
     7
 10
113.62569999999999
 20
139.46619999999999
 30
0.0
 40
0.3336
 50
275.97933339999952
 51
5.9802386779986758
  0
ARC
  5
7BE
  8
LAYER_2
 62
     7
 10
113.6139
 20
139.45179999999999
 30
0.0
 40
0.347
 50
8.1571482480003255
 51
93.909357749999074
  0
LINE
  5
7BF
  8
LAYER_2
 62
     7
 10
113.4586
 20
139.7842
 30
0.0
 11
113.4586
 21
142.4494
 31
0.0
  0
ARC
  5
7C0
  8
LAYER_2
 62
     7
 10
113.6139
 20
142.78800000000001
 30
0.0
 40
0.347
 50
8.1701072019980785
 51
93.915266580000804
  0
ARC
  5
7C1
  8
LAYER_2
 62
     7
 10
113.62569999999999
 20
136.13
 30
0.0
 40
0.3335
 50
275.97700570000143
 51
5.9825663690007076
  0
ARC
  5
7C2
  8
LAYER_2
 62
     7
 10
113.6139
 20
136.1156
 30
0.0
 40
0.347
 50
8.1571482480003255
 51
93.909357749999074
  0
ARC
  5
7C3
  8
LAYER_2
 62
     7
 10
113.6112999999999
 20
132.80539999999999
 30
0.0
 40
0.3469
 50
278.13919900000121
 51
3.835664437000792
  0
ARC
  5
7C4
  8
LAYER_2
 62
     7
 10
113.614
 20
132.77940000000001
 30
0.0
 40
0.347
 50
8.1593651250014059
 51
93.926008660000818
  0
LINE
  5
7C5
  8
LAYER_2
 62
     7
 10
113.4586
 20
133.11179999999999
 30
0.0
 11
113.4586
 21
135.77690000000001
 31
0.0
  0
ARC
  5
7C6
  8
LAYER_2
 62
     7
 10
113.6112
 20
129.4693
 30
0.0
 40
0.347
 50
278.15714830000047
 51
3.9093577629981211
  0
ARC
  5
7C7
  8
LAYER_2
 62
     7
 10
113.61450000000001
 20
129.44380000000001
 30
0.0
 40
0.3464
 50
8.1727074310011787
 51
94.025978629999074
  0
ARC
  5
7C8
  8
LAYER_2
 62
     7
 10
113.7774
 20
126.1336
 30
0.0
 40
0.3476
 50
278.23814709999908
 51
3.8283589190008231
  0
ARC
  5
7C9
  8
LAYER_2
 62
     7
 10
113.7813
 20
126.1075
 30
0.0
 40
0.3464
 50
8.1776476229991015
 51
93.929441139999398
  0
LINE
  5
7CA
  8
LAYER_2
 62
     7
 10
113.4586
 20
127.38120000000001
 30
0.0
 11
113.4586
 21
129.1044
 31
0.0
  0
LINE
  5
7CB
  8
LAYER_2
 62
     7
 10
113.759
 20
125.78270000000001
 30
0.0
 11
113.8272
 21
125.78959999999999
 31
0.0
  0
ARC
  5
7CC
  8
LAYER_2
 62
     7
 10
113.288
 20
126.9417
 30
0.0
 40
0.4714
 50
357.63547530000028
 51
68.782750649999997
  0
LINE
  5
7CD
  8
LAYER_2
 62
     7
 10
113.759
 20
126.45310000000001
 30
0.0
 11
113.759
 21
126.92229999999989
 31
0.0
  0
LINE
  5
7CE
  8
LAYER_2
 62
     7
 10
113.38209999999999
 20
128.06880000000001
 30
0.0
 11
113.85339999999999
 21
127.9524
 31
0.0
  0
LINE
  5
7CF
  8
LAYER_2
 62
     7
 10
113.85339999999999
 20
127.9524
 30
0.0
 11
114.366
 21
127.7422
 31
0.0
  0
LINE
  5
7D0
  8
LAYER_2
 62
     7
 10
114.366
 20
127.7422
 30
0.0
 11
114.9599
 21
127.4212
 31
0.0
  0
LINE
  5
7D1
  8
LAYER_2
 62
     7
 10
113.4586
 20
129.77549999999999
 30
0.0
 11
113.4586
 21
132.44069999999999
 31
0.0
  0
LINE
  5
7D2
  8
LAYER_2
 62
     7
 10
113.4586
 20
136.44800000000001
 30
0.0
 11
113.4586
 21
139.1131
 31
0.0
  0
LINE
  5
7D3
  8
LAYER_2
 62
     7
 10
111.49209999999999
 20
148.10900000000001
 30
0.0
 11
112.0633
 21
148.14619999999999
 31
0.0
  0
LINE
  5
7D4
  8
LAYER_2
 62
     7
 10
112.0633
 20
148.14619999999999
 30
0.0
 11
112.6703
 21
148.21850000000001
 31
0.0
  0
LINE
  5
7D5
  8
LAYER_2
 62
     7
 10
112.6703
 20
148.21850000000001
 30
0.0
 11
113.31319999999999
 21
148.3246
 31
0.0
  0
LINE
  5
7D6
  8
LAYER_2
 62
     7
 10
111.50239999999999
 20
147.44130000000001
 30
0.0
 11
112.1026
 21
147.47989999999999
 31
0.0
  0
LINE
  5
7D7
  8
LAYER_2
 62
     7
 10
112.1026
 20
147.47989999999999
 30
0.0
 11
112.7385
 21
147.55430000000001
 31
0.0
  0
LINE
  5
7D8
  8
LAYER_2
 62
     7
 10
109.6979
 20
148.23570000000001
 30
0.0
 11
110.34699999999999
 21
148.14619999999999
 31
0.0
  0
LINE
  5
7D9
  8
LAYER_2
 62
     7
 10
110.34699999999999
 20
148.14619999999999
 30
0.0
 11
110.9567
 21
148.10550000000001
 31
0.0
  0
LINE
  5
7DA
  8
LAYER_2
 62
     7
 10
109.60209999999999
 20
147.57499999999999
 30
0.0
 11
110.29049999999999
 21
147.48060000000001
 31
0.0
  0
LINE
  5
7DB
  8
LAYER_2
 62
     7
 10
110.29049999999999
 20
147.48060000000001
 30
0.0
 11
110.93810000000001
 21
147.4385
 31
0.0
  0
LINE
  5
7DC
  8
LAYER_2
 62
     7
 10
110.9567
 20
148.10550000000001
 30
0.0
 11
111.49209999999999
 21
148.10900000000001
 31
0.0
  0
LINE
  5
7DD
  8
LAYER_2
 62
     7
 10
110.93810000000001
 20
147.4385
 30
0.0
 11
111.50239999999999
 21
147.44130000000001
 31
0.0
  0
LINE
  5
7DE
  8
LAYER_2
 62
     7
 10
108.0436
 20
148.60159999999999
 30
0.0
 11
108.99509999999999
 21
148.3742
 31
0.0
  0
LINE
  5
7DF
  8
LAYER_2
 62
     7
 10
107.8837
 20
147.9539
 30
0.0
 11
108.86489999999991
 21
147.71969999999999
 31
0.0
  0
LINE
  5
7E0
  8
LAYER_2
 62
     7
 10
105.2406
 20
148.44040000000001
 30
0.0
 11
105.7925
 21
148.38589999999999
 31
0.0
  0
LINE
  5
7E1
  8
LAYER_2
 62
     7
 10
105.7925
 20
148.38589999999999
 30
0.0
 11
106.3789
 21
148.2936
 31
0.0
  0
LINE
  5
7E2
  8
LAYER_2
 62
     7
 10
106.3789
 20
148.2936
 30
0.0
 11
107.8837
 21
147.9539
 31
0.0
  0
LINE
  5
7E3
  8
LAYER_2
 62
     7
 10
108.99509999999999
 20
148.3742
 30
0.0
 11
109.6979
 21
148.23570000000001
 31
0.0
  0
LINE
  5
7E4
  8
LAYER_2
 62
     7
 10
108.86489999999991
 20
147.71969999999999
 30
0.0
 11
109.60209999999999
 21
147.57499999999999
 31
0.0
  0
LINE
  5
7E5
  8
LAYER_2
 62
     7
 10
112.95829999999999
 20
127.0401
 30
0.0
 11
113.17400000000001
 21
127.25579999999989
 31
0.0
  0
LINE
  5
7E6
  8
LAYER_2
 62
     7
 10
111.31229999999999
 20
127.4935
 30
0.0
 11
111.8352
 21
127.7174
 31
0.0
  0
LINE
  5
7E7
  8
LAYER_2
 62
     7
 10
111.8352
 20
127.7174
 30
0.0
 11
112.4705
 21
127.9855
 31
0.0
  0
LINE
  5
7E8
  8
LAYER_2
 62
     7
 10
112.4705
 20
127.9855
 30
0.0
 11
112.7226999999999
 21
128.05439999999999
 31
0.0
  0
LINE
  5
7E9
  8
LAYER_2
 62
     7
 10
112.7226999999999
 20
128.05439999999999
 30
0.0
 11
112.95829999999999
 21
128.0881
 31
0.0
  0
LINE
  5
7EA
  8
LAYER_2
 62
     7
 10
113.29179999999999
 20
127.25579999999989
 30
0.0
 11
113.29179999999999
 21
128.08049999999989
 31
0.0
  0
LINE
  5
7EB
  8
LAYER_2
 62
     7
 10
109.2886
 20
128.0881
 30
0.0
 11
109.6559
 21
127.9717
 31
0.0
  0
LINE
  5
7EC
  8
LAYER_2
 62
     7
 10
109.6559
 20
127.9717
 30
0.0
 11
110.10720000000001
 21
127.73260000000001
 31
0.0
  0
LINE
  5
7ED
  8
LAYER_2
 62
     7
 10
110.10720000000001
 20
127.73260000000001
 30
0.0
 11
110.5881
 21
127.4866
 31
0.0
  0
LINE
  5
7EE
  8
LAYER_2
 62
     7
 10
110.5881
 20
127.4866
 30
0.0
 11
110.7769
 21
127.4342
 31
0.0
  0
LINE
  5
7EF
  8
LAYER_2
 62
     7
 10
110.7769
 20
127.4342
 30
0.0
 11
110.9567
 21
127.4212
 31
0.0
  0
LINE
  5
7F0
  8
LAYER_2
 62
     7
 10
110.9567
 20
127.4212
 30
0.0
 11
111.31229999999999
 21
127.4935
 31
0.0
  0
LINE
  5
7F1
  8
LAYER_2
 62
     7
 10
107.28699999999991
 20
127.7546
 30
0.0
 11
107.91679999999999
 21
127.9545
 31
0.0
  0
LINE
  5
7F2
  8
LAYER_2
 62
     7
 10
107.91679999999999
 20
127.9545
 30
0.0
 11
108.4418
 21
128.07230000000001
 31
0.0
  0
LINE
  5
7F3
  8
LAYER_2
 62
     7
 10
108.4418
 20
128.07230000000001
 30
0.0
 11
108.9007
 21
128.11779999999999
 31
0.0
  0
LINE
  5
7F4
  8
LAYER_2
 62
     7
 10
107.28699999999991
 20
127.25579999999989
 30
0.0
 11
113.2587
 21
127.25579999999989
 31
0.0
  0
LINE
  5
7F5
  8
LAYER_2
 62
     7
 10
108.9007
 20
128.11779999999999
 30
0.0
 11
109.2886
 21
128.0881
 31
0.0
  0
ARC
  5
7F6
  8
LAYER_2
 62
     7
 10
113.2587
 20
126.92229999999989
 30
0.0
 40
0.3335
 50
359.9952798000013
 51
90.004720219999072
  0
LINE
  5
7F7
  8
LAYER_2
 62
     7
 10
112.95829999999999
 20
125.6248999999999
 30
0.0
 11
113.59220000000001
 21
126.25879999999999
 31
0.0
  0
LINE
  5
7F8
  8
LAYER_2
 62
     7
 10
112.95829999999999
 20
126.09690000000001
 30
0.0
 11
113.59220000000001
 21
126.73009999999999
 31
0.0
  0
LINE
  5
7F9
  8
LAYER_2
 62
     7
 10
112.95829999999999
 20
126.5682
 30
0.0
 11
113.51990000000001
 21
127.1297
 31
0.0
  0
LINE
  5
7FA
  8
LAYER_2
 62
     7
 10
113.31319999999999
 20
148.3246
 30
0.0
 11
114.6878
 21
148.63669999999999
 31
0.0
  0
LINE
  5
7FB
  8
LAYER_2
 62
     7
 10
112.7385
 20
147.55430000000001
 30
0.0
 11
113.4096
 21
147.66449999999989
 31
0.0
  0
LINE
  5
7FC
  8
LAYER_2
 62
     7
 10
112.95829999999999
 20
128.0881
 30
0.0
 11
113.38209999999999
 21
128.06880000000001
 31
0.0
  0
ARC
  5
7FD
  8
LAYER_2
 62
     7
 10
117.87139999999999
 20
117.98949999999989
 30
0.0
 40
0.6925
 50
2.0861569279998911
 51
87.982532729999505
  0
ARC
  5
7FE
  8
LAYER_2
 62
     7
 10
113.7779
 20
122.79689999999999
 30
0.0
 40
0.3471
 50
278.16596430000112
 51
3.9157979119997801
  0
ARC
  5
7FF
  8
LAYER_2
 62
     7
 10
113.7813
 20
122.7713
 30
0.0
 40
0.3464
 50
8.1834827450002052
 51
93.923606019998786
  0
LINE
  5
800
  8
LAYER_2
 62
     7
 10
113.759
 20
122.4464
 30
0.0
 11
113.8272
 21
122.4533
 31
0.0
  0
LINE
  5
801
  8
LAYER_2
 62
     7
 10
116.5509
 20
115.24550000000001
 30
0.0
 11
117.11790000000001
 21
114.7453
 31
0.0
  0
LINE
  5
802
  8
LAYER_2
 62
     7
 10
116.5509
 20
115.24550000000001
 30
0.0
 11
116.5509
 21
115.4122
 31
0.0
  0
LINE
  5
803
  8
LAYER_2
 62
     7
 10
115.7206
 20
114.3291
 30
0.0
 11
116.5509
 21
115.1587
 31
0.0
  0
LINE
  5
804
  8
LAYER_2
 62
     7
 10
116.2319
 20
115.3116
 30
0.0
 11
116.3325
 21
115.4122
 31
0.0
  0
LINE
  5
805
  8
LAYER_2
 62
     7
 10
116.54470000000001
 20
116.3465999999999
 30
0.0
 11
116.54470000000001
 21
117.34699999999999
 31
0.0
  0
LINE
  5
806
  8
LAYER_2
 62
     7
 10
116.41930000000001
 20
116.3465999999999
 30
0.0
 11
116.54470000000001
 21
116.47199999999999
 31
0.0
  0
LINE
  5
807
  8
LAYER_2
 62
     7
 10
115.9473
 20
116.3465999999999
 30
0.0
 11
116.54470000000001
 21
116.9439
 31
0.0
  0
LINE
  5
808
  8
LAYER_2
 62
     7
 10
115.4753
 20
116.3465999999999
 30
0.0
 11
116.4765
 21
117.34699999999999
 31
0.0
  0
LINE
  5
809
  8
LAYER_2
 62
     7
 10
115.4106
 20
117.34699999999999
 30
0.0
 11
115.4106
 21
118.6816
 31
0.0
  0
LINE
  5
80A
  8
LAYER_2
 62
     7
 10
116.82859999999999
 20
117.34699999999999
 30
0.0
 11
117.3288
 21
116.8468
 31
0.0
  0
LINE
  5
80B
  8
LAYER_2
 62
     7
 10
115.91630000000001
 20
117.34699999999999
 30
0.0
 11
117.2509
 21
118.6816
 31
0.0
  0
LINE
  5
80C
  8
LAYER_2
 62
     7
 10
115.4443
 20
117.34699999999999
 30
0.0
 11
116.77889999999999
 21
118.6816
 31
0.0
  0
LINE
  5
80D
  8
LAYER_2
 62
     7
 10
115.4106
 20
117.7852
 30
0.0
 11
116.307
 21
118.6816
 31
0.0
  0
LINE
  5
80E
  8
LAYER_2
 62
     7
 10
115.4106
 20
118.2572
 30
0.0
 11
115.83499999999999
 21
118.6816
 31
0.0
  0
LINE
  5
80F
  8
LAYER_2
 62
     7
 10
116.46129999999999
 20
116.3465999999999
 30
0.0
 11
116.46129999999999
 21
115.4122
 31
0.0
  0
LINE
  5
810
  8
LAYER_2
 62
     7
 10
116.2842
 20
115.4122
 30
0.0
 11
116.5509
 21
115.4122
 31
0.0
  0
LINE
  5
811
  8
LAYER_2
 62
     7
 10
115.5766
 20
116.3465999999999
 30
0.0
 11
116.46129999999999
 21
115.4619
 31
0.0
  0
LINE
  5
812
  8
LAYER_2
 62
     7
 10
115.8129
 20
116.3465999999999
 30
0.0
 11
116.46129999999999
 21
115.6982
 31
0.0
  0
LINE
  5
813
  8
LAYER_2
 62
     7
 10
116.04859999999999
 20
116.3465999999999
 30
0.0
 11
116.46129999999999
 21
115.93379999999991
 31
0.0
  0
LINE
  5
814
  8
LAYER_2
 62
     7
 10
116.28489999999999
 20
116.3465999999999
 30
0.0
 11
116.46129999999999
 21
116.1694999999999
 31
0.0
  0
ARC
  5
815
  8
LAYER_2
 62
     7
 10
113.59229999999999
 20
114.7453
 30
0.0
 40
0.6669000000000001
 50
0.0040510674907894
 51
90.004539639999521
  0
LINE
  5
816
  8
LAYER_2
 62
     7
 10
113.59220000000001
 20
115.4122
 30
0.0
 11
113.4586
 21
115.4122
 31
0.0
  0
LINE
  5
817
  8
LAYER_2
 62
     7
 10
114.25920000000001
 20
114.1872
 30
0.0
 11
115.2741
 21
115.20140000000001
 31
0.0
  0
LINE
  5
818
  8
LAYER_2
 62
     7
 10
114.25920000000001
 20
114.6585
 30
0.0
 11
115.2824
 21
115.6816
 31
0.0
  0
LINE
  5
819
  8
LAYER_2
 62
     7
 10
114.1827
 20
115.054
 30
0.0
 11
115.2907
 21
116.16119999999999
 31
0.0
  0
LINE
  5
81A
  8
LAYER_2
 62
     7
 10
113.59220000000001
 20
117.34699999999999
 30
0.0
 11
116.54470000000001
 21
117.34699999999999
 31
0.0
  0
LINE
  5
81B
  8
LAYER_2
 62
     7
 10
115.29340000000001
 20
116.3465999999999
 30
0.0
 11
116.54470000000001
 21
116.3465999999999
 31
0.0
  0
LINE
  5
81C
  8
LAYER_2
 62
     7
 10
113.9588
 20
115.30199999999989
 30
0.0
 11
116.00449999999999
 21
117.34699999999999
 31
0.0
  0
LINE
  5
81D
  8
LAYER_2
 62
     7
 10
113.5971
 20
115.4122
 30
0.0
 11
115.5325
 21
117.34699999999999
 31
0.0
  0
LINE
  5
81E
  8
LAYER_2
 62
     7
 10
113.59220000000001
 20
117.34699999999999
 30
0.0
 11
116.82859999999999
 21
117.34699999999999
 31
0.0
  0
LINE
  5
81F
  8
LAYER_2
 62
     7
 10
115.29340000000001
 20
114.2705
 30
0.0
 11
115.55459999999999
 21
114.0093999999999
 31
0.0
  0
LINE
  5
820
  8
LAYER_2
 62
     7
 10
115.29340000000001
 20
114.5069
 30
0.0
 11
115.6352
 21
114.1651
 31
0.0
  0
LINE
  5
821
  8
LAYER_2
 62
     7
 10
115.29340000000001
 20
114.74250000000001
 30
0.0
 11
115.7158
 21
114.3200999999999
 31
0.0
  0
LINE
  5
822
  8
LAYER_2
 62
     7
 10
115.29340000000001
 20
114.9782
 30
0.0
 11
115.79640000000001
 21
114.4751999999999
 31
0.0
  0
LINE
  5
823
  8
LAYER_2
 62
     7
 10
115.29340000000001
 20
115.2145
 30
0.0
 11
115.8777
 21
114.6302
 31
0.0
  0
LINE
  5
824
  8
LAYER_2
 62
     7
 10
115.29340000000001
 20
115.45009999999991
 30
0.0
 11
115.95829999999999
 21
114.7852
 31
0.0
  0
LINE
  5
825
  8
LAYER_2
 62
     7
 10
115.29340000000001
 20
115.6857999999999
 30
0.0
 11
116.0389
 21
114.941
 31
0.0
  0
LINE
  5
826
  8
LAYER_2
 62
     7
 10
115.29340000000001
 20
115.9221
 30
0.0
 11
116.11960000000001
 21
115.096
 31
0.0
  0
LINE
  5
827
  8
LAYER_2
 62
     7
 10
115.29340000000001
 20
116.15779999999999
 30
0.0
 11
116.2002
 21
115.251
 31
0.0
  0
LINE
  5
828
  8
LAYER_2
 62
     7
 10
115.34099999999999
 20
116.3465999999999
 30
0.0
 11
116.2808
 21
115.40600000000001
 31
0.0
  0
LINE
  5
829
  8
LAYER_2
 62
     7
 10
113.759
 20
117.34699999999999
 30
0.0
 11
113.759
 21
122.4464
 31
0.0
  0
LINE
  5
82A
  8
LAYER_2
 62
     7
 10
115.4106
 20
118.6816
 30
0.0
 11
117.89579999999999
 21
118.6816
 31
0.0
  0
LINE
  5
82B
  8
LAYER_2
 62
     7
 10
117.3288
 20
114.0417999999999
 30
0.0
 11
118.5635
 21
115.2765
 31
0.0
  0
LINE
  5
82C
  8
LAYER_2
 62
     7
 10
117.3288
 20
114.5138
 30
0.0
 11
118.5635
 21
115.7478
 31
0.0
  0
LINE
  5
82D
  8
LAYER_2
 62
     7
 10
117.3288
 20
114.9851
 30
0.0
 11
118.5635
 21
116.21979999999991
 31
0.0
  0
LINE
  5
82E
  8
LAYER_2
 62
     7
 10
117.3288
 20
115.45699999999999
 30
0.0
 11
118.5635
 21
116.6918
 31
0.0
  0
LINE
  5
82F
  8
LAYER_2
 62
     7
 10
117.3288
 20
115.929
 30
0.0
 11
118.5635
 21
117.163
 31
0.0
  0
LINE
  5
830
  8
LAYER_2
 62
     7
 10
117.3288
 20
116.401
 30
0.0
 11
118.5635
 21
117.63500000000001
 31
0.0
  0
LINE
  5
831
  8
LAYER_2
 62
     7
 10
117.31570000000001
 20
116.8599
 30
0.0
 11
118.5566
 21
118.10080000000001
 31
0.0
  0
LINE
  5
832
  8
LAYER_2
 62
     7
 10
117.08
 20
117.0955
 30
0.0
 11
118.4161
 21
118.4314999999999
 31
0.0
  0
LINE
  5
833
  8
LAYER_2
 62
     7
 10
116.84439999999999
 20
117.3311999999999
 30
0.0
 11
118.146
 21
118.6327
 31
0.0
  0
LINE
  5
834
  8
LAYER_2
 62
     7
 10
116.3883
 20
117.34699999999999
 30
0.0
 11
117.7222
 21
118.6816
 31
0.0
  0
LINE
  5
835
  8
LAYER_2
 62
     7
 10
113.759
 20
118.6816
 30
0.0
 11
117.89579999999999
 21
118.6816
 31
0.0
  0
LINE
  5
836
  8
LAYER_2
 62
     7
 10
118.3272
 20
108.90649999999999
 30
0.0
 11
118.5635
 21
109.1429
 31
0.0
  0
LINE
  5
837
  8
LAYER_2
 62
     7
 10
117.8552
 20
108.90649999999999
 30
0.0
 11
118.5635
 21
109.61409999999999
 31
0.0
  0
ARC
  5
838
  8
LAYER_2
 62
     7
 10
117.8524
 20
105.0700999999999
 30
0.0
 40
0.667
 50
269.99693699999989
 51
0.0030629742415863
  0
LINE
  5
839
  8
LAYER_2
 62
     7
 10
118.5194
 20
105.0700999999999
 30
0.0
 11
118.5194
 21
107.7393
 31
0.0
  0
LINE
  5
83A
  8
LAYER_2
 62
     7
 10
118.117
 20
104.45820000000001
 30
0.0
 11
118.4636
 21
104.8048
 31
0.0
  0
LINE
  5
83B
  8
LAYER_2
 62
     7
 10
117.5899
 20
104.40309999999999
 30
0.0
 11
118.5194
 21
105.33189999999991
 31
0.0
  0
LINE
  5
83C
  8
LAYER_2
 62
     7
 10
115.38639999999999
 20
111.6357
 30
0.0
 11
116.5509
 21
112.8001999999999
 31
0.0
  0
LINE
  5
83D
  8
LAYER_2
 62
     7
 10
115.3933
 20
112.1139
 30
0.0
 11
116.5509
 21
113.2720999999999
 31
0.0
  0
LINE
  5
83E
  8
LAYER_2
 62
     7
 10
115.4002
 20
112.5928
 30
0.0
 11
116.5509
 21
113.7441
 31
0.0
  0
ARC
  5
83F
  8
LAYER_2
 62
     7
 10
114.8703
 20
111.7546
 30
0.0
 40
0.3458
 50
271.96237629999962
 51
357.08488140000088
  0
LINE
  5
840
  8
LAYER_2
 62
     7
 10
114.7842
 20
111.40900000000001
 30
0.0
 11
115.2176
 21
111.8424
 31
0.0
  0
LINE
  5
841
  8
LAYER_2
 62
     7
 10
114.31229999999999
 20
111.40900000000001
 30
0.0
 11
115.2252
 21
112.322
 31
0.0
  0
LINE
  5
842
  8
LAYER_2
 62
     7
 10
114.25920000000001
 20
111.828
 30
0.0
 11
115.23350000000001
 21
112.8022
 31
0.0
  0
LINE
  5
843
  8
LAYER_2
 62
     7
 10
114.25920000000001
 20
112.29989999999999
 30
0.0
 11
115.24169999999999
 21
113.2824999999999
 31
0.0
  0
LINE
  5
844
  8
LAYER_2
 62
     7
 10
114.25920000000001
 20
112.7719
 30
0.0
 11
115.25
 21
113.762
 31
0.0
  0
LINE
  5
845
  8
LAYER_2
 62
     7
 10
115.3389
 20
108.285
 30
0.0
 11
116.5509
 21
109.49769999999999
 31
0.0
  0
LINE
  5
846
  8
LAYER_2
 62
     7
 10
115.3458
 20
108.76390000000001
 30
0.0
 11
116.5509
 21
109.96899999999999
 31
0.0
  0
LINE
  5
847
  8
LAYER_2
 62
     7
 10
115.352
 20
109.24209999999999
 30
0.0
 11
116.5509
 21
110.441
 31
0.0
  0
LINE
  5
848
  8
LAYER_2
 62
     7
 10
115.35890000000001
 20
109.7209
 30
0.0
 11
116.5509
 21
110.91289999999999
 31
0.0
  0
LINE
  5
849
  8
LAYER_2
 62
     7
 10
115.36579999999999
 20
110.1998
 30
0.0
 11
116.5509
 21
111.3849
 31
0.0
  0
LINE
  5
84A
  8
LAYER_2
 62
     7
 10
115.37269999999999
 20
110.678
 30
0.0
 11
116.5509
 21
111.8562
 31
0.0
  0
LINE
  5
84B
  8
LAYER_2
 62
     7
 10
115.37949999999999
 20
111.15689999999999
 30
0.0
 11
116.5509
 21
112.3282
 31
0.0
  0
LINE
  5
84C
  8
LAYER_2
 62
     7
 10
115.29340000000001
 20
112.6768
 30
0.0
 11
115.4023
 21
112.7499
 31
0.0
  0
LINE
  5
84D
  8
LAYER_2
 62
     7
 10
115.4023
 20
112.7499
 30
0.0
 11
115.29340000000001
 21
112.6768
 31
0.0
  0
LINE
  5
84E
  8
LAYER_2
 62
     7
 10
115.29340000000001
 20
112.8553
 30
0.0
 11
115.4002
 21
112.74850000000001
 31
0.0
  0
LINE
  5
84F
  8
LAYER_2
 62
     7
 10
115.29340000000001
 20
113.0909
 30
0.0
 11
115.4057
 21
112.97929999999999
 31
0.0
  0
LINE
  5
850
  8
LAYER_2
 62
     7
 10
115.29340000000001
 20
113.32729999999999
 30
0.0
 11
115.4092
 21
113.2115
 31
0.0
  0
LINE
  5
851
  8
LAYER_2
 62
     7
 10
115.29340000000001
 20
113.5629
 30
0.0
 11
115.4119
 21
113.4444
 31
0.0
  0
LINE
  5
852
  8
LAYER_2
 62
     7
 10
115.29340000000001
 20
113.7992
 30
0.0
 11
115.41540000000001
 21
113.67659999999999
 31
0.0
  0
ARC
  5
853
  8
LAYER_2
 62
     7
 10
117.0598
 20
103.711
 30
0.0
 40
0.6926000000000001
 50
92.082176260000594
 51
177.97792269999979
  0
ARC
  5
854
  8
LAYER_2
 62
     7
 10
117.1794
 20
104.2296
 30
0.0
 40
0.1737
 50
2.4510156249991022
 51
87.755579500002099
  0
LINE
  5
855
  8
LAYER_2
 62
     7
 10
116.3511
 20
104.40309999999999
 30
0.0
 11
117.1862
 21
104.40309999999999
 31
0.0
  0
LINE
  5
856
  8
LAYER_2
 62
     7
 10
116.3676
 20
102.2526999999999
 30
0.0
 11
117.3612
 21
103.2462
 31
0.0
  0
LINE
  5
857
  8
LAYER_2
 62
     7
 10
116.3676
 20
102.7246
 30
0.0
 11
117.35769999999999
 21
103.7141
 31
0.0
  0
LINE
  5
858
  8
LAYER_2
 62
     7
 10
116.3676
 20
103.1966
 30
0.0
 11
117.3536
 21
104.18259999999999
 31
0.0
  0
LINE
  5
859
  8
LAYER_2
 62
     7
 10
116.3676
 20
103.6679
 30
0.0
 11
117.10209999999999
 21
104.40309999999999
 31
0.0
  0
LINE
  5
85A
  8
LAYER_2
 62
     7
 10
115.3189
 20
102.6041
 30
0.0
 11
116.3449
 21
103.6293
 31
0.0
  0
LINE
  5
85B
  8
LAYER_2
 62
     7
 10
115.31
 20
103.0664
 30
0.0
 11
116.34829999999999
 21
104.1048
 31
0.0
  0
LINE
  5
85C
  8
LAYER_2
 62
     7
 10
115.3044
 20
105.8914
 30
0.0
 11
117.15170000000001
 21
107.7393
 31
0.0
  0
LINE
  5
85D
  8
LAYER_2
 62
     7
 10
115.3113
 20
106.3702
 30
0.0
 11
116.6797
 21
107.7393
 31
0.0
  0
LINE
  5
85E
  8
LAYER_2
 62
     7
 10
115.41679999999999
 20
113.7441
 30
0.0
 11
115.2831
 21
104.40309999999999
 31
0.0
  0
LINE
  5
85F
  8
LAYER_2
 62
     7
 10
115.3182
 20
106.84909999999989
 30
0.0
 11
116.5509
 21
108.0818
 31
0.0
  0
LINE
  5
860
  8
LAYER_2
 62
     7
 10
115.32510000000001
 20
107.328
 30
0.0
 11
116.5509
 21
108.55370000000001
 31
0.0
  0
LINE
  5
861
  8
LAYER_2
 62
     7
 10
115.33199999999999
 20
107.8062
 30
0.0
 11
116.5509
 21
109.0257
 31
0.0
  0
LINE
  5
862
  8
LAYER_2
 62
     7
 10
116.5509
 20
107.7393
 30
0.0
 11
118.5194
 21
107.7393
 31
0.0
  0
LINE
  5
863
  8
LAYER_2
 62
     7
 10
116.3511
 20
104.40309999999999
 30
0.0
 11
117.8524
 21
104.40309999999999
 31
0.0
  0
LINE
  5
864
  8
LAYER_2
 62
     7
 10
117.11790000000001
 20
104.40309999999999
 30
0.0
 11
118.5194
 21
105.8039
 31
0.0
  0
LINE
  5
865
  8
LAYER_2
 62
     7
 10
116.6467
 20
104.40309999999999
 30
0.0
 11
118.5194
 21
106.27589999999999
 31
0.0
  0
LINE
  5
866
  8
LAYER_2
 62
     7
 10
115.301
 20
103.5287
 30
0.0
 11
118.5194
 21
106.7478
 31
0.0
  0
LINE
  5
867
  8
LAYER_2
 62
     7
 10
115.2914
 20
103.9918
 30
0.0
 11
118.5194
 21
107.2190999999999
 31
0.0
  0
LINE
  5
868
  8
LAYER_2
 62
     7
 10
115.2838
 20
104.4555
 30
0.0
 11
118.5194
 21
107.69110000000001
 31
0.0
  0
LINE
  5
869
  8
LAYER_2
 62
     7
 10
115.2907
 20
104.93429999999999
 30
0.0
 11
118.09569999999999
 21
107.7393
 31
0.0
  0
LINE
  5
86A
  8
LAYER_2
 62
     7
 10
115.2976
 20
105.4132
 30
0.0
 11
117.6237
 21
107.7393
 31
0.0
  0
LINE
  5
86B
  8
LAYER_2
 62
     7
 10
117.3839
 20
108.90649999999999
 30
0.0
 11
118.5635
 21
110.0861
 31
0.0
  0
LINE
  5
86C
  8
LAYER_2
 62
     7
 10
117.3288
 20
109.32340000000001
 30
0.0
 11
118.5635
 21
110.5580999999999
 31
0.0
  0
LINE
  5
86D
  8
LAYER_2
 62
     7
 10
117.3288
 20
109.7954
 30
0.0
 11
118.5635
 21
111.0300999999999
 31
0.0
  0
LINE
  5
86E
  8
LAYER_2
 62
     7
 10
117.3288
 20
110.26730000000001
 30
0.0
 11
118.5635
 21
111.5014
 31
0.0
  0
LINE
  5
86F
  8
LAYER_2
 62
     7
 10
117.3288
 20
110.7393
 30
0.0
 11
118.5635
 21
111.97329999999999
 31
0.0
  0
LINE
  5
870
  8
LAYER_2
 62
     7
 10
117.3288
 20
111.21129999999999
 30
0.0
 11
118.5635
 21
112.4453
 31
0.0
  0
LINE
  5
871
  8
LAYER_2
 62
     7
 10
117.3288
 20
111.68259999999999
 30
0.0
 11
118.5635
 21
112.9173
 31
0.0
  0
LINE
  5
872
  8
LAYER_2
 62
     7
 10
117.3288
 20
112.1546
 30
0.0
 11
118.5635
 21
113.38930000000001
 31
0.0
  0
LINE
  5
873
  8
LAYER_2
 62
     7
 10
117.3288
 20
112.62649999999989
 30
0.0
 11
118.5635
 21
113.86060000000001
 31
0.0
  0
LINE
  5
874
  8
LAYER_2
 62
     7
 10
117.3288
 20
108.90649999999999
 30
0.0
 11
118.5635
 21
108.90649999999999
 31
0.0
  0
LINE
  5
875
  8
LAYER_2
 62
     7
 10
117.11790000000001
 20
107.7393
 30
0.0
 11
117.11790000000001
 21
114.7453
 31
0.0
  0
LINE
  5
876
  8
LAYER_2
 62
     7
 10
116.2842
 20
115.4122
 30
0.0
 11
115.41679999999999
 21
113.7441
 31
0.0
  0
LINE
  5
877
  8
LAYER_2
 62
     7
 10
116.5509
 20
107.7393
 30
0.0
 11
116.5509
 21
115.24550000000001
 31
0.0
  0
LINE
  5
878
  8
LAYER_2
 62
     7
 10
115.4071
 20
113.0716
 30
0.0
 11
116.5509
 21
114.2154
 31
0.0
  0
LINE
  5
879
  8
LAYER_2
 62
     7
 10
115.414
 20
113.5505
 30
0.0
 11
116.5509
 21
114.6873999999999
 31
0.0
  0
LINE
  5
87A
  8
LAYER_2
 62
     7
 10
115.29340000000001
 20
116.3465999999999
 30
0.0
 11
115.21559999999999
 21
111.7369999999999
 31
0.0
  0
LINE
  5
87B
  8
LAYER_2
 62
     7
 10
114.25920000000001
 20
111.40900000000001
 30
0.0
 11
114.25920000000001
 21
114.7453
 31
0.0
  0
LINE
  5
87C
  8
LAYER_2
 62
     7
 10
114.25920000000001
 20
113.2432
 30
0.0
 11
115.2576
 21
114.2423
 31
0.0
  0
LINE
  5
87D
  8
LAYER_2
 62
     7
 10
114.25920000000001
 20
113.7152
 30
0.0
 11
115.26649999999999
 21
114.7218
 31
0.0
  0
LINE
  5
87E
  8
LAYER_2
 62
     7
 10
115.29340000000001
 20
116.3465999999999
 30
0.0
 11
115.29340000000001
 21
112.6768
 31
0.0
  0
LINE
  5
87F
  8
LAYER_2
 62
     7
 10
118.5635
 20
108.90649999999999
 30
0.0
 11
118.5635
 21
118.0147
 31
0.0
  0
LINE
  5
880
  8
LAYER_2
 62
     7
 10
117.3288
 20
108.90649999999999
 30
0.0
 11
117.3288
 21
116.8468
 31
0.0
  0
LINE
  5
881
  8
LAYER_2
 62
     7
 10
117.3288
 20
113.09780000000001
 30
0.0
 11
118.5635
 21
114.3326
 31
0.0
  0
LINE
  5
882
  8
LAYER_2
 62
     7
 10
117.3288
 20
113.5698
 30
0.0
 11
118.5635
 21
114.8044999999999
 31
0.0
  0
LINE
  5
883
  8
LAYER_2
 62
     7
 10
115.29340000000001
 20
114.03489999999999
 30
0.0
 11
115.4739
 21
113.8544
 31
0.0
  0
LINE
  5
884
  8
LAYER_2
 62
     7
 10
107.28699999999991
 20
115.4122
 30
0.0
 11
113.59220000000001
 21
115.4122
 31
0.0
  0
ARC
  5
885
  8
LAYER_2
 62
     7
 10
113.4586
 20
115.91249999999989
 30
0.0
 40
0.5003000000000001
 50
179.9962395000004
 51
270.00376049999949
  0
LINE
  5
886
  8
LAYER_2
 62
     7
 10
113.1995
 20
115.4853
 30
0.0
 11
115.0605
 21
117.34699999999999
 31
0.0
  0
LINE
  5
887
  8
LAYER_2
 62
     7
 10
112.988
 20
115.7457
 30
0.0
 11
114.5886
 21
117.34699999999999
 31
0.0
  0
LINE
  5
888
  8
LAYER_2
 62
     7
 10
112.95829999999999
 20
116.18809999999991
 30
0.0
 11
114.1173
 21
117.34699999999999
 31
0.0
  0
LINE
  5
889
  8
LAYER_2
 62
     7
 10
112.95829999999999
 20
116.6601
 30
0.0
 11
113.64530000000001
 21
117.34699999999999
 31
0.0
  0
LINE
  5
88A
  8
LAYER_2
 62
     7
 10
112.95829999999999
 20
117.13200000000001
 30
0.0
 11
113.59220000000001
 21
117.7659
 31
0.0
  0
LINE
  5
88B
  8
LAYER_2
 62
     7
 10
112.95829999999999
 20
117.604
 30
0.0
 11
113.59220000000001
 21
118.2379
 31
0.0
  0
LINE
  5
88C
  8
LAYER_2
 62
     7
 10
112.95829999999999
 20
118.07599999999999
 30
0.0
 11
113.59220000000001
 21
118.7092
 31
0.0
  0
LINE
  5
88D
  8
LAYER_2
 62
     7
 10
112.95829999999999
 20
118.54729999999989
 30
0.0
 11
113.59220000000001
 21
119.1812
 31
0.0
  0
LINE
  5
88E
  8
LAYER_2
 62
     7
 10
112.95829999999999
 20
119.0193
 30
0.0
 11
113.59220000000001
 21
119.6531999999999
 31
0.0
  0
LINE
  5
88F
  8
LAYER_2
 62
     7
 10
112.95829999999999
 20
119.49120000000001
 30
0.0
 11
113.59220000000001
 21
120.1251
 31
0.0
  0
LINE
  5
890
  8
LAYER_2
 62
     7
 10
112.95829999999999
 20
119.96250000000001
 30
0.0
 11
113.59220000000001
 21
120.5971
 31
0.0
  0
LINE
  5
891
  8
LAYER_2
 62
     7
 10
112.95829999999999
 20
120.4345
 30
0.0
 11
113.59220000000001
 21
121.0684
 31
0.0
  0
LINE
  5
892
  8
LAYER_2
 62
     7
 10
112.95829999999999
 20
120.90649999999999
 30
0.0
 11
113.59220000000001
 21
121.54040000000001
 31
0.0
  0
LINE
  5
893
  8
LAYER_2
 62
     7
 10
112.95829999999999
 20
121.3785
 30
0.0
 11
113.59220000000001
 21
122.0124
 31
0.0
  0
LINE
  5
894
  8
LAYER_2
 62
     7
 10
112.95829999999999
 20
121.85039999999999
 30
0.0
 11
113.59220000000001
 21
122.48429999999991
 31
0.0
  0
LINE
  5
895
  8
LAYER_2
 62
     7
 10
112.95829999999999
 20
122.32169999999989
 30
0.0
 11
113.59220000000001
 21
122.9556
 31
0.0
  0
LINE
  5
896
  8
LAYER_2
 62
     7
 10
112.95829999999999
 20
122.7937
 30
0.0
 11
113.59220000000001
 21
123.4276
 31
0.0
  0
LINE
  5
897
  8
LAYER_2
 62
     7
 10
112.95829999999999
 20
123.2657
 30
0.0
 11
113.59220000000001
 21
123.89959999999989
 31
0.0
  0
LINE
  5
898
  8
LAYER_2
 62
     7
 10
112.95829999999999
 20
123.7377
 30
0.0
 11
113.59220000000001
 21
124.3716
 31
0.0
  0
LINE
  5
899
  8
LAYER_2
 62
     7
 10
112.95829999999999
 20
124.209
 30
0.0
 11
113.59220000000001
 21
124.84350000000001
 31
0.0
  0
LINE
  5
89A
  8
LAYER_2
 62
     7
 10
112.95829999999999
 20
124.68089999999999
 30
0.0
 11
113.59220000000001
 21
125.31480000000001
 31
0.0
  0
LINE
  5
89B
  8
LAYER_2
 62
     7
 10
107.28699999999991
 20
111.40900000000001
 30
0.0
 11
114.88209999999999
 21
111.40900000000001
 31
0.0
  0
LINE
  5
89C
  8
LAYER_2
 62
     7
 10
113.59220000000001
 20
117.34699999999999
 30
0.0
 11
113.59220000000001
 21
126.92229999999989
 31
0.0
  0
LINE
  5
89D
  8
LAYER_2
 62
     7
 10
112.95829999999999
 20
115.91249999999989
 30
0.0
 11
112.95829999999999
 21
127.25579999999989
 31
0.0
  0
LINE
  5
89E
  8
LAYER_2
 62
     7
 10
112.95829999999999
 20
125.1529
 30
0.0
 11
113.59220000000001
 21
125.7867999999999
 31
0.0
  0
LINE
  5
89F
  8
LAYER_2
 62
     7
 10
113.759
 20
123.1169
 30
0.0
 11
113.759
 21
125.78270000000001
 31
0.0
  0
LINE
  5
8A0
  8
LAYER_2
 62
     7
 10
117.7491
 20
96.396000000000015
 30
0.0
 11
117.7856
 21
96.396000000000015
 31
0.0
  0
LINE
  5
8A1
  8
LAYER_2
 62
     7
 10
117.7491
 20
96.396000000000015
 30
0.0
 11
117.7856
 21
96.396000000000015
 31
0.0
  0
ARC
  5
8A2
  8
LAYER_2
 62
     7
 10
117.7856
 20
95.895800000000008
 30
0.0
 40
0.5002
 50
0.0011186385856757
 51
89.998881350000303
  0
LINE
  5
8A3
  8
LAYER_2
 62
     7
 10
115.4395
 20
96.590300000000013
 30
0.0
 11
116.2953
 21
97.44610000000003
 31
0.0
  0
LINE
  5
8A4
  8
LAYER_2
 62
     7
 10
115.4298
 20
97.053300000000007
 30
0.0
 11
116.2987
 21
97.922200000000004
 31
0.0
  0
LINE
  5
8A5
  8
LAYER_2
 62
     7
 10
115.4209
 20
97.515699999999995
 30
0.0
 11
116.3028
 21
98.397600000000011
 31
0.0
  0
LINE
  5
8A6
  8
LAYER_2
 62
     7
 10
115.41119999999999
 20
97.978000000000023
 30
0.0
 11
116.30629999999999
 21
98.873000000000033
 31
0.0
  0
LINE
  5
8A7
  8
LAYER_2
 62
     7
 10
115.4023
 20
98.441000000000003
 30
0.0
 11
116.3104
 21
99.348500000000044
 31
0.0
  0
LINE
  5
8A8
  8
LAYER_2
 62
     7
 10
115.3933
 20
98.903300000000044
 30
0.0
 11
116.3139
 21
99.824600000000004
 31
0.0
  0
LINE
  5
8A9
  8
LAYER_2
 62
     7
 10
116.3676
 20
96.591000000000022
 30
0.0
 11
117.408
 21
97.631400000000014
 31
0.0
  0
LINE
  5
8AA
  8
LAYER_2
 62
     7
 10
116.3676
 20
97.063000000000017
 30
0.0
 11
117.4046
 21
98.099900000000019
 31
0.0
  0
LINE
  5
8AB
  8
LAYER_2
 62
     7
 10
116.3676
 20
97.534300000000016
 30
0.0
 11
117.4004
 21
98.567800000000005
 31
0.0
  0
LINE
  5
8AC
  8
LAYER_2
 62
     7
 10
116.3676
 20
98.006200000000021
 30
0.0
 11
117.3963
 21
99.034900000000036
 31
0.0
  0
LINE
  5
8AD
  8
LAYER_2
 62
     7
 10
116.3676
 20
98.478200000000015
 30
0.0
 11
117.3929
 21
99.503500000000003
 31
0.0
  0
LINE
  5
8AE
  8
LAYER_2
 62
     7
 10
116.3676
 20
98.950200000000024
 30
0.0
 11
117.3887
 21
99.971300000000014
 31
0.0
  0
LINE
  5
8AF
  8
LAYER_2
 62
     7
 10
116.3676
 20
99.421500000000009
 30
0.0
 11
117.38460000000001
 21
100.4391999999999
 31
0.0
  0
LINE
  5
8B0
  8
LAYER_2
 62
     7
 10
116.3676
 20
99.893500000000003
 30
0.0
 11
117.3811
 21
100.907
 31
0.0
  0
LINE
  5
8B1
  8
LAYER_2
 62
     7
 10
116.3676
 20
100.36539999999999
 30
0.0
 11
117.377
 21
101.3749
 31
0.0
  0
LINE
  5
8B2
  8
LAYER_2
 62
     7
 10
116.3676
 20
100.8374
 30
0.0
 11
117.3729
 21
101.84269999999999
 31
0.0
  0
LINE
  5
8B3
  8
LAYER_2
 62
     7
 10
115.3837
 20
99.365700000000032
 30
0.0
 11
116.318
 21
100.3
 31
0.0
  0
LINE
  5
8B4
  8
LAYER_2
 62
     7
 10
115.3747
 20
99.828699999999998
 30
0.0
 11
116.3214
 21
100.7754
 31
0.0
  0
LINE
  5
8B5
  8
LAYER_2
 62
     7
 10
115.3651
 20
100.291
 30
0.0
 11
116.32559999999999
 21
101.2507999999999
 31
0.0
  0
LINE
  5
8B6
  8
LAYER_2
 62
     7
 10
115.3561
 20
100.7534
 30
0.0
 11
116.32899999999999
 21
101.7269
 31
0.0
  0
LINE
  5
8B7
  8
LAYER_2
 62
     7
 10
115.3472
 20
101.21639999999989
 30
0.0
 11
116.33320000000001
 21
102.2024
 31
0.0
  0
ARC
  5
8B8
  8
LAYER_2
 62
     7
 10
115.9539
 20
96.39560000000003
 30
0.0
 40
0.3331
 50
269.8092653000005
 51
359.58753609999928
  0
LINE
  5
8B9
  8
LAYER_2
 62
     7
 10
115.9528
 20
96.062500000000014
 30
0.0
 11
115.7771
 21
96.062500000000014
 31
0.0
  0
LINE
  5
8BA
  8
LAYER_2
 62
     7
 10
117.0346
 20
95.728300000000004
 30
0.0
 11
116.9188
 21
95.738700000000023
 31
0.0
  0
LINE
  5
8BB
  8
LAYER_2
 62
     7
 10
116.9188
 20
95.738700000000023
 30
0.0
 11
116.8065
 21
95.769000000000005
 31
0.0
  0
LINE
  5
8BC
  8
LAYER_2
 62
     7
 10
116.8065
 20
95.769000000000005
 30
0.0
 11
116.7011
 21
95.817900000000009
 31
0.0
  0
LINE
  5
8BD
  8
LAYER_2
 62
     7
 10
116.7011
 20
95.817900000000009
 30
0.0
 11
116.60599999999999
 21
95.884800000000027
 31
0.0
  0
LINE
  5
8BE
  8
LAYER_2
 62
     7
 10
116.60599999999999
 20
95.884800000000027
 30
0.0
 11
116.52330000000001
 21
95.966700000000031
 31
0.0
  0
LINE
  5
8BF
  8
LAYER_2
 62
     7
 10
116.52330000000001
 20
95.966700000000031
 30
0.0
 11
116.4572
 21
96.062500000000014
 31
0.0
  0
LINE
  5
8C0
  8
LAYER_2
 62
     7
 10
116.4572
 20
96.062500000000014
 30
0.0
 11
116.4076
 21
96.167300000000026
 31
0.0
  0
LINE
  5
8C1
  8
LAYER_2
 62
     7
 10
116.4076
 20
96.167300000000026
 30
0.0
 11
116.3779
 21
96.280300000000025
 31
0.0
  0
LINE
  5
8C2
  8
LAYER_2
 62
     7
 10
116.3779
 20
96.280300000000025
 30
0.0
 11
116.3676
 21
96.396000000000015
 31
0.0
  0
ARC
  5
8C3
  8
LAYER_2
 62
     7
 10
115.7885
 20
96.407700000000006
 30
0.0
 40
0.3454
 50
183.0879928999988
 51
268.10978460000058
  0
LINE
  5
8C4
  8
LAYER_2
 62
     7
 10
115.855
 20
96.062500000000014
 30
0.0
 11
116.2877
 21
96.495200000000025
 31
0.0
  0
LINE
  5
8C5
  8
LAYER_2
 62
     7
 10
115.5132
 20
96.192100000000025
 30
0.0
 11
116.2911
 21
96.970600000000019
 31
0.0
  0
LINE
  5
8C6
  8
LAYER_2
 62
     7
 10
116.60599999999999
 20
95.885400000000033
 30
0.0
 11
117.4177
 21
96.69710000000002
 31
0.0
  0
LINE
  5
8C7
  8
LAYER_2
 62
     7
 10
116.41030000000001
 20
96.161700000000025
 30
0.0
 11
117.4122
 21
97.163600000000017
 31
0.0
  0
ARC
  5
8C8
  8
LAYER_2
 62
     7
 10
117.76139999999999
 20
96.74199999999999
 30
0.0
 40
0.3462
 50
182.5265772999999
 51
267.956491800001
  0
LINE
  5
8C9
  8
LAYER_2
 62
     7
 10
117.3763
 20
90.994100000000046
 30
0.0
 11
118.28579999999999
 21
91.903600000000012
 31
0.0
  0
LINE
  5
8CA
  8
LAYER_2
 62
     7
 10
117.3639
 20
91.454399999999978
 30
0.0
 11
118.28579999999999
 21
92.375600000000006
 31
0.0
  0
LINE
  5
8CB
  8
LAYER_2
 62
     7
 10
117.3522
 20
91.913900000000012
 30
0.0
 11
118.28579999999999
 21
92.847600000000028
 31
0.0
  0
LINE
  5
8CC
  8
LAYER_2
 62
     7
 10
117.3398
 20
92.373500000000007
 30
0.0
 11
118.28579999999999
 21
93.319500000000005
 31
0.0
  0
LINE
  5
8CD
  8
LAYER_2
 62
     7
 10
117.3274
 20
92.83310000000003
 30
0.0
 11
118.28579999999999
 21
93.790800000000004
 31
0.0
  0
LINE
  5
8CE
  8
LAYER_2
 62
     7
 10
117.31570000000001
 20
93.292699999999996
 30
0.0
 11
118.28579999999999
 21
94.262799999999999
 31
0.0
  0
LINE
  5
8CF
  8
LAYER_2
 62
     7
 10
117.30329999999989
 20
93.752200000000016
 30
0.0
 11
118.28579999999999
 21
94.734800000000007
 31
0.0
  0
LINE
  5
8D0
  8
LAYER_2
 62
     7
 10
117.2916
 20
94.211800000000011
 30
0.0
 11
118.28579999999999
 21
95.206800000000015
 31
0.0
  0
LINE
  5
8D1
  8
LAYER_2
 62
     7
 10
117.2792
 20
94.672100000000029
 30
0.0
 11
118.28579999999999
 21
95.678000000000026
 31
0.0
  0
LINE
  5
8D2
  8
LAYER_2
 62
     7
 10
117.2675
 20
95.131699999999995
 30
0.0
 11
118.2397
 21
96.103900000000024
 31
0.0
  0
LINE
  5
8D3
  8
LAYER_2
 62
     7
 10
117.2551
 20
95.591200000000015
 30
0.0
 11
118.00749999999999
 21
96.343599999999995
 31
0.0
  0
LINE
  5
8D4
  8
LAYER_2
 62
     7
 10
116.9298
 20
95.738000000000028
 30
0.0
 11
117.6161
 21
96.423599999999993
 31
0.0
  0
ARC
  5
8D5
  8
LAYER_2
 62
     7
 10
117.6189
 20
90.057000000000016
 30
0.0
 40
0.6669000000000001
 50
270.00296620000012
 51
359.99703379999983
  0
LINE
  5
8D6
  8
LAYER_2
 62
     7
 10
117.6609
 20
89.392099999999999
 30
0.0
 11
118.2838
 21
90.015000000000015
 31
0.0
  0
LINE
  5
8D7
  8
LAYER_2
 62
     7
 10
117.4128
 20
89.615399999999994
 30
0.0
 11
118.28579999999999
 21
90.488400000000013
 31
0.0
  0
LINE
  5
8D8
  8
LAYER_2
 62
     7
 10
118.28579999999999
 20
90.057000000000016
 30
0.0
 11
118.28579999999999
 21
95.895800000000008
 31
0.0
  0
LINE
  5
8D9
  8
LAYER_2
 62
     7
 10
117.2516
 20
95.728300000000004
 30
0.0
 11
117.41840000000001
 21
89.390100000000004
 31
0.0
  0
LINE
  5
8DA
  8
LAYER_2
 62
     7
 10
118.28579999999999
 20
95.895800000000008
 30
0.0
 11
118.28579999999999
 21
90.057000000000016
 31
0.0
  0
LINE
  5
8DB
  8
LAYER_2
 62
     7
 10
117.4004
 20
90.074900000000014
 30
0.0
 11
118.28579999999999
 21
90.960300000000018
 31
0.0
  0
LINE
  5
8DC
  8
LAYER_2
 62
     7
 10
117.38800000000001
 20
90.534500000000008
 30
0.0
 11
118.28579999999999
 21
91.432300000000026
 31
0.0
  0
LINE
  5
8DD
  8
LAYER_2
 62
     7
 10
107.27670000000001
 20
96.062500000000014
 30
0.0
 11
115.9528
 21
96.062500000000014
 31
0.0
  0
LINE
  5
8DE
  8
LAYER_2
 62
     7
 10
107.27670000000001
 20
89.390100000000004
 30
0.0
 11
117.6189
 21
89.390100000000004
 31
0.0
  0
LINE
  5
8DF
  8
LAYER_2
 62
     7
 10
107.27670000000001
 20
95.728300000000004
 30
0.0
 11
117.2516
 21
95.728300000000004
 31
0.0
  0
LINE
  5
8E0
  8
LAYER_2
 62
     7
 10
116.28700000000001
 20
96.393200000000007
 30
0.0
 11
116.3511
 21
104.40309999999999
 31
0.0
  0
LINE
  5
8E1
  8
LAYER_2
 62
     7
 10
115.2831
 20
104.40309999999999
 30
0.0
 11
115.4436
 21
96.389100000000013
 31
0.0
  0
LINE
  5
8E2
  8
LAYER_2
 62
     7
 10
115.33750000000001
 20
101.67870000000001
 30
0.0
 11
116.3373
 21
102.6778
 31
0.0
  0
LINE
  5
8E3
  8
LAYER_2
 62
     7
 10
115.32859999999999
 20
102.14099999999991
 30
0.0
 11
116.3407
 21
103.15389999999989
 31
0.0
  0
LINE
  5
8E4
  8
LAYER_2
 62
     7
 10
116.3676
 20
96.396000000000015
 30
0.0
 11
116.3676
 21
103.7354
 31
0.0
  0
LINE
  5
8E5
  8
LAYER_2
 62
     7
 10
117.35290000000001
 20
104.23699999999999
 30
0.0
 11
117.4156
 21
96.726700000000037
 31
0.0
  0
LINE
  5
8E6
  8
LAYER_2
 62
     7
 10
116.3676
 20
96.396000000000015
 30
0.0
 11
116.3676
 21
103.7354
 31
0.0
  0
LINE
  5
8E7
  8
LAYER_2
 62
     7
 10
117.35290000000001
 20
104.23699999999999
 30
0.0
 11
117.4156
 21
96.726700000000037
 31
0.0
  0
LINE
  5
8E8
  8
LAYER_2
 62
     7
 10
116.3676
 20
101.3094
 30
0.0
 11
117.3694
 21
102.3105
 31
0.0
  0
LINE
  5
8E9
  8
LAYER_2
 62
     7
 10
116.3676
 20
101.7806999999999
 30
0.0
 11
117.3653
 21
102.7784
 31
0.0
  0
LINE
  5
8EB
  8
LAYER_2
 62
     7
 10
113.4586
 20
148.35290000000001
 30
0.0
 11
113.4586
 21
152.8237
 31
0.0
  0
LINE
  5
8EC
  8
LAYER_2
 62
     7
 10
106.4871
 20
148.95150000000001
 30
0.0
 11
108.0436
 21
148.60159999999999
 31
0.0
  0
LINE
  5
8ED
  8
LAYER_2
 62
     7
 10
114.6878
 20
148.63669999999999
 30
0.0
 11
116.2946
 21
149.10650000000001
 31
0.0
  0
LINE
  5
8EE
  8
LAYER_2
 62
     7
 10
92.941000000000003
 20
242.1876
 30
0.0
 11
92.941000000000003
 21
242.53749999999999
 31
0.0
  0
LINE
  5
8EF
  8
LAYER_2
 62
     7
 10
92.774200000000036
 20
242.1876
 30
0.0
 11
92.774200000000036
 21
242.89109999999999
 31
0.0
  0
LINE
  5
8F0
  8
LAYER_2
 62
     7
 10
92.107200000000077
 20
242.85489999999999
 30
0.0
 11
92.107200000000077
 21
243.94649999999999
 31
0.0
  0
LINE
  5
8F1
  8
LAYER_2
 62
     7
 10
88.771000000000029
 20
242.1876
 30
0.0
 11
88.771000000000029
 21
242.85489999999999
 31
0.0
  0
ARC
  5
8F2
  8
LAYER_2
 62
     7
 10
89.771900000000045
 20
243.02160000000001
 30
0.0
 40
0.5004999999999999
 50
0.0120287635890914
 51
90.010866639999676
  0
ARC
  5
8F3
  8
LAYER_2
 62
     7
 10
89.771700000000038
 20
243.02160000000001
 30
0.0
 40
0.5004999999999999
 50
89.990181840000204
 51
179.9869227000012
  0
LINE
  5
8F4
  8
LAYER_2
 62
     7
 10
90.272400000000033
 20
242.85489999999999
 30
0.0
 11
90.272400000000033
 21
243.02170000000001
 31
0.0
  0
LINE
  5
8F5
  8
LAYER_2
 62
     7
 10
89.27120000000005
 20
242.85489999999999
 30
0.0
 11
89.27120000000005
 21
243.02170000000001
 31
0.0
  0
LINE
  5
8F6
  8
LAYER_2
 62
     7
 10
89.27120000000005
 20
242.85489999999999
 30
0.0
 11
88.771000000000029
 21
242.85489999999999
 31
0.0
  0
ARC
  5
8F7
  8
LAYER_2
 62
     7
 10
86.585000000000008
 20
239.58569999999989
 30
0.0
 40
7.0382999999999987
 50
33.629345300000068
 51
59.460911360000097
  0
LINE
  5
8F8
  8
LAYER_2
 62
     7
 10
92.107200000000077
 20
242.85489999999999
 30
0.0
 11
90.272400000000033
 21
242.85489999999999
 31
0.0
  0
LINE
  5
8F9
  8
LAYER_2
 62
     7
 10
89.77180000000007
 20
243.52209999999999
 30
0.0
 11
92.107200000000077
 21
243.52209999999999
 31
0.0
  0
ARC
  5
8FA
  8
LAYER_2
 62
     7
 10
88.465700000000055
 20
240.7963
 30
0.0
 40
4.8021000000000003
 50
21.259425260000089
 51
34.029777869999997
  0
LINE
  5
8FB
  8
LAYER_2
 62
     7
 10
88.03720000000007
 20
246.87429999999989
 30
0.0
 11
88.03720000000007
 21
247.208
 31
0.0
  0
LINE
  5
8FC
  8
LAYER_2
 62
     7
 10
88.437500000000028
 20
242.02069999999989
 30
0.0
 11
88.437500000000028
 21
242.1876
 31
0.0
  0
LINE
  5
8FD
  8
LAYER_2
 62
     7
 10
88.03720000000007
 20
246.87429999999989
 30
0.0
 11
90.161400000000043
 21
245.64769999999999
 31
0.0
  0
ARC
  5
8FE
  8
LAYER_2
 62
     7
 10
91.280700000000067
 20
239.6961
 30
0.0
 40
0.6598000000000001
 50
359.40069470000032
 51
85.592093540000207
  0
LINE
  5
8FF
  8
LAYER_2
 62
     7
 10
89.194400000000059
 20
240.54089999999999
 30
0.0
 11
91.331400000000002
 21
240.35400000000001
 31
0.0
  0
LINE
  5
900
  8
LAYER_2
 62
     7
 10
91.940500000000014
 20
233.1465
 30
0.0
 11
92.440700000000021
 21
232.14549999999991
 31
0.0
  0
ARC
  5
901
  8
LAYER_2
 62
     7
 10
90.772800000000046
 20
233.64689999999999
 30
0.0
 40
0.5004
 50
179.97529559999859
 51
269.97890439999992
  0
LINE
  5
902
  8
LAYER_2
 62
     7
 10
90.272400000000033
 20
233.64709999999999
 30
0.0
 11
90.272400000000033
 21
240.44659999999999
 31
0.0
  0
LINE
  5
903
  8
LAYER_2
 62
     7
 10
91.940500000000014
 20
233.1465
 30
0.0
 11
91.940500000000014
 21
239.6892
 31
0.0
  0
ARC
  5
904
  8
LAYER_2
 62
     7
 10
97.048500000000018
 20
199.44540000000001
 30
0.0
 40
0.964
 50
358.30060249999991
 51
76.693801609999994
  0
LINE
  5
905
  8
LAYER_2
 62
     7
 10
98.012100000000004
 20
199.51750000000001
 30
0.0
 11
97.345200000000062
 21
198.8502
 31
0.0
  0
LINE
  5
906
  8
LAYER_2
 62
     7
 10
97.345200000000062
 20
197.61600000000001
 30
0.0
 11
97.345200000000062
 21
198.8502
 31
0.0
  0
LINE
  5
907
  8
LAYER_2
 62
     7
 10
98.012100000000004
 20
197.61600000000001
 30
0.0
 11
98.012100000000004
 21
199.41679999999999
 31
0.0
  0
ARC
  5
908
  8
LAYER_2
 62
     7
 10
94.381200000000007
 20
202.48479999999989
 30
0.0
 40
1.2822
 50
179.23117839999941
 51
256.7903560999996
  0
LINE
  5
909
  8
LAYER_2
 62
     7
 10
94.088200000000001
 20
201.23649999999989
 30
0.0
 11
97.270400000000024
 21
200.3835
 31
0.0
  0
LINE
  5
90A
  8
LAYER_2
 62
     7
 10
93.09910000000005
 20
202.50200000000001
 30
0.0
 11
92.440700000000021
 21
232.14549999999991
 31
0.0
  0
ARC
  5
90B
  8
LAYER_2
 62
     7
 10
89.232000000000056
 20
241.03389999999999
 30
0.0
 40
0.4945000000000001
 50
179.36643150000069
 51
265.63468179999933
  0
ARC
  5
90C
  8
LAYER_2
 62
     7
 10
103.9743
 20
188.53989999999999
 30
0.0
 40
0.6671000000000001
 50
179.9868896000005
 51
269.98734600000017
  0
ARC
  5
90D
  8
LAYER_2
 62
     7
 10
102.7949
 20
188.5401
 30
0.0
 40
0.6673
 50
180.0016530000004
 51
270.00693269999971
  0
LINE
  5
90E
  8
LAYER_2
 62
     7
 10
101.1148
 20
185.55680000000001
 30
0.0
 11
101.1148
 21
187.87280000000001
 31
0.0
  0
ARC
  5
90F
  8
LAYER_2
 62
     7
 10
100.9616
 20
185.19290000000001
 30
0.0
 40
0.3461
 50
98.082905939999264
 51
183.9827667000016
  0
ARC
  5
910
  8
LAYER_2
 62
     7
 10
100.9481
 20
185.20389999999989
 30
0.0
 40
0.3337
 50
186.0262545000009
 51
276.03219990000059
  0
LINE
  5
911
  8
LAYER_2
 62
     7
 10
101.1148
 20
178.8843
 30
0.0
 11
101.1148
 21
181.54959999999991
 31
0.0
  0
LINE
  5
912
  8
LAYER_2
 62
     7
 10
101.1148
 20
172.21199999999999
 30
0.0
 11
101.1148
 21
174.87729999999999
 31
0.0
  0
LINE
  5
913
  8
LAYER_2
 62
     7
 10
101.1148
 20
175.54830000000001
 30
0.0
 11
101.1148
 21
178.21340000000001
 31
0.0
  0
ARC
  5
914
  8
LAYER_2
 62
     7
 10
100.96169999999999
 20
178.5206
 30
0.0
 40
0.3462
 50
98.097840390000215
 51
183.96783219999941
  0
ARC
  5
915
  8
LAYER_2
 62
     7
 10
100.9482
 20
178.53149999999999
 30
0.0
 40
0.3338
 50
186.0086988999993
 51
276.01200849999998
  0
ARC
  5
916
  8
LAYER_2
 62
     7
 10
100.9616
 20
181.85669999999999
 30
0.0
 40
0.3461
 50
98.090373169999197
 51
183.97529939999779
  0
ARC
  5
917
  8
LAYER_2
 62
     7
 10
100.9481
 20
181.86770000000001
 30
0.0
 40
0.3337
 50
186.0233798000001
 51
276.03507469999931
  0
ARC
  5
918
  8
LAYER_2
 62
     7
 10
100.9616
 20
175.18440000000001
 30
0.0
 40
0.3461
 50
98.090373169999197
 51
183.97529939999779
  0
ARC
  5
919
  8
LAYER_2
 62
     7
 10
100.9481
 20
175.19540000000001
 30
0.0
 40
0.3337
 50
186.0244475999998
 51
276.03400689999989
  0
LINE
  5
91A
  8
LAYER_2
 62
     7
 10
101.1148
 20
182.22059999999999
 30
0.0
 11
101.1148
 21
184.88589999999999
 31
0.0
  0
ARC
  5
91B
  8
LAYER_2
 62
     7
 10
96.677600000000083
 20
188.53989999999999
 30
0.0
 40
0.6671000000000001
 50
179.98636410000009
 51
269.98787149999998
  0
LINE
  5
91C
  8
LAYER_2
 62
     7
 10
96.010500000000064
 20
188.5401
 30
0.0
 11
101.76179999999999
 21
188.5401
 31
0.0
  0
LINE
  5
91D
  8
LAYER_2
 62
     7
 10
101.1148
 20
168.87579999999991
 30
0.0
 11
101.1148
 21
171.54089999999999
 31
0.0
  0
LINE
  5
91E
  8
LAYER_2
 62
     7
 10
101.1148
 20
162.20339999999999
 30
0.0
 11
101.1148
 21
164.86850000000001
 31
0.0
  0
LINE
  5
91F
  8
LAYER_2
 62
     7
 10
101.1148
 20
165.53960000000001
 30
0.0
 11
101.1148
 21
168.2047
 31
0.0
  0
ARC
  5
920
  8
LAYER_2
 62
     7
 10
100.96250000000001
 20
168.51159999999999
 30
0.0
 40
0.347
 50
98.217838949999404
 51
183.92416839999899
  0
ARC
  5
921
  8
LAYER_2
 62
     7
 10
100.9482
 20
168.52279999999999
 30
0.0
 40
0.3338
 50
186.0095097
 51
276.01119769999951
  0
ARC
  5
922
  8
LAYER_2
 62
     7
 10
100.9482
 20
171.85910000000001
 30
0.0
 40
0.3337
 50
186.02092080000151
 51
276.01865759999998
  0
ARC
  5
923
  8
LAYER_2
 62
     7
 10
100.96080000000001
 20
161.84
 30
0.0
 40
0.3454
 50
97.973156890000581
 51
184.0772336999996
  0
ARC
  5
924
  8
LAYER_2
 62
     7
 10
100.9482
 20
161.85040000000001
 30
0.0
 40
0.3338
 50
186.02173160000191
 51
276.0178467999998
  0
ARC
  5
925
  8
LAYER_2
 62
     7
 10
100.9615
 20
165.17559999999989
 30
0.0
 40
0.346
 50
98.069420930000504
 51
183.96568249999791
  0
ARC
  5
926
  8
LAYER_2
 62
     7
 10
100.9482
 20
165.1866
 30
0.0
 40
0.3338
 50
186.00663499999749
 51
276.01407239999901
  0
LINE
  5
927
  8
LAYER_2
 62
     7
 10
101.1148
 20
155.53159999999991
 30
0.0
 11
101.1148
 21
158.19669999999999
 31
0.0
  0
LINE
  5
928
  8
LAYER_2
 62
     7
 10
104.12439999999999
 20
149.1189
 30
0.0
 11
104.7252
 21
149.12719999999999
 31
0.0
  0
LINE
  5
929
  8
LAYER_2
 62
     7
 10
101.1148
 20
148.7518
 30
0.0
 11
101.1148
 21
151.52430000000001
 31
0.0
  0
LINE
  5
92A
  8
LAYER_2
 62
     7
 10
101.33669999999999
 20
148.79230000000001
 30
0.0
 11
102.8022
 21
149.01349999999999
 31
0.0
  0
LINE
  5
92B
  8
LAYER_2
 62
     7
 10
102.8022
 20
149.01349999999999
 30
0.0
 11
104.12439999999999
 21
149.1189
 31
0.0
  0
LINE
  5
92C
  8
LAYER_2
 62
     7
 10
101.1148
 20
152.19470000000001
 30
0.0
 11
101.1148
 21
154.8605
 31
0.0
  0
ARC
  5
92D
  8
LAYER_2
 62
     7
 10
100.96259999999999
 20
155.16669999999999
 30
0.0
 40
0.3471
 50
98.231601069999286
 51
183.91040620000041
  0
ARC
  5
92E
  8
LAYER_2
 62
     7
 10
100.9482
 20
155.17789999999999
 30
0.0
 40
0.3338
 50
186.0074458
 51
276.01326160000042
  0
ARC
  5
92F
  8
LAYER_2
 62
     7
 10
100.96080000000001
 20
158.50380000000001
 30
0.0
 40
0.3454
 50
97.973156890000581
 51
184.0772336999996
  0
ARC
  5
930
  8
LAYER_2
 62
     7
 10
100.95869999999999
 20
158.52789999999999
 30
0.0
 40
0.3459
 50
188.09303420000211
 51
274.05987599999992
  0
ARC
  5
931
  8
LAYER_2
 62
     7
 10
100.9615
 20
151.83070000000001
 30
0.0
 40
0.346
 50
98.072429450000016
 51
183.97796109999831
  0
ARC
  5
932
  8
LAYER_2
 62
     7
 10
100.9482
 20
151.8417
 30
0.0
 40
0.3338
 50
186.02254240000181
 51
276.01703599999951
  0
LINE
  5
933
  8
LAYER_2
 62
     7
 10
101.1148
 20
158.86709999999999
 30
0.0
 11
101.1148
 21
161.53229999999999
 31
0.0
  0
ARC
  5
934
  8
LAYER_2
 62
     7
 10
100.9615
 20
171.84809999999999
 30
0.0
 40
0.346
 50
98.072429450000016
 51
183.97796109999831
  0
LINE
  5
935
  8
LAYER_2
 62
     7
 10
96.010500000000064
 20
197.61600000000001
 30
0.0
 11
96.010500000000064
 21
188.5401
 31
0.0
  0
LINE
  5
936
  8
LAYER_2
 62
     7
 10
103.30719999999999
 20
197.61600000000001
 30
0.0
 11
103.30719999999999
 21
188.5401
 31
0.0
  0
LINE
  5
937
  8
LAYER_2
 62
     7
 10
102.1276
 20
197.61600000000001
 30
0.0
 11
102.1276
 21
188.5401
 31
0.0
  0
LINE
  5
938
  8
LAYER_2
 62
     7
 10
88.737600000000015
 20
241.0394
 30
0.0
 11
88.737600000000015
 21
242.02069999999989
 31
0.0
  0
LINE
  5
939
  8
LAYER_2
 62
     7
 10
104.12990000000001
 20
148.45209999999989
 30
0.0
 11
104.70529999999999
 21
148.46039999999999
 31
0.0
  0
LINE
  5
93A
  8
LAYER_2
 62
     7
 10
101.1148
 20
148.07239999999999
 30
0.0
 11
101.1148
 21
145.15719999999999
 31
0.0
  0
LINE
  5
93B
  8
LAYER_2
 62
     7
 10
101.4383
 20
148.13310000000001
 30
0.0
 11
102.857
 21
148.34800000000001
 31
0.0
  0
LINE
  5
93C
  8
LAYER_2
 62
     7
 10
102.857
 20
148.34800000000001
 30
0.0
 11
104.12990000000001
 21
148.45209999999989
 31
0.0
  0
LINE
  5
93D
  8
LAYER_2
 62
     7
 10
101.1148
 20
141.1506
 30
0.0
 11
101.1148
 21
138.4847
 31
0.0
  0
LINE
  5
93E
  8
LAYER_2
 62
     7
 10
101.1148
 20
144.48609999999999
 30
0.0
 11
101.1148
 21
141.821
 31
0.0
  0
ARC
  5
93F
  8
LAYER_2
 62
     7
 10
100.9614
 20
144.79329999999999
 30
0.0
 40
0.3459
 50
98.061951420000895
 51
183.97315200000131
  0
ARC
  5
940
  8
LAYER_2
 62
     7
 10
100.9482
 20
144.80420000000001
 30
0.0
 40
0.3338
 50
186.0075144000009
 51
276.01319299999909
  0
ARC
  5
941
  8
LAYER_2
 62
     7
 10
100.9615
 20
141.45699999999999
 30
0.0
 40
0.346
 50
98.072429450000016
 51
183.97796109999831
  0
ARC
  5
942
  8
LAYER_2
 62
     7
 10
100.9482
 20
141.46799999999999
 30
0.0
 40
0.3338
 50
186.0226108999988
 51
276.01696749999911
  0
ARC
  5
943
  8
LAYER_2
 62
     7
 10
100.9615
 20
138.12079999999989
 30
0.0
 40
0.346
 50
98.072429450000016
 51
183.97796109999831
  0
ARC
  5
944
  8
LAYER_2
 62
     7
 10
100.9482
 20
138.1318
 30
0.0
 40
0.3337
 50
186.01973630000089
 51
276.01984209999989
  0
LINE
  5
945
  8
LAYER_2
 62
     7
 10
99.758100000000042
 20
147.78790000000001
 30
0.0
 11
101.4383
 21
148.13310000000001
 31
0.0
  0
LINE
  5
946
  8
LAYER_2
 62
     7
 10
101.1148
 20
134.47810000000001
 30
0.0
 11
101.1148
 21
131.81229999999999
 31
0.0
  0
LINE
  5
947
  8
LAYER_2
 62
     7
 10
101.1148
 20
131.14189999999999
 30
0.0
 11
101.1148
 21
128.476
 31
0.0
  0
ARC
  5
948
  8
LAYER_2
 62
     7
 10
100.96129999999999
 20
134.78460000000001
 30
0.0
 40
0.3459
 50
98.048174299999431
 51
183.98692919999789
  0
ARC
  5
949
  8
LAYER_2
 62
     7
 10
100.9482
 20
134.7955
 30
0.0
 40
0.3338
 50
186.0083251999985
 51
276.01238219999863
  0
ARC
  5
94A
  8
LAYER_2
 62
     7
 10
100.9615
 20
131.44829999999999
 30
0.0
 40
0.346
 50
98.069420930000504
 51
183.96568249999791
  0
ARC
  5
94B
  8
LAYER_2
 62
     7
 10
100.9615
 20
128.11209999999991
 30
0.0
 40
0.346
 50
98.072429450000016
 51
183.97796109999831
  0
ARC
  5
94C
  8
LAYER_2
 62
     7
 10
100.9482
 20
128.12309999999999
 30
0.0
 40
0.3337
 50
186.02054710000141
 51
276.01903130000102
  0
ARC
  5
94D
  8
LAYER_2
 62
     7
 10
100.9482
 20
131.45930000000001
 30
0.0
 40
0.3338
 50
186.0054505999974
 51
276.01525680000083
  0
LINE
  5
94E
  8
LAYER_2
 62
     7
 10
101.1148
 20
137.8143
 30
0.0
 11
101.1148
 21
135.14850000000001
 31
0.0
  0
LINE
  5
94F
  8
LAYER_2
 62
     7
 10
101.1148
 20
124.46939999999999
 30
0.0
 11
101.1148
 21
121.8036
 31
0.0
  0
ARC
  5
950
  8
LAYER_2
 62
     7
 10
103.9742
 20
118.0146
 30
0.0
 40
0.667
 50
89.997717979999393
 51
179.9936912999996
  0
ARC
  5
951
  8
LAYER_2
 62
     7
 10
102.7944
 20
118.0145
 30
0.0
 40
0.6671000000000001
 50
89.984805329999503
 51
179.98083949999949
  0
LINE
  5
952
  8
LAYER_2
 62
     7
 10
101.1148
 20
121.13249999999999
 30
0.0
 11
101.1148
 21
118.6816
 31
0.0
  0
ARC
  5
953
  8
LAYER_2
 62
     7
 10
100.9479
 20
124.78749999999999
 30
0.0
 40
0.3335
 50
96.018514740000782
 51
186.12349260000011
  0
ARC
  5
954
  8
LAYER_2
 62
     7
 10
100.9589
 20
124.8009
 30
0.0
 40
0.3461
 50
188.13381119999951
 51
274.01909889999928
  0
ARC
  5
955
  8
LAYER_2
 62
     7
 10
100.9479
 20
121.4513
 30
0.0
 40
0.3335
 50
96.020843769999686
 51
186.12116350000011
  0
ARC
  5
956
  8
LAYER_2
 62
     7
 10
100.9482
 20
121.45059999999999
 30
0.0
 40
0.3338
 50
186.00626140000011
 51
276.01444599999979
  0
LINE
  5
957
  8
LAYER_2
 62
     7
 10
102.61960000000001
 20
105.0700999999999
 30
0.0
 11
102.61960000000001
 21
107.7393
 31
0.0
  0
ARC
  5
958
  8
LAYER_2
 62
     7
 10
103.28660000000001
 20
105.0700999999999
 30
0.0
 40
0.667
 50
179.99746090000031
 51
270.00253909999958
  0
ARC
  5
959
  8
LAYER_2
 62
     7
 10
97.373300000000071
 20
104.2296
 30
0.0
 40
0.1737
 50
92.246363499997727
 51
177.5470413000007
  0
LINE
  5
95A
  8
LAYER_2
 62
     7
 10
97.434700000000049
 20
107.7393
 30
0.0
 11
97.434700000000049
 21
108.90649999999999
 31
0.0
  0
LINE
  5
95B
  8
LAYER_2
 62
     7
 10
103.30719999999999
 20
108.90649999999999
 30
0.0
 11
103.30719999999999
 21
118.0147
 31
0.0
  0
LINE
  5
95C
  8
LAYER_2
 62
     7
 10
102.12730000000001
 20
108.90649999999999
 30
0.0
 11
102.12730000000001
 21
118.0147
 31
0.0
  0
ARC
  5
95D
  8
LAYER_2
 62
     7
 10
96.677500000000052
 20
118.0146
 30
0.0
 40
0.667
 50
89.997192250000495
 51
179.9942170000005
  0
ARC
  5
95E
  8
LAYER_2
 62
     7
 10
96.70040000000003
 20
105.0702
 30
0.0
 40
0.6671000000000001
 50
180.01081450000041
 51
270.01494990000037
  0
LINE
  5
95F
  8
LAYER_2
 62
     7
 10
96.033300000000025
 20
105.0700999999999
 30
0.0
 11
96.033300000000025
 21
107.7393
 31
0.0
  0
LINE
  5
960
  8
LAYER_2
 62
     7
 10
96.010500000000064
 20
108.90649999999999
 30
0.0
 11
96.010500000000064
 21
118.0147
 31
0.0
  0
LINE
  5
961
  8
LAYER_2
 62
     7
 10
96.010500000000064
 20
118.0147
 30
0.0
 11
101.76179999999999
 21
118.0147
 31
0.0
  0
LINE
  5
962
  8
LAYER_2
 62
     7
 10
101.1148
 20
127.8056
 30
0.0
 11
101.1148
 21
125.13979999999999
 31
0.0
  0
ARC
  5
963
  8
LAYER_2
 62
     7
 10
96.767200000000031
 20
95.895600000000044
 30
0.0
 40
0.5004
 50
89.979543659999905
 51
179.9746562999994
  0
LINE
  5
964
  8
LAYER_2
 62
     7
 10
96.266800000000018
 20
90.057000000000016
 30
0.0
 11
96.266800000000018
 21
95.895800000000008
 31
0.0
  0
ARC
  5
965
  8
LAYER_2
 62
     7
 10
96.958900000000057
 20
90.082200000000029
 30
0.0
 40
0.6926000000000001
 50
182.0891785999996
 51
267.97951109999991
  0
ARC
  5
966
  8
LAYER_2
 62
     7
 10
96.79170000000002
 20
96.741500000000002
 30
0.0
 40
0.3457
 50
271.9679950999988
 51
357.54893590000057
  0
LINE
  5
967
  8
LAYER_2
 62
     7
 10
97.199800000000053
 20
104.23699999999999
 30
0.0
 11
97.137100000000004
 21
96.726700000000037
 31
0.0
  0
LINE
  5
968
  8
LAYER_2
 62
     7
 10
99.613400000000055
 20
148.43899999999999
 30
0.0
 11
101.33669999999999
 21
148.79230000000001
 31
0.0
  0
LINE
  5
969
  8
LAYER_2
 62
     7
 10
89.025300000000044
 20
240.58619999999999
 30
0.0
 11
107.28699999999991
 21
240.58619999999999
 31
0.0
  0
LINE
  5
96A
  8
LAYER_2
 62
     7
 10
88.737600000000015
 20
242.02069999999989
 30
0.0
 11
107.28699999999991
 21
242.02069999999989
 31
0.0
  0
LINE
  5
96B
  8
LAYER_2
 62
     7
 10
97.345200000000062
 20
198.8502
 30
0.0
 11
107.28699999999991
 21
198.8502
 31
0.0
  0
LINE
  5
96C
  8
LAYER_2
 62
     7
 10
98.012100000000004
 20
199.51750000000001
 30
0.0
 11
107.28699999999991
 21
199.51750000000001
 31
0.0
  0
LINE
  5
96D
  8
LAYER_2
 62
     7
 10
90.77260000000004
 20
233.1465
 30
0.0
 11
107.28699999999991
 21
233.1465
 31
0.0
  0
LINE
  5
96E
  8
LAYER_2
 62
     7
 10
89.025300000000044
 20
240.58619999999999
 30
0.0
 11
107.28699999999991
 21
240.58619999999999
 31
0.0
  0
LINE
  5
96F
  8
LAYER_2
 62
     7
 10
92.440700000000021
 20
232.14549999999991
 30
0.0
 11
107.28699999999991
 21
232.14549999999991
 31
0.0
  0
LINE
  5
970
  8
LAYER_2
 62
     7
 10
88.03720000000007
 20
247.208
 30
0.0
 11
107.28699999999991
 21
247.208
 31
0.0
  0
LINE
  5
971
  8
LAYER_2
 62
     7
 10
89.076900000000052
 20
246.274
 30
0.0
 11
107.28699999999991
 21
246.274
 31
0.0
  0
LINE
  5
972
  8
LAYER_2
 62
     7
 10
88.437500000000028
 20
242.1876
 30
0.0
 11
107.28699999999991
 21
242.1876
 31
0.0
  0
LINE
  5
973
  8
LAYER_2
 62
     7
 10
88.437500000000028
 20
242.02069999999989
 30
0.0
 11
107.28699999999991
 21
242.02069999999989
 31
0.0
  0
LINE
  5
974
  8
LAYER_2
 62
     7
 10
96.677500000000052
 20
187.87280000000001
 30
0.0
 11
107.28699999999991
 21
187.87280000000001
 31
0.0
  0
LINE
  5
975
  8
LAYER_2
 62
     7
 10
96.010500000000064
 20
197.61600000000001
 30
0.0
 11
107.28699999999991
 21
197.61600000000001
 31
0.0
  0
LINE
  5
976
  8
LAYER_2
 62
     7
 10
103.7337
 20
188.5401
 30
0.0
 11
107.28699999999991
 21
188.5401
 31
0.0
  0
LINE
  5
977
  8
LAYER_2
 62
     7
 10
100.9832
 20
151.50980000000001
 30
0.0
 11
113.6604
 21
152.84440000000001
 31
0.0
  0
LINE
  5
978
  8
LAYER_2
 62
     7
 10
100.91289999999999
 20
152.17330000000001
 30
0.0
 11
113.5902
 21
153.50790000000001
 31
0.0
  0
LINE
  5
979
  8
LAYER_2
 62
     7
 10
100.9832
 20
154.846
 30
0.0
 11
113.6604
 21
156.18059999999991
 31
0.0
  0
LINE
  5
97A
  8
LAYER_2
 62
     7
 10
100.91289999999999
 20
155.51019999999991
 30
0.0
 11
113.5902
 21
156.8442
 31
0.0
  0
LINE
  5
97B
  8
LAYER_2
 62
     7
 10
100.9832
 20
158.18289999999999
 30
0.0
 11
113.6604
 21
159.51689999999999
 31
0.0
  0
LINE
  5
97C
  8
LAYER_2
 62
     7
 10
100.91289999999999
 20
158.8458
 30
0.0
 11
113.5902
 21
160.18039999999999
 31
0.0
  0
LINE
  5
97D
  8
LAYER_2
 62
     7
 10
100.9832
 20
161.51849999999999
 30
0.0
 11
113.6604
 21
162.85310000000001
 31
0.0
  0
LINE
  5
97E
  8
LAYER_2
 62
     7
 10
100.91289999999999
 20
162.18199999999999
 30
0.0
 11
113.5902
 21
163.51660000000001
 31
0.0
  0
LINE
  5
97F
  8
LAYER_2
 62
     7
 10
100.9832
 20
164.85470000000001
 30
0.0
 11
113.6604
 21
166.1893
 31
0.0
  0
LINE
  5
980
  8
LAYER_2
 62
     7
 10
100.91289999999999
 20
165.51820000000001
 30
0.0
 11
113.5902
 21
166.85290000000001
 31
0.0
  0
LINE
  5
981
  8
LAYER_2
 62
     7
 10
100.9832
 20
168.1909
 30
0.0
 11
113.6604
 21
169.5256
 31
0.0
  0
LINE
  5
982
  8
LAYER_2
 62
     7
 10
100.91289999999999
 20
168.85509999999999
 30
0.0
 11
113.5902
 21
170.1891
 31
0.0
  0
LINE
  5
983
  8
LAYER_2
 62
     7
 10
100.9832
 20
171.52719999999991
 30
0.0
 11
113.6604
 21
172.86179999999999
 31
0.0
  0
LINE
  5
984
  8
LAYER_2
 62
     7
 10
100.91289999999999
 20
172.19069999999999
 30
0.0
 11
113.5902
 21
173.52529999999999
 31
0.0
  0
LINE
  5
985
  8
LAYER_2
 62
     7
 10
100.9832
 20
174.86359999999999
 30
0.0
 11
113.6604
 21
176.1979
 31
0.0
  0
LINE
  5
986
  8
LAYER_2
 62
     7
 10
100.91289999999999
 20
175.52709999999999
 30
0.0
 11
113.5902
 21
176.8614
 31
0.0
  0
LINE
  5
987
  8
LAYER_2
 62
     7
 10
100.9832
 20
178.1996
 30
0.0
 11
107.28699999999991
 21
178.86330000000001
 31
0.0
  0
LINE
  5
988
  8
LAYER_2
 62
     7
 10
100.91289999999999
 20
178.86330000000001
 30
0.0
 11
107.28699999999991
 21
179.5343
 31
0.0
  0
LINE
  5
989
  8
LAYER_2
 62
     7
 10
100.9832
 20
181.53589999999991
 30
0.0
 11
107.28699999999991
 21
182.1994
 31
0.0
  0
LINE
  5
98A
  8
LAYER_2
 62
     7
 10
100.91289999999999
 20
182.1994
 30
0.0
 11
107.28699999999991
 21
182.87049999999999
 31
0.0
  0
LINE
  5
98B
  8
LAYER_2
 62
     7
 10
100.9832
 20
184.87209999999999
 30
0.0
 11
107.28699999999991
 21
185.53559999999999
 31
0.0
  0
LINE
  5
98C
  8
LAYER_2
 62
     7
 10
100.91289999999999
 20
185.53559999999999
 30
0.0
 11
107.28699999999991
 21
186.20650000000001
 31
0.0
  0
LINE
  5
98D
  8
LAYER_2
 62
     7
 10
96.033300000000025
 20
107.7393
 30
0.0
 11
107.27670000000001
 21
107.7393
 31
0.0
  0
LINE
  5
98E
  8
LAYER_2
 62
     7
 10
96.700600000000037
 20
104.40309999999999
 30
0.0
 11
107.27670000000001
 21
104.40309999999999
 31
0.0
  0
LINE
  5
98F
  8
LAYER_2
 62
     7
 10
96.767400000000038
 20
96.396000000000015
 30
0.0
 11
107.27670000000001
 21
96.396000000000015
 31
0.0
  0
LINE
  5
990
  8
LAYER_2
 62
     7
 10
96.934500000000057
 20
89.390100000000004
 30
0.0
 11
107.27670000000001
 21
89.390100000000004
 31
0.0
  0
LINE
  5
991
  8
LAYER_2
 62
     7
 10
97.366500000000059
 20
104.40309999999999
 30
0.0
 11
107.27670000000001
 21
104.40309999999999
 31
0.0
  0
LINE
  5
992
  8
LAYER_2
 62
     7
 10
113.5902
 20
146.47049999999999
 30
0.0
 11
100.91289999999999
 21
145.13579999999999
 31
0.0
  0
LINE
  5
993
  8
LAYER_2
 62
     7
 10
113.6604
 20
145.80690000000001
 30
0.0
 11
100.9832
 21
144.47229999999999
 31
0.0
  0
LINE
  5
994
  8
LAYER_2
 62
     7
 10
113.5902
 20
143.13419999999991
 30
0.0
 11
100.91289999999999
 21
141.7996
 31
0.0
  0
LINE
  5
995
  8
LAYER_2
 62
     7
 10
113.6604
 20
142.47069999999999
 30
0.0
 11
100.9832
 21
141.1361
 31
0.0
  0
LINE
  5
996
  8
LAYER_2
 62
     7
 10
113.5902
 20
139.798
 30
0.0
 11
100.91289999999999
 21
138.46340000000001
 31
0.0
  0
LINE
  5
997
  8
LAYER_2
 62
     7
 10
113.6604
 20
139.1345
 30
0.0
 11
100.9832
 21
137.79990000000001
 31
0.0
  0
LINE
  5
998
  8
LAYER_2
 62
     7
 10
113.5902
 20
136.46180000000001
 30
0.0
 11
100.91289999999999
 21
135.12710000000001
 31
0.0
  0
LINE
  5
999
  8
LAYER_2
 62
     7
 10
113.6604
 20
135.79830000000001
 30
0.0
 11
100.9832
 21
134.46360000000001
 31
0.0
  0
LINE
  5
99A
  8
LAYER_2
 62
     7
 10
113.5902
 20
133.12549999999999
 30
0.0
 11
100.91289999999999
 21
131.79089999999999
 31
0.0
  0
LINE
  5
99B
  8
LAYER_2
 62
     7
 10
113.6604
 20
132.46199999999999
 30
0.0
 11
100.9832
 21
131.12739999999999
 31
0.0
  0
LINE
  5
99C
  8
LAYER_2
 62
     7
 10
113.5902
 20
129.78929999999991
 30
0.0
 11
100.91289999999999
 21
128.4547
 31
0.0
  0
LINE
  5
99D
  8
LAYER_2
 62
     7
 10
113.6604
 20
129.1258
 30
0.0
 11
100.9832
 21
127.7912
 31
0.0
  0
LINE
  5
99E
  8
LAYER_2
 62
     7
 10
107.28699999999991
 20
125.78959999999999
 30
0.0
 11
100.91289999999999
 21
125.1191
 31
0.0
  0
LINE
  5
99F
  8
LAYER_2
 62
     7
 10
107.28699999999991
 20
125.1191
 30
0.0
 11
100.9832
 21
124.4556
 31
0.0
  0
LINE
  5
9A0
  8
LAYER_2
 62
     7
 10
107.28699999999991
 20
122.4533
 30
0.0
 11
100.91289999999999
 21
121.7829
 31
0.0
  0
LINE
  5
9A1
  8
LAYER_2
 62
     7
 10
107.28699999999991
 20
121.7829
 30
0.0
 11
100.9832
 21
121.1187
 31
0.0
  0
LINE
  5
9A2
  8
LAYER_2
 62
     7
 10
96.677500000000052
 20
118.6816
 30
0.0
 11
107.28699999999991
 21
118.6816
 31
0.0
  0
LINE
  5
9A3
  8
LAYER_2
 62
     7
 10
103.7337
 20
118.0147
 30
0.0
 11
107.28699999999991
 21
118.0147
 31
0.0
  0
LINE
  5
9A4
  8
LAYER_2
 62
     7
 10
96.010500000000064
 20
108.90649999999999
 30
0.0
 11
107.28699999999991
 21
108.90649999999999
 31
0.0
  0
LINE
  5
9A5
  8
LAYER_2
 62
     7
 10
104.7252
 20
149.12719999999999
 30
0.0
 11
105.2854
 21
149.10650000000001
 31
0.0
  0
LINE
  5
9A6
  8
LAYER_2
 62
     7
 10
104.70529999999999
 20
148.46039999999999
 30
0.0
 11
105.2406
 21
148.44040000000001
 31
0.0
  0
LINE
  5
9DE
  8
0
  6
CONTINUOUS
 62
     7
 10
107.28699999999991
 20
232.08299999999991
 30
0.0
 11
107.28699999999991
 21
228.75399388491201
 31
0.0
  0
LINE
  5
9DF
  8
0
  6
CONTINUOUS
 62
     7
 10
92.440700000000021
 20
232.08299999999991
 30
0.0
 11
92.440700000000021
 21
228.75399388491201
 31
0.0
  0
LINE
  5
9E0
  8
0
  6
CONTINUOUS
 62
     7
 10
107.1069999999999
 20
228.9339938849121
 30
0.0
 11
100.46384999999999
 21
228.9339938849121
 31
0.0
  0
LINE
  5
9E1
  8
0
  6
CONTINUOUS
 62
     7
 10
92.620700000000028
 20
228.9339938849121
 30
0.0
 11
99.263850000000033
 21
228.9339938849121
 31
0.0
  0
SOLID
  5
9E2
  8
0
  6
CONTINUOUS
 62
     7
 10
107.1069999999999
 20
228.96399388491201
 30
0.0
 11
107.1069999999999
 21
228.90399388491201
 31
0.0
 12
107.28699999999991
 22
228.9339938849121
 32
0.0
 13
107.28699999999991
 23
228.9339938849121
 33
0.0
  0
SOLID
  5
9E3
  8
0
  6
CONTINUOUS
 62
     7
 10
92.620700000000028
 20
228.96399388491201
 30
0.0
 11
92.620700000000028
 21
228.90399388491201
 31
0.0
 12
92.440700000000021
 22
228.9339938849121
 32
0.0
 13
92.440700000000021
 23
228.9339938849121
 33
0.0
  0
TEXT
  5
9E4
  8
0
  6
CONTINUOUS
 62
     7
 10
99.353850000000037
 20
228.84399388491209
 30
0.0
 40
0.18
  1
14.8463
  0
ENDSEC
  0
EOF
