  0
SECTION
  2
HEADER
  9
$ACADVER
  1
AC1009
  9
$INSBASE
 10
0.0
 20
0.0
 30
0.0
  9
$EXTMIN
 10
0.238058
 20
0.4482100000000001
 30
0.0
  9
$EXTMAX
 10
210.24000000000001
 20
297.44999999999987
 30
0.0
  9
$LIMMIN
 10
0.0
 20
0.0
  9
$LIMMAX
 10
12.0
 20
9.0
  9
$ORTHOMODE
 70
     0
  9
$REGENMODE
 70
     1
  9
$FILLMODE
 70
     1
  9
$QTEXTMODE
 70
     0
  9
$MIRRTEXT
 70
     1
  9
$DRAGMODE
 70
     2
  9
$LTSCALE
 40
1.0
  9
$OSMODE
 70
    37
  9
$ATTMODE
 70
     1
  9
$TEXTSIZE
 40
0.0
  9
$TRACEWID
 40
0.05
  9
$TEXTSTYLE
  7
STANDARD
  9
$CLAYER
  8
0
  9
$CELTYPE
  6
CONTINUOUS
  9
$CECOLOR
 62
   256
  9
$DIMSCALE
 40
1.0
  9
$DIMASZ
 40
0.18
  9
$DIMEXO
 40
0.0625
  9
$DIMDLI
 40
0.38
  9
$DIMRND
 40
0.0
  9
$DIMDLE
 40
0.0
  9
$DIMEXE
 40
0.18
  9
$DIMTP
 40
0.0
  9
$DIMTM
 40
0.0
  9
$DIMTXT
 40
0.18
  9
$DIMCEN
 40
0.09
  9
$DIMTSZ
 40
0.0
  9
$DIMTOL
 70
     0
  9
$DIMLIM
 70
     0
  9
$DIMTIH
 70
     1
  9
$DIMTOH
 70
     1
  9
$DIMSE1
 70
     0
  9
$DIMSE2
 70
     0
  9
$DIMTAD
 70
     0
  9
$DIMZIN
 70
     0
  9
$DIMBLK
  1

  9
$DIMASO
 70
     1
  9
$DIMSHO
 70
     1
  9
$DIMPOST
  1

  9
$DIMAPOST
  1

  9
$DIMALT
 70
     0
  9
$DIMALTD
 70
     2
  9
$DIMALTF
 40
25.399999999999999
  9
$DIMLFAC
 40
1.0
  9
$DIMTOFL
 70
     0
  9
$DIMTVP
 40
0.0
  9
$DIMTIX
 70
     0
  9
$DIMSOXD
 70
     0
  9
$DIMSAH
 70
     0
  9
$DIMBLK1
  1

  9
$DIMBLK2
  1

  9
$DIMSTYLE
  2
STANDARD
  9
$DIMCLRD
 70
     0
  9
$DIMCLRE
 70
     0
  9
$DIMCLRT
 70
     0
  9
$DIMTFAC
 40
1.0
  9
$DIMGAP
 40
0.09
  9
$LUNITS
 70
     2
  9
$LUPREC
 70
     4
  9
$SKETCHINC
 40
0.1
  9
$FILLETRAD
 40
0.0
  9
$AUNITS
 70
     0
  9
$AUPREC
 70
     0
  9
$MENU
  1
.
  9
$ELEVATION
 40
0.0
  9
$PELEVATION
 40
0.0
  9
$THICKNESS
 40
0.0
  9
$LIMCHECK
 70
     0
  9
$BLIPMODE
 70
     0
  9
$CHAMFERA
 40
0.0
  9
$CHAMFERB
 40
0.0
  9
$SKPOLY
 70
     0
  9
$TDCREATE
 40
2444972.375
  9
$TDUPDATE
 40
2456309.4374719672
  9
$TDINDWG
 40
0.0000102083
  9
$TDUSRTIMER
 40
0.0000102083
  9
$USRTIMER
 70
     1
  9
$ANGBASE
 50
0.0
  9
$ANGDIR
 70
     0
  9
$PDMODE
 70
     0
  9
$PDSIZE
 40
0.0
  9
$PLINEWID
 40
0.0
  9
$COORDS
 70
     1
  9
$SPLFRAME
 70
     0
  9
$SPLINETYPE
 70
     6
  9
$SPLINESEGS
 70
     8
  9
$ATTDIA
 70
     0
  9
$ATTREQ
 70
     1
  9
$HANDLING
 70
     1
  9
$HANDSEED
  5
688
  9
$SURFTAB1
 70
     6
  9
$SURFTAB2
 70
     6
  9
$SURFTYPE
 70
     6
  9
$SURFU
 70
     6
  9
$SURFV
 70
     6
  9
$UCSNAME
  2

  9
$UCSORG
 10
0.0
 20
0.0
 30
0.0
  9
$UCSXDIR
 10
1.0
 20
0.0
 30
0.0
  9
$UCSYDIR
 10
0.0
 20
1.0
 30
0.0
  9
$PUCSNAME
  2

  9
$PUCSORG
 10
0.0
 20
0.0
 30
0.0
  9
$PUCSXDIR
 10
1.0
 20
0.0
 30
0.0
  9
$PUCSYDIR
 10
0.0
 20
1.0
 30
0.0
  9
$USERI1
 70
     0
  9
$USERI2
 70
     0
  9
$USERI3
 70
     0
  9
$USERI4
 70
     0
  9
$USERI5
 70
     0
  9
$USERR1
 40
0.0
  9
$USERR2
 40
0.0
  9
$USERR3
 40
0.0
  9
$USERR4
 40
0.0
  9
$USERR5
 40
0.0
  9
$WORLDVIEW
 70
     1
  9
$SHADEDGE
 70
     3
  9
$SHADEDIF
 70
    70
  9
$TILEMODE
 70
     1
  9
$MAXACTVP
 70
    48
  9
$PLIMCHECK
 70
     0
  9
$PEXTMIN
 10
1.0000000000000000E+020
 20
1.0000000000000000E+020
 30
1.0000000000000000E+020
  9
$PEXTMAX
 10
-1.0000000000000000E+020
 20
-1.0000000000000000E+020
 30
-1.0000000000000000E+020
  9
$PLIMMIN
 10
0.0
 20
0.0
  9
$PLIMMAX
 10
12.0
 20
9.0
  9
$UNITMODE
 70
     0
  9
$VISRETAIN
 70
     1
  9
$PLINEGEN
 70
     0
  9
$PSLTSCALE
 70
     1
  0
ENDSEC
  0
SECTION
  2
TABLES
  0
TABLE
  2
VPORT
 70
     2
  0
VPORT
  2
*ACTIVE
 70
     0
 10
0.0
 20
0.0
 11
1.0
 21
1.0
 12
210.2887023820887
 22
148.72499999999991
 13
0.0
 23
0.0
 14
1.0
 24
1.0
 15
0.0
 25
0.0
 16
0.0
 26
0.0
 36
1.0
 17
0.0
 27
0.0
 37
0.0
 40
299.69773299748101
 41
2.2894736842105261
 42
50.0
 43
0.0
 44
0.0
 50
0.0
 51
0.0
 71
     0
 72
   100
 73
     1
 74
     1
 75
     0
 76
     0
 77
     0
 78
     0
  0
ENDTAB
  0
TABLE
  2
LTYPE
 70
     2
  0
LTYPE
  2
CONTINUOUS
 70
     0
  3
Solid line
 72
    65
 73
     0
 40
0.0
  0
LTYPE
  2
AIGENLINE001
 70
     0
  3
generate AI->DXF Converter
 72
    65
 73
     4
 40
5.8561449999999988
 49
3.5278
 49
-0.776115
 49
0.776115
 49
-0.776115
  0
ENDTAB
  0
TABLE
  2
LAYER
 70
     2
  0
LAYER
  2
0
 70
     0
 62
     7
  6
CONTINUOUS
  0
LAYER
  2
_________2
 70
     0
 62
     7
  6
CONTINUOUS
  0
ENDTAB
  0
TABLE
  2
STYLE
 70
     1
  0
STYLE
  2
STANDARD
 70
     0
 40
0.0
 41
0.0
 50
0.0
 71
     0
 42
0.0
  3
TXT
  4
EXTFONT.SHX
  0
ENDTAB
  0
TABLE
  2
VIEW
 70
     0
  0
ENDTAB
  0
TABLE
  2
UCS
 70
     0
  0
ENDTAB
  0
TABLE
  2
APPID
 70
     1
  0
APPID
  2
ACAD
 70
     0
  0
ENDTAB
  0
TABLE
  2
DIMSTYLE
 70
     1
  0
DIMSTYLE
  2
STANDARD
 70
     0
  3

  4

  5

  6

  7

 40
1.0
 41
0.18
 42
0.0625
 43
0.38
 44
0.18
 45
0.0
 46
0.0
 47
0.0
 48
0.0
140
0.18
141
0.09
142
0.0
143
25.399999999999999
144
1.0
145
0.0
146
1.0
147
0.09
 71
     0
 72
     0
 73
     1
 74
     1
 75
     0
 76
     0
 77
     0
 78
     0
170
     0
171
     2
172
     0
173
     0
174
     0
175
     0
176
     0
177
     0
178
     0
  0
ENDTAB
  0
ENDSEC
  0
SECTION
  2
BLOCKS
  0
BLOCK
  8
0
  2
$MODEL_SPACE
 70
     0
 10
0.0
 20
0.0
 30
0.0
  3
$MODEL_SPACE
  1

  0
ENDBLK
  5
1A
  8
0
  0
BLOCK
 67
     1
  8
0
  2
$PAPER_SPACE
 70
     0
 10
0.0
 20
0.0
 30
0.0
  3
$PAPER_SPACE
  1

  0
ENDBLK
  5
17
 67
     1
  8
0
  0
ENDSEC
  0
SECTION
  2
ENTITIES
  0
TEXT
  5
22
  8
0
 62
     7
 10
54.944800000000001
 20
159.50044
 30
0.0
 40
3.0923400000000001
  1
747
 50
90.0
 41
0.5
 72
     1
 11
54.944800000000001
 21
161.56200000000001
 31
0.0
  0
TEXT
  5
23
  8
0
 62
     7
 10
66.613399999999999
 20
201.09113500000001
 30
0.0
 40
3.0923400000000001
  1
188
 50
90.0
 41
0.5
 72
     1
 11
66.613399999999999
 21
202.89500000000001
 31
0.0
  0
TEXT
  5
24
  8
0
 62
     7
 10
104.8388974999999
 20
249.00200000000001
 30
0.0
 40
3.0923400000000001
  1
%%c180
 41
0.5
 72
     1
 11
107.28699999999991
 21
249.00200000000001
 31
0.0
  0
LINE
  5
25
  8
0
 62
     7
 10
106.702
 20
76.836799999999997
 30
0.0
 11
107.295
 21
74.626099999999994
 31
0.0
  0
LINE
  5
26
  8
0
 62
     7
 10
107.295
 20
74.626099999999994
 30
0.0
 11
107.8869999999999
 21
76.836799999999997
 31
0.0
  0
LINE
  5
27
  8
0
 62
     7
 10
107.8869999999999
 20
76.836799999999997
 30
0.0
 11
106.702
 21
76.836799999999997
 31
0.0
  0
LINE
  5
28
  8
0
 62
     7
 10
107.28699999999991
 20
74.626099999999994
 30
0.0
 11
107.28699999999991
 21
78.925200000000004
 31
0.0
  0
TEXT
  5
29
  8
0
 62
     7
 10
99.736536500000014
 20
70.8309
 30
0.0
 40
3.0923400000000001
  1
（排水配管50A）
 41
0.5
 72
     1
 11
107.28699999999991
 21
70.8309
 31
0.0
  0
LINE
  5
2A
  8
0
 62
     7
 10
56.229799999999997
 20
232.018
 30
0.0
 11
55.637599999999999
 21
234.22799999999989
 31
0.0
  0
LINE
  5
2B
  8
0
 62
     7
 10
55.637599999999999
 20
234.22799999999989
 30
0.0
 11
55.045099999999991
 21
232.018
 31
0.0
  0
LINE
  5
2C
  8
0
 62
     7
 10
55.045099999999991
 20
232.018
 30
0.0
 11
56.229799999999997
 21
232.018
 31
0.0
  0
LINE
  5
2D
  8
0
 62
     7
 10
55.059899999999999
 20
91.106499999999997
 30
0.0
 11
55.652099999999997
 21
88.895399999999995
 31
0.0
  0
LINE
  5
2E
  8
0
 62
     7
 10
55.652099999999997
 20
88.895399999999995
 30
0.0
 11
56.244599999999998
 21
91.106499999999997
 31
0.0
  0
LINE
  5
2F
  8
0
 62
     7
 10
56.244599999999998
 20
91.106499999999997
 30
0.0
 11
55.059899999999999
 21
91.106499999999997
 31
0.0
  0
LINE
  5
30
  8
0
 62
     7
 10
55.644799999999989
 20
234.22799999999989
 30
0.0
 11
55.644799999999989
 21
88.895399999999995
 31
0.0
  0
LINE
  5
31
  8
0
 62
     7
 10
67.898399999999995
 20
232.01400000000001
 30
0.0
 11
67.306200000000004
 21
234.22499999999991
 31
0.0
  0
LINE
  5
32
  8
0
 62
     7
 10
67.306200000000004
 20
234.22499999999991
 30
0.0
 11
66.713700000000003
 21
232.01400000000001
 31
0.0
  0
LINE
  5
33
  8
0
 62
     7
 10
66.713700000000003
 20
232.01400000000001
 30
0.0
 11
67.898399999999995
 21
232.01400000000001
 31
0.0
  0
LINE
  5
34
  8
0
 62
     7
 10
66.728499999999997
 20
173.77299999999991
 30
0.0
 11
67.320700000000002
 21
171.56200000000001
 31
0.0
  0
LINE
  5
35
  8
0
 62
     7
 10
67.320700000000002
 20
171.56200000000001
 30
0.0
 11
67.913300000000007
 21
173.77299999999991
 31
0.0
  0
LINE
  5
36
  8
0
 62
     7
 10
67.913300000000007
 20
173.77299999999991
 30
0.0
 11
66.728499999999997
 21
173.77299999999991
 31
0.0
  0
LINE
  5
37
  8
0
 62
     7
 10
67.313500000000005
 20
234.22499999999991
 30
0.0
 11
67.313500000000005
 21
171.56200000000001
 31
0.0
  0
LINE
  5
38
  8
0
 62
     7
 10
135.077
 20
247.01699999999991
 30
0.0
 11
137.28700000000001
 21
247.61000000000001
 31
0.0
  0
LINE
  5
39
  8
0
 62
     7
 10
137.28700000000001
 20
247.61000000000001
 30
0.0
 11
135.077
 21
248.20199999999991
 31
0.0
  0
LINE
  5
3A
  8
0
 62
     7
 10
135.077
 20
248.20199999999991
 30
0.0
 11
135.077
 21
247.01699999999991
 31
0.0
  0
LINE
  5
3B
  8
0
 62
     7
 10
79.4983
 20
248.18700000000001
 30
0.0
 11
77.287199999999999
 21
247.595
 31
0.0
  0
LINE
  5
3C
  8
0
 62
     7
 10
77.287199999999999
 20
247.595
 30
0.0
 11
79.4983
 21
247.0029999999999
 31
0.0
  0
LINE
  5
3D
  8
0
 62
     7
 10
79.4983
 20
247.0029999999999
 30
0.0
 11
79.4983
 21
248.18700000000001
 31
0.0
  0
LINE
  5
3E
  8
0
 62
     7
 10
137.28700000000001
 20
247.602
 30
0.0
 11
77.287199999999999
 21
247.602
 31
0.0
  0
LINE
  5
3F
  8
0
 62
     7
 10
107.28699999999991
 20
127.227
 30
0.0
 11
107.9169999999999
 21
127.42700000000001
 31
0.0
  0
LINE
  5
40
  8
0
 62
     7
 10
107.9169999999999
 20
127.42700000000001
 30
0.0
 11
108.441
 21
127.5439999999999
 31
0.0
  0
LINE
  5
41
  8
0
 62
     7
 10
108.441
 20
127.5439999999999
 30
0.0
 11
108.90000000000001
 21
127.59
 31
0.0
  0
LINE
  5
42
  8
0
 62
     7
 10
108.90000000000001
 20
127.59
 30
0.0
 11
109.28700000000001
 21
127.56
 31
0.0
  0
LINE
  5
43
  8
0
 62
     7
 10
109.28700000000001
 20
127.56
 30
0.0
 11
109.655
 21
127.444
 31
0.0
  0
LINE
  5
44
  8
0
 62
     7
 10
109.655
 20
127.444
 30
0.0
 11
110.105
 21
127.2049999999999
 31
0.0
  0
LINE
  5
45
  8
0
 62
     7
 10
110.105
 20
127.2049999999999
 30
0.0
 11
110.586
 21
126.9589999999999
 31
0.0
  0
LINE
  5
46
  8
0
 62
     7
 10
110.586
 20
126.9589999999999
 30
0.0
 11
110.7739999999999
 21
126.907
 31
0.0
  0
LINE
  5
47
  8
0
 62
     7
 10
110.7739999999999
 20
126.907
 30
0.0
 11
110.9529999999999
 21
126.89399999999991
 31
0.0
  0
LINE
  5
48
  8
0
 62
     7
 10
110.9529999999999
 20
126.89399999999991
 30
0.0
 11
111.3099999999999
 21
126.96599999999999
 31
0.0
  0
LINE
  5
49
  8
0
 62
     7
 10
111.3099999999999
 20
126.96599999999999
 30
0.0
 11
111.83199999999999
 21
127.19
 31
0.0
  0
LINE
  5
4A
  8
0
 62
     7
 10
111.83199999999999
 20
127.19
 30
0.0
 11
112.467
 21
127.45699999999999
 31
0.0
  0
LINE
  5
4B
  8
0
 62
     7
 10
112.467
 20
127.45699999999999
 30
0.0
 11
112.71899999999989
 21
127.526
 31
0.0
  0
LINE
  5
4C
  8
0
 62
     7
 10
112.71899999999989
 20
127.526
 30
0.0
 11
112.95399999999989
 21
127.56
 31
0.0
  0
LINE
  5
4D
  8
0
 62
     7
 10
112.95399999999989
 20
127.56
 30
0.0
 11
113.196
 21
127.56100000000001
 31
0.0
  0
LINE
  5
4E
  8
0
 62
     7
 10
113.196
 20
127.56100000000001
 30
0.0
 11
113.45399999999989
 21
127.52799999999991
 31
0.0
  0
LINE
  5
4F
  8
0
 62
     7
 10
77.287199999999999
 20
234.94499999999999
 30
0.0
 11
77.287199999999999
 21
247.595
 31
0.0
  0
LINE
  5
50
  8
0
 62
     7
 10
137.28700000000001
 20
234.94499999999999
 30
0.0
 11
137.28700000000001
 21
247.595
 31
0.0
  0
LINE
  5
51
  8
0
 62
     7
 10
115.52
 20
171.56200000000001
 30
0.0
 11
66.620599999999996
 21
171.56200000000001
 31
0.0
  0
LINE
  5
52
  8
0
 62
     7
 10
95.893500000000003
 20
88.895399999999995
 30
0.0
 11
54.937600000000003
 21
88.895399999999995
 31
0.0
  0
LINE
  5
53
  8
0
 62
     7
 10
76.866900000000001
 20
234.22799999999989
 30
0.0
 11
54.937600000000003
 21
234.22799999999989
 31
0.0
  0
LINE
  5
54
  8
0
 62
     7
 10
107.4789999999999
 20
95.228599999999986
 30
0.0
 11
107.28699999999991
 21
95.562000000000026
 31
0.0
  0
LINE
  5
55
  8
0
 62
     7
 10
108.2489999999999
 20
95.228599999999986
 30
0.0
 11
108.057
 21
95.562000000000026
 31
0.0
  0
LINE
  5
56
  8
0
 62
     7
 10
109.01899999999991
 20
95.228599999999986
 30
0.0
 11
108.82599999999999
 21
95.562000000000026
 31
0.0
  0
LINE
  5
57
  8
0
 62
     7
 10
109.789
 20
95.228599999999986
 30
0.0
 11
109.59699999999999
 21
95.562000000000026
 31
0.0
  0
LINE
  5
58
  8
0
 62
     7
 10
110.559
 20
95.228599999999986
 30
0.0
 11
110.366
 21
95.562000000000026
 31
0.0
  0
LINE
  5
59
  8
0
 62
     7
 10
111.3279999999999
 20
95.228599999999986
 30
0.0
 11
111.136
 21
95.562000000000026
 31
0.0
  0
LINE
  5
5A
  8
0
 62
     7
 10
112.0989999999999
 20
95.228599999999986
 30
0.0
 11
111.90600000000001
 21
95.562000000000026
 31
0.0
  0
LINE
  5
5B
  8
0
 62
     7
 10
112.8679999999999
 20
95.228599999999986
 30
0.0
 11
112.6759999999999
 21
95.562000000000026
 31
0.0
  0
LINE
  5
5C
  8
0
 62
     7
 10
113.63799999999991
 20
95.228599999999986
 30
0.0
 11
113.446
 21
95.562000000000026
 31
0.0
  0
LINE
  5
5D
  8
0
 62
     7
 10
114.4079999999999
 20
95.228599999999986
 30
0.0
 11
114.2149999999999
 21
95.562000000000026
 31
0.0
  0
LINE
  5
5E
  8
0
 62
     7
 10
117.995
 20
89.016700000000014
 30
0.0
 11
117.37899999999991
 21
90.082599999999985
 31
0.0
  0
LINE
  5
5F
  8
0
 62
     7
 10
115.178
 20
95.228599999999986
 30
0.0
 11
114.985
 21
95.562000000000026
 31
0.0
  0
LINE
  5
60
  8
0
 62
     7
 10
118.276
 20
89.860699999999994
 30
0.0
 11
117.342
 21
91.479900000000001
 31
0.0
  0
LINE
  5
61
  8
0
 62
     7
 10
115.947
 20
95.228599999999986
 30
0.0
 11
115.755
 21
95.562000000000026
 31
0.0
  0
LINE
  5
62
  8
0
 62
     7
 10
118.276
 20
91.194299999999984
 30
0.0
 11
117.3059999999999
 21
92.876599999999996
 31
0.0
  0
LINE
  5
63
  8
0
 62
     7
 10
116.717
 20
95.228599999999986
 30
0.0
 11
116.355
 21
95.854900000000001
 31
0.0
  0
LINE
  5
64
  8
0
 62
     7
 10
118.276
 20
92.527199999999993
 30
0.0
 11
117.2679999999999
 21
94.273600000000002
 31
0.0
  0
LINE
  5
65
  8
0
 62
     7
 10
118.276
 20
93.860799999999983
 30
0.0
 11
116.3599999999999
 21
97.180600000000013
 31
0.0
  0
LINE
  5
66
  8
0
 62
     7
 10
117.40299999999991
 20
96.706900000000005
 30
0.0
 11
116.3599999999999
 21
98.513800000000003
 31
0.0
  0
LINE
  5
67
  8
0
 62
     7
 10
118.276
 20
95.194100000000006
 30
0.0
 11
117.877
 21
95.885900000000007
 31
0.0
  0
LINE
  5
68
  8
0
 62
     7
 10
117.392
 20
98.059799999999996
 30
0.0
 11
116.3599999999999
 21
99.847099999999983
 31
0.0
  0
LINE
  5
69
  8
0
 62
     7
 10
117.381
 20
99.412599999999983
 30
0.0
 11
116.3599999999999
 21
101.181
 31
0.0
  0
LINE
  5
6A
  8
0
 62
     7
 10
117.36999999999991
 20
100.76600000000001
 30
0.0
 11
116.3599999999999
 21
102.5139999999999
 31
0.0
  0
LINE
  5
6B
  8
0
 62
     7
 10
117.3579999999999
 20
102.1179999999999
 30
0.0
 11
116.48999999999999
 21
103.62299999999991
 31
0.0
  0
LINE
  5
6C
  8
0
 62
     7
 10
117.34699999999999
 20
103.471
 30
0.0
 11
117.102
 21
103.895
 31
0.0
  0
LINE
  5
6D
  8
0
 62
     7
 10
115.396
 20
112.274
 30
0.0
 11
116.54299999999991
 21
114.261
 31
0.0
  0
LINE
  5
6E
  8
0
 62
     7
 10
115.377
 20
110.907
 30
0.0
 11
116.54299999999991
 21
112.928
 31
0.0
  0
LINE
  5
6F
  8
0
 62
     7
 10
115.3579999999999
 20
109.54000000000001
 30
0.0
 11
116.54299999999991
 21
111.59399999999989
 31
0.0
  0
LINE
  5
70
  8
0
 62
     7
 10
115.33799999999999
 20
108.1729999999999
 30
0.0
 11
116.54299999999991
 21
110.261
 31
0.0
  0
LINE
  5
71
  8
0
 62
     7
 10
115.318
 20
106.806
 30
0.0
 11
116.54299999999991
 21
108.928
 31
0.0
  0
LINE
  5
72
  8
0
 62
     7
 10
115.29899999999989
 20
105.43899999999989
 30
0.0
 11
116.54299999999991
 21
107.59399999999989
 31
0.0
  0
LINE
  5
73
  8
0
 62
     7
 10
115.2789999999999
 20
104.071
 30
0.0
 11
117.102
 21
107.2289999999999
 31
0.0
  0
LINE
  5
74
  8
0
 62
     7
 10
115.29899999999989
 20
102.773
 30
0.0
 11
117.872
 21
107.2289999999999
 31
0.0
  0
LINE
  5
75
  8
0
 62
     7
 10
116.717
 20
103.895
 30
0.0
 11
118.51000000000001
 21
107.001
 31
0.0
  0
LINE
  5
76
  8
0
 62
     7
 10
115.325
 20
101.4839999999999
 30
0.0
 11
116.33799999999989
 21
103.2389999999999
 31
0.0
  0
LINE
  5
77
  8
0
 62
     7
 10
117.48699999999999
 20
103.895
 30
0.0
 11
118.51000000000001
 21
105.6669999999999
 31
0.0
  0
LINE
  5
78
  8
0
 62
     7
 10
115.351
 20
100.19499999999989
 30
0.0
 11
116.327
 21
101.8869999999999
 31
0.0
  0
LINE
  5
79
  8
0
 62
     7
 10
115.376
 20
98.906599999999997
 30
0.0
 11
116.31699999999999
 21
100.5349999999999
 31
0.0
  0
LINE
  5
7A
  8
0
 62
     7
 10
115.402
 20
97.618099999999998
 30
0.0
 11
116.3059999999999
 21
99.182900000000004
 31
0.0
  0
LINE
  5
7B
  8
0
 62
     7
 10
115.4279999999999
 20
96.329300000000003
 30
0.0
 11
116.295
 21
97.830699999999993
 31
0.0
  0
LINE
  5
7C
  8
0
 62
     7
 10
115.7559999999999
 20
95.563800000000001
 30
0.0
 11
116.28399999999991
 21
96.478399999999993
 31
0.0
  0
LINE
  5
7D
  8
0
 62
     7
 10
115.4039999999999
 20
117.89399999999991
 30
0.0
 11
115.67100000000001
 21
118.16200000000001
 31
0.0
  0
LINE
  5
7E
  8
0
 62
     7
 10
115.4039999999999
 20
116.952
 30
0.0
 11
116.6139999999999
 21
118.16200000000001
 31
0.0
  0
LINE
  5
7F
  8
0
 62
     7
 10
116.2239999999999
 20
116.82899999999999
 30
0.0
 11
117.557
 21
118.16200000000001
 31
0.0
  0
LINE
  5
80
  8
0
 62
     7
 10
116.9929999999999
 20
116.65600000000001
 30
0.0
 11
118.33
 21
117.9929999999999
 31
0.0
  0
LINE
  5
81
  8
0
 62
     7
 10
117.321
 20
116.04000000000001
 30
0.0
 11
118.554
 21
117.273
 31
0.0
  0
LINE
  5
82
  8
0
 62
     7
 10
117.321
 20
115.09699999999999
 30
0.0
 11
118.554
 21
116.33
 31
0.0
  0
LINE
  5
83
  8
0
 62
     7
 10
117.321
 20
114.1539999999999
 30
0.0
 11
118.554
 21
115.38800000000001
 31
0.0
  0
LINE
  5
84
  8
0
 62
     7
 10
117.321
 20
113.2109999999999
 30
0.0
 11
118.554
 21
114.44499999999989
 31
0.0
  0
LINE
  5
85
  8
0
 62
     7
 10
117.321
 20
112.26899999999991
 30
0.0
 11
118.554
 21
113.502
 31
0.0
  0
LINE
  5
86
  8
0
 62
     7
 10
117.321
 20
111.32599999999999
 30
0.0
 11
118.554
 21
112.559
 31
0.0
  0
LINE
  5
87
  8
0
 62
     7
 10
117.321
 20
110.383
 30
0.0
 11
118.554
 21
111.616
 31
0.0
  0
LINE
  5
88
  8
0
 62
     7
 10
117.321
 20
109.44
 30
0.0
 11
118.554
 21
110.67400000000001
 31
0.0
  0
LINE
  5
89
  8
0
 62
     7
 10
117.321
 20
108.497
 30
0.0
 11
118.554
 21
109.73099999999999
 31
0.0
  0
LINE
  5
8A
  8
0
 62
     7
 10
118.161
 20
108.3949999999999
 30
0.0
 11
118.554
 21
108.7879999999999
 31
0.0
  0
LINE
  5
8B
  8
0
 62
     7
 10
114.6549999999999
 20
110.8959999999999
 30
0.0
 11
114.25399999999991
 21
111.297
 31
0.0
  0
LINE
  5
8C
  8
0
 62
     7
 10
115.20999999999989
 20
111.2829999999999
 30
0.0
 11
114.25399999999991
 21
112.2389999999999
 31
0.0
  0
LINE
  5
8D
  8
0
 62
     7
 10
115.226
 20
112.20999999999989
 30
0.0
 11
114.25399999999991
 21
113.182
 31
0.0
  0
LINE
  5
8E
  8
0
 62
     7
 10
113.48399999999999
 20
114.8949999999999
 30
0.0
 11
112.95399999999989
 21
115.4249999999999
 31
0.0
  0
LINE
  5
8F
  8
0
 62
     7
 10
115.2419999999999
 20
113.1369999999999
 30
0.0
 11
114.25399999999991
 21
114.125
 31
0.0
  0
LINE
  5
90
  8
0
 62
     7
 10
115.25700000000001
 20
114.06399999999989
 30
0.0
 11
112.95399999999989
 21
116.3669999999999
 31
0.0
  0
LINE
  5
91
  8
0
 62
     7
 10
115.273
 20
114.9909999999999
 30
0.0
 11
112.95399999999989
 21
117.31
 31
0.0
  0
LINE
  5
92
  8
0
 62
     7
 10
113.587
 20
117.62
 30
0.0
 11
112.95399999999989
 21
118.2529999999999
 31
0.0
  0
LINE
  5
93
  8
0
 62
     7
 10
115.3779999999999
 20
115.82899999999999
 30
0.0
 11
114.37899999999991
 21
116.82899999999999
 31
0.0
  0
LINE
  5
94
  8
0
 62
     7
 10
113.587
 20
118.5629999999999
 30
0.0
 11
112.95399999999989
 21
119.1959999999999
 31
0.0
  0
LINE
  5
95
  8
0
 62
     7
 10
116.322
 20
115.82899999999999
 30
0.0
 11
115.321
 21
116.82899999999999
 31
0.0
  0
LINE
  5
96
  8
0
 62
     7
 10
113.587
 20
119.506
 30
0.0
 11
112.95399999999989
 21
120.1389999999999
 31
0.0
  0
LINE
  5
97
  8
0
 62
     7
 10
116.53700000000001
 20
116.5559999999999
 30
0.0
 11
116.2639999999999
 21
116.82899999999999
 31
0.0
  0
LINE
  5
98
  8
0
 62
     7
 10
113.587
 20
120.449
 30
0.0
 11
112.95399999999989
 21
121.08199999999999
 31
0.0
  0
LINE
  5
99
  8
0
 62
     7
 10
113.587
 20
121.39100000000001
 30
0.0
 11
112.95399999999989
 21
122.02500000000001
 31
0.0
  0
LINE
  5
9A
  8
0
 62
     7
 10
113.587
 20
122.334
 30
0.0
 11
112.95399999999989
 21
122.967
 31
0.0
  0
LINE
  5
9B
  8
0
 62
     7
 10
113.587
 20
123.277
 30
0.0
 11
112.95399999999989
 21
123.91
 31
0.0
  0
LINE
  5
9C
  8
0
 62
     7
 10
113.587
 20
124.2199999999999
 30
0.0
 11
112.95399999999989
 21
124.85299999999989
 31
0.0
  0
LINE
  5
9D
  8
0
 62
     7
 10
113.587
 20
125.16200000000001
 30
0.0
 11
112.95399999999989
 21
125.79600000000001
 31
0.0
  0
LINE
  5
9E
  8
0
 62
     7
 10
113.587
 20
126.105
 30
0.0
 11
112.9639999999999
 21
126.729
 31
0.0
  0
LINE
  5
9F
  8
0
 62
     7
 10
112.962
 20
159.72799999999989
 30
0.0
 11
112.95399999999989
 21
159.73699999999991
 31
0.0
  0
LINE
  5
A0
  8
0
 62
     7
 10
113.586
 20
160.048
 30
0.0
 11
112.95399999999989
 21
160.67999999999989
 31
0.0
  0
LINE
  5
A1
  8
0
 62
     7
 10
113.587
 20
160.989
 30
0.0
 11
112.95399999999989
 21
161.62299999999991
 31
0.0
  0
LINE
  5
A2
  8
0
 62
     7
 10
113.587
 20
161.93199999999999
 30
0.0
 11
112.95399999999989
 21
162.565
 31
0.0
  0
LINE
  5
A3
  8
0
 62
     7
 10
113.587
 20
162.875
 30
0.0
 11
112.95399999999989
 21
163.5079999999999
 31
0.0
  0
LINE
  5
A4
  8
0
 62
     7
 10
113.587
 20
163.81700000000001
 30
0.0
 11
112.95399999999989
 21
164.45099999999991
 31
0.0
  0
LINE
  5
A5
  8
0
 62
     7
 10
113.587
 20
164.75999999999991
 30
0.0
 11
112.95399999999989
 21
165.39400000000001
 31
0.0
  0
LINE
  5
A6
  8
0
 62
     7
 10
113.587
 20
165.70299999999989
 30
0.0
 11
112.95399999999989
 21
166.3359999999999
 31
0.0
  0
LINE
  5
A7
  8
0
 62
     7
 10
113.587
 20
166.6459999999999
 30
0.0
 11
112.95399999999989
 21
167.279
 31
0.0
  0
LINE
  5
A8
  8
0
 62
     7
 10
113.587
 20
167.589
 30
0.0
 11
112.95399999999989
 21
168.22200000000001
 31
0.0
  0
LINE
  5
A9
  8
0
 62
     7
 10
113.587
 20
168.53200000000001
 30
0.0
 11
112.95399999999989
 21
169.16499999999991
 31
0.0
  0
LINE
  5
AA
  8
0
 62
     7
 10
113.587
 20
169.47399999999999
 30
0.0
 11
112.95399999999989
 21
170.108
 31
0.0
  0
LINE
  5
AB
  8
0
 62
     7
 10
114.376
 20
169.6279999999999
 30
0.0
 11
112.95399999999989
 21
171.05000000000001
 31
0.0
  0
LINE
  5
AC
  8
0
 62
     7
 10
115.318
 20
169.6279999999999
 30
0.0
 11
113.39099999999991
 21
171.5559999999999
 31
0.0
  0
LINE
  5
AD
  8
0
 62
     7
 10
116.2619999999999
 20
169.6279999999999
 30
0.0
 11
114.0929999999999
 21
171.79599999999991
 31
0.0
  0
LINE
  5
AE
  8
0
 62
     7
 10
115.27200000000001
 20
171.56099999999989
 30
0.0
 11
114.25399999999991
 21
172.57900000000001
 31
0.0
  0
LINE
  5
AF
  8
0
 62
     7
 10
116.53700000000001
 20
170.29599999999999
 30
0.0
 11
116.20399999999989
 21
170.62899999999999
 31
0.0
  0
LINE
  5
B0
  8
0
 62
     7
 10
115.2549999999999
 20
172.52000000000001
 30
0.0
 11
114.25399999999991
 21
173.52199999999999
 31
0.0
  0
LINE
  5
B1
  8
0
 62
     7
 10
115.239
 20
173.47900000000001
 30
0.0
 11
114.25399999999991
 21
174.465
 31
0.0
  0
LINE
  5
B2
  8
0
 62
     7
 10
115.223
 20
174.4379999999999
 30
0.0
 11
114.25399999999991
 21
175.40700000000001
 31
0.0
  0
LINE
  5
B3
  8
0
 62
     7
 10
117.321
 20
177.322
 30
0.0
 11
118.06
 21
178.06200000000001
 31
0.0
  0
LINE
  5
B4
  8
0
 62
     7
 10
117.321
 20
176.37899999999999
 30
0.0
 11
118.554
 21
177.613
 31
0.0
  0
LINE
  5
B5
  8
0
 62
     7
 10
117.321
 20
175.43700000000001
 30
0.0
 11
118.554
 21
176.6699999999999
 31
0.0
  0
LINE
  5
B6
  8
0
 62
     7
 10
117.321
 20
174.494
 30
0.0
 11
118.554
 21
175.727
 31
0.0
  0
LINE
  5
B7
  8
0
 62
     7
 10
117.321
 20
173.5509999999999
 30
0.0
 11
118.554
 21
174.78399999999999
 31
0.0
  0
LINE
  5
B8
  8
0
 62
     7
 10
117.321
 20
172.608
 30
0.0
 11
118.554
 21
173.84200000000001
 31
0.0
  0
LINE
  5
B9
  8
0
 62
     7
 10
117.321
 20
171.666
 30
0.0
 11
118.554
 21
172.899
 31
0.0
  0
LINE
  5
BA
  8
0
 62
     7
 10
117.321
 20
170.7229999999999
 30
0.0
 11
118.554
 21
171.9559999999999
 31
0.0
  0
LINE
  5
BB
  8
0
 62
     7
 10
115.4039999999999
 20
168.8059999999999
 30
0.0
 11
116.227
 21
169.6279999999999
 31
0.0
  0
LINE
  5
BC
  8
0
 62
     7
 10
115.836
 20
168.2949999999999
 30
0.0
 11
118.554
 21
171.01300000000001
 31
0.0
  0
LINE
  5
BD
  8
0
 62
     7
 10
116.77800000000001
 20
168.2949999999999
 30
0.0
 11
118.554
 21
170.06999999999991
 31
0.0
  0
LINE
  5
BE
  8
0
 62
     7
 10
117.721
 20
168.2949999999999
 30
0.0
 11
118.554
 21
169.1279999999999
 31
0.0
  0
LINE
  5
BF
  8
0
 62
     7
 10
116.52500000000001
 20
171.56200000000001
 30
0.0
 11
115.45099999999999
 21
173.423
 31
0.0
  0
LINE
  5
C0
  8
0
 62
     7
 10
116.554
 20
172.845
 30
0.0
 11
115.42700000000001
 21
174.797
 31
0.0
  0
LINE
  5
C1
  8
0
 62
     7
 10
116.554
 20
174.178
 30
0.0
 11
115.402
 21
176.17199999999991
 31
0.0
  0
LINE
  5
C2
  8
0
 62
     7
 10
116.554
 20
175.51099999999991
 30
0.0
 11
115.3779999999999
 21
177.547
 31
0.0
  0
LINE
  5
C3
  8
0
 62
     7
 10
116.554
 20
176.845
 30
0.0
 11
115.354
 21
178.922
 31
0.0
  0
LINE
  5
C4
  8
0
 62
     7
 10
114.59999999999989
 20
181.56200000000001
 30
0.0
 11
113.95399999999989
 21
182.6809999999999
 31
0.0
  0
LINE
  5
C5
  8
0
 62
     7
 10
116.554
 20
178.17799999999991
 30
0.0
 11
115.3299999999999
 21
180.297
 31
0.0
  0
LINE
  5
C6
  8
0
 62
     7
 10
116.554
 20
179.511
 30
0.0
 11
113.95399999999989
 21
184.0149999999999
 31
0.0
  0
LINE
  5
C7
  8
0
 62
     7
 10
116.554
 20
180.845
 30
0.0
 11
113.95399999999989
 21
185.3479999999999
 31
0.0
  0
LINE
  5
C8
  8
0
 62
     7
 10
115.126
 20
184.6509999999999
 30
0.0
 11
113.95399999999989
 21
186.6809999999999
 31
0.0
  0
LINE
  5
C9
  8
0
 62
     7
 10
116.88500000000001
 20
181.60400000000001
 30
0.0
 11
116.15899999999991
 21
182.86199999999991
 31
0.0
  0
LINE
  5
CA
  8
0
 62
     7
 10
115.102
 20
186.0259999999999
 30
0.0
 11
113.95399999999989
 21
188.01499999999999
 31
0.0
  0
LINE
  5
CB
  8
0
 62
     7
 10
117.5079999999999
 20
181.85900000000001
 30
0.0
 11
116.9289999999999
 21
182.86199999999991
 31
0.0
  0
LINE
  5
CC
  8
0
 62
     7
 10
115.0779999999999
 20
187.4009999999999
 30
0.0
 11
113.95399999999989
 21
189.3479999999999
 31
0.0
  0
LINE
  5
CD
  8
0
 62
     7
 10
118.276
 20
181.86199999999991
 30
0.0
 11
117.6989999999999
 21
182.86199999999991
 31
0.0
  0
LINE
  5
CE
  8
0
 62
     7
 10
115.054
 20
188.7759999999999
 30
0.0
 11
113.95399999999989
 21
190.68199999999999
 31
0.0
  0
LINE
  5
CF
  8
0
 62
     7
 10
119.04600000000001
 20
181.86199999999991
 30
0.0
 11
118.46899999999999
 21
182.86199999999991
 31
0.0
  0
LINE
  5
D0
  8
0
 62
     7
 10
115.03
 20
190.1509999999999
 30
0.0
 11
113.95399999999989
 21
192.0149999999999
 31
0.0
  0
LINE
  5
D1
  8
0
 62
     7
 10
119.816
 20
181.86199999999991
 30
0.0
 11
119.2379999999999
 21
182.86199999999991
 31
0.0
  0
LINE
  5
D2
  8
0
 62
     7
 10
115.006
 20
191.5259999999999
 30
0.0
 11
113.95399999999989
 21
193.3479999999999
 31
0.0
  0
LINE
  5
D3
  8
0
 62
     7
 10
120.58499999999989
 20
181.86199999999991
 30
0.0
 11
120.008
 21
182.86199999999991
 31
0.0
  0
LINE
  5
D4
  8
0
 62
     7
 10
114.982
 20
192.9009999999999
 30
0.0
 11
113.95399999999989
 21
194.68199999999999
 31
0.0
  0
LINE
  5
D5
  8
0
 62
     7
 10
121.35599999999999
 20
181.86199999999991
 30
0.0
 11
120.77799999999991
 21
182.86199999999991
 31
0.0
  0
LINE
  5
D6
  8
0
 62
     7
 10
114.958
 20
194.2759999999999
 30
0.0
 11
113.95399999999989
 21
196.0149999999999
 31
0.0
  0
LINE
  5
D7
  8
0
 62
     7
 10
122.1249999999999
 20
181.86199999999991
 30
0.0
 11
121.5479999999999
 21
182.86199999999991
 31
0.0
  0
LINE
  5
D8
  8
0
 62
     7
 10
114.934
 20
195.65000000000001
 30
0.0
 11
113.95399999999989
 21
197.3479999999999
 31
0.0
  0
LINE
  5
D9
  8
0
 62
     7
 10
122.8949999999999
 20
181.86199999999991
 30
0.0
 11
122.3179999999999
 21
182.86199999999991
 31
0.0
  0
LINE
  5
DA
  8
0
 62
     7
 10
114.91
 20
197.02500000000001
 30
0.0
 11
113.95399999999989
 21
198.68100000000001
 31
0.0
  0
LINE
  5
DB
  8
0
 62
     7
 10
123.66500000000001
 20
181.86199999999991
 30
0.0
 11
123.087
 21
182.86199999999991
 31
0.0
  0
LINE
  5
DC
  8
0
 62
     7
 10
114.886
 20
198.40000000000001
 30
0.0
 11
113.95399999999989
 21
200.01499999999999
 31
0.0
  0
LINE
  5
DD
  8
0
 62
     7
 10
124.43000000000001
 20
181.869
 30
0.0
 11
123.857
 21
182.86199999999991
 31
0.0
  0
LINE
  5
DE
  8
0
 62
     7
 10
114.86199999999999
 20
199.77500000000001
 30
0.0
 11
113.95399999999989
 21
201.3479999999999
 31
0.0
  0
LINE
  5
DF
  8
0
 62
     7
 10
125.12
 20
182.00700000000001
 30
0.0
 11
124.6149999999999
 21
182.88200000000001
 31
0.0
  0
LINE
  5
E0
  8
0
 62
     7
 10
114.83799999999989
 20
201.15000000000001
 30
0.0
 11
113.95399999999989
 21
202.6809999999999
 31
0.0
  0
LINE
  5
E1
  8
0
 62
     7
 10
125.721
 20
182.29900000000001
 30
0.0
 11
125.247
 21
183.12200000000001
 31
0.0
  0
LINE
  5
E2
  8
0
 62
     7
 10
114.81399999999989
 20
202.52500000000001
 30
0.0
 11
113.95399999999989
 21
204.0149999999999
 31
0.0
  0
LINE
  5
E3
  8
0
 62
     7
 10
126.235
 20
182.744
 30
0.0
 11
125.739
 21
183.60299999999989
 31
0.0
  0
LINE
  5
E4
  8
0
 62
     7
 10
126.649
 20
183.35900000000001
 30
0.0
 11
126.017
 21
184.45400000000001
 31
0.0
  0
LINE
  5
E5
  8
0
 62
     7
 10
126.90600000000001
 20
184.24700000000001
 30
0.0
 11
126.042
 21
185.744
 31
0.0
  0
LINE
  5
E6
  8
0
 62
     7
 10
126.9379999999999
 20
185.52500000000001
 30
0.0
 11
126.06399999999989
 21
187.0379999999999
 31
0.0
  0
LINE
  5
E7
  8
0
 62
     7
 10
126.9609999999999
 20
186.81899999999999
 30
0.0
 11
126.087
 21
188.33199999999991
 31
0.0
  0
LINE
  5
E8
  8
0
 62
     7
 10
126.98399999999999
 20
188.11299999999989
 30
0.0
 11
126.11
 21
189.62700000000001
 31
0.0
  0
LINE
  5
E9
  8
0
 62
     7
 10
127.0059999999999
 20
189.4079999999999
 30
0.0
 11
126.133
 21
190.92099999999991
 31
0.0
  0
LINE
  5
EA
  8
0
 62
     7
 10
127.0289999999999
 20
190.70199999999991
 30
0.0
 11
126.1549999999999
 21
192.215
 31
0.0
  0
LINE
  5
EB
  8
0
 62
     7
 10
127.051
 20
191.9959999999999
 30
0.0
 11
126.17700000000001
 21
193.50899999999999
 31
0.0
  0
LINE
  5
EC
  8
0
 62
     7
 10
127.0739999999999
 20
193.28999999999999
 30
0.0
 11
126.2
 21
194.80299999999991
 31
0.0
  0
LINE
  5
ED
  8
0
 62
     7
 10
127.09699999999999
 20
194.584
 30
0.0
 11
126.2229999999999
 21
196.0979999999999
 31
0.0
  0
LINE
  5
EE
  8
0
 62
     7
 10
127.119
 20
195.87899999999999
 30
0.0
 11
126.246
 21
197.39199999999991
 31
0.0
  0
LINE
  5
EF
  8
0
 62
     7
 10
127.14100000000001
 20
197.17299999999989
 30
0.0
 11
126.2679999999999
 21
198.68599999999989
 31
0.0
  0
LINE
  5
F0
  8
0
 62
     7
 10
127.164
 20
198.46700000000001
 30
0.0
 11
126.29000000000001
 21
199.97999999999999
 31
0.0
  0
LINE
  5
F1
  8
0
 62
     7
 10
127.187
 20
199.761
 30
0.0
 11
126.3129999999999
 21
201.27399999999989
 31
0.0
  0
LINE
  5
F2
  8
0
 62
     7
 10
127.20999999999999
 20
201.05500000000001
 30
0.0
 11
126.336
 21
202.5689999999999
 31
0.0
  0
LINE
  5
F3
  8
0
 62
     7
 10
127.232
 20
202.34899999999999
 30
0.0
 11
126.3589999999999
 21
203.86299999999989
 31
0.0
  0
LINE
  5
F4
  8
0
 62
     7
 10
126.14700000000001
 20
205.56200000000001
 30
0.0
 11
126.09399999999989
 21
205.654
 31
0.0
  0
LINE
  5
F5
  8
0
 62
     7
 10
127.376
 20
203.43199999999999
 30
0.0
 11
126.634
 21
204.72
 31
0.0
  0
LINE
  5
F6
  8
0
 62
     7
 10
126.917
 20
205.56200000000001
 30
0.0
 11
126.50099999999991
 21
206.28399999999999
 31
0.0
  0
LINE
  5
F7
  8
0
 62
     7
 10
128.05199999999999
 20
203.595
 30
0.0
 11
127.254
 21
204.97799999999989
 31
0.0
  0
LINE
  5
F8
  8
0
 62
     7
 10
128.4429999999999
 20
204.25200000000001
 30
0.0
 11
127.2049999999999
 21
206.39500000000001
 31
0.0
  0
LINE
  5
F9
  8
0
 62
     7
 10
128.54099999999991
 20
205.41399999999999
 30
0.0
 11
127.7549999999999
 21
206.77799999999991
 31
0.0
  0
LINE
  5
FA
  8
0
 62
     7
 10
128.64099999999991
 20
206.577
 30
0.0
 11
127.85299999999989
 21
207.94
 31
0.0
  0
LINE
  5
FB
  8
0
 62
     7
 10
128.739
 20
207.739
 30
0.0
 11
127.952
 21
209.10299999999989
 31
0.0
  0
LINE
  5
FC
  8
0
 62
     7
 10
128.83799999999991
 20
208.90100000000001
 30
0.0
 11
128.05099999999999
 21
210.2649999999999
 31
0.0
  0
LINE
  5
FD
  8
0
 62
     7
 10
128.93700000000001
 20
210.0629999999999
 30
0.0
 11
128.136
 21
211.4489999999999
 31
0.0
  0
LINE
  5
FE
  8
0
 62
     7
 10
129.024
 20
211.24499999999989
 30
0.0
 11
128.22200000000001
 21
212.63499999999991
 31
0.0
  0
LINE
  5
FF
  8
0
 62
     7
 10
129.10900000000001
 20
212.4309999999999
 30
0.0
 11
128.30699999999999
 21
213.822
 31
0.0
  0
LINE
  5
100
  8
0
 62
     7
 10
129.1939999999999
 20
213.61699999999999
 30
0.0
 11
128.39199999999991
 21
215.0079999999999
 31
0.0
  0
LINE
  5
101
  8
0
 62
     7
 10
129.27899999999991
 20
214.80299999999991
 30
0.0
 11
128.47699999999989
 21
216.19399999999999
 31
0.0
  0
LINE
  5
102
  8
0
 62
     7
 10
129.364
 20
215.9899999999999
 30
0.0
 11
128.56100000000001
 21
217.37999999999991
 31
0.0
  0
LINE
  5
103
  8
0
 62
     7
 10
129.4499999999999
 20
217.1759999999999
 30
0.0
 11
128.64699999999999
 21
218.56599999999989
 31
0.0
  0
LINE
  5
104
  8
0
 62
     7
 10
129.53399999999991
 20
218.36199999999991
 30
0.0
 11
128.732
 21
219.75200000000001
 31
0.0
  0
LINE
  5
105
  8
0
 62
     7
 10
129.61899999999989
 20
219.54799999999989
 30
0.0
 11
128.81700000000001
 21
220.9379999999999
 31
0.0
  0
LINE
  5
106
  8
0
 62
     7
 10
129.70500000000001
 20
220.73400000000001
 30
0.0
 11
128.90199999999999
 21
222.124
 31
0.0
  0
LINE
  5
107
  8
0
 62
     7
 10
129.7889999999999
 20
221.9199999999999
 30
0.0
 11
128.98699999999999
 21
223.30999999999989
 31
0.0
  0
LINE
  5
108
  8
0
 62
     7
 10
130.06399999999999
 20
222.77799999999999
 30
0.0
 11
129.20199999999991
 21
224.27199999999999
 31
0.0
  0
LINE
  5
109
  8
0
 62
     7
 10
130.489
 20
223.374
 30
0.0
 11
129.6339999999999
 21
224.85599999999991
 31
0.0
  0
LINE
  5
10A
  8
0
 62
     7
 10
131.00999999999999
 20
223.80500000000001
 30
0.0
 11
130.191
 21
225.22399999999999
 31
0.0
  0
LINE
  5
10B
  8
0
 62
     7
 10
131.61899999999989
 20
224.08500000000001
 30
0.0
 11
130.86600000000001
 21
225.38900000000001
 31
0.0
  0
LINE
  5
10C
  8
0
 62
     7
 10
132.31700000000001
 20
224.209
 30
0.0
 11
131.43000000000001
 21
225.74499999999989
 31
0.0
  0
LINE
  5
10D
  8
0
 62
     7
 10
132.756
 20
224.78099999999989
 30
0.0
 11
131.45400000000001
 21
227.03700000000001
 31
0.0
  0
LINE
  5
10E
  8
0
 62
     7
 10
133.245
 20
225.26900000000001
 30
0.0
 11
131.45400000000001
 21
228.37
 31
0.0
  0
LINE
  5
10F
  8
0
 62
     7
 10
133.28699999999989
 20
226.529
 30
0.0
 11
131.45400000000001
 21
229.70399999999989
 31
0.0
  0
LINE
  5
110
  8
0
 62
     7
 10
133.28699999999989
 20
227.86199999999999
 30
0.0
 11
131.45400000000001
 21
231.03700000000001
 31
0.0
  0
LINE
  5
111
  8
0
 62
     7
 10
133.28699999999989
 20
229.19499999999991
 30
0.0
 11
131.45400000000001
 21
232.3709999999999
 31
0.0
  0
LINE
  5
112
  8
0
 62
     7
 10
133.28699999999989
 20
230.52799999999991
 30
0.0
 11
131.63499999999991
 21
233.38900000000001
 31
0.0
  0
LINE
  5
113
  8
0
 62
     7
 10
132.71700000000001
 20
232.84999999999999
 30
0.0
 11
132.126
 21
233.874
 31
0.0
  0
LINE
  5
114
  8
0
 62
     7
 10
133.28699999999989
 20
231.86199999999999
 30
0.0
 11
133.1329999999999
 21
232.1279999999999
 31
0.0
  0
LINE
  5
115
  8
0
 62
     7
 10
133.35900000000001
 20
233.07099999999991
 30
0.0
 11
132.79199999999989
 21
234.05199999999999
 31
0.0
  0
LINE
  5
116
  8
0
 62
     7
 10
134.102
 20
233.11699999999999
 30
0.0
 11
133.5439999999999
 21
234.084
 31
0.0
  0
LINE
  5
117
  8
0
 62
     7
 10
134.84499999999991
 20
233.16399999999999
 30
0.0
 11
134.2949999999999
 21
234.1159999999999
 31
0.0
  0
LINE
  5
118
  8
0
 62
     7
 10
135.58699999999999
 20
233.21000000000001
 30
0.0
 11
135.047
 21
234.148
 31
0.0
  0
LINE
  5
119
  8
0
 62
     7
 10
136.33000000000001
 20
233.25700000000001
 30
0.0
 11
135.79799999999989
 21
234.18000000000001
 31
0.0
  0
LINE
  5
11A
  8
0
 62
     7
 10
136.94699999999989
 20
233.52199999999999
 30
0.0
 11
136.54900000000001
 21
234.2109999999999
 31
0.0
  0
LINE
  5
11B
  8
0
 62
     7
 10
107.28699999999991
 20
207.56200000000001
 30
0.0
 11
107.57599999999999
 21
208.06200000000001
 31
0.0
  0
LINE
  5
11C
  8
0
 62
     7
 10
107.9609999999999
 20
207.3949999999999
 30
0.0
 11
108.345
 21
208.06200000000001
 31
0.0
  0
LINE
  5
11D
  8
0
 62
     7
 10
108.73099999999999
 20
207.3949999999999
 30
0.0
 11
109.11499999999999
 21
208.06200000000001
 31
0.0
  0
LINE
  5
11E
  8
0
 62
     7
 10
109.4999999999999
 20
207.3949999999999
 30
0.0
 11
109.88500000000001
 21
208.06200000000001
 31
0.0
  0
LINE
  5
11F
  8
0
 62
     7
 10
110.27
 20
207.3949999999999
 30
0.0
 11
110.655
 21
208.06200000000001
 31
0.0
  0
LINE
  5
120
  8
0
 62
     7
 10
111.04000000000001
 20
207.3949999999999
 30
0.0
 11
111.4249999999999
 21
208.06200000000001
 31
0.0
  0
LINE
  5
121
  8
0
 62
     7
 10
111.81
 20
207.3949999999999
 30
0.0
 11
112.194
 21
208.06200000000001
 31
0.0
  0
LINE
  5
122
  8
0
 62
     7
 10
112.5799999999999
 20
207.3949999999999
 30
0.0
 11
112.965
 21
208.06200000000001
 31
0.0
  0
LINE
  5
123
  8
0
 62
     7
 10
113.3489999999999
 20
207.3949999999999
 30
0.0
 11
113.73399999999999
 21
208.06200000000001
 31
0.0
  0
LINE
  5
124
  8
0
 62
     7
 10
114.1189999999999
 20
207.3949999999999
 30
0.0
 11
114.50399999999991
 21
208.06200000000001
 31
0.0
  0
LINE
  5
125
  8
0
 62
     7
 10
114.8889999999999
 20
207.3949999999999
 30
0.0
 11
115.274
 21
208.06200000000001
 31
0.0
  0
LINE
  5
126
  8
0
 62
     7
 10
115.65900000000001
 20
207.3949999999999
 30
0.0
 11
116.0439999999999
 21
208.06200000000001
 31
0.0
  0
LINE
  5
127
  8
0
 62
     7
 10
116.4279999999999
 20
207.3949999999999
 30
0.0
 11
116.81399999999989
 21
208.06200000000001
 31
0.0
  0
LINE
  5
128
  8
0
 62
     7
 10
117.19799999999999
 20
207.3949999999999
 30
0.0
 11
117.5829999999999
 21
208.06200000000001
 31
0.0
  0
LINE
  5
129
  8
0
 62
     7
 10
117.9679999999999
 20
207.3949999999999
 30
0.0
 11
118.35299999999989
 21
208.06200000000001
 31
0.0
  0
LINE
  5
12A
  8
0
 62
     7
 10
118.738
 20
207.3949999999999
 30
0.0
 11
119.123
 21
208.06200000000001
 31
0.0
  0
LINE
  5
12B
  8
0
 62
     7
 10
119.5079999999999
 20
207.3949999999999
 30
0.0
 11
119.8929999999999
 21
208.06200000000001
 31
0.0
  0
LINE
  5
12C
  8
0
 62
     7
 10
120.26299999999991
 20
207.37
 30
0.0
 11
120.6139999999999
 21
207.97799999999989
 31
0.0
  0
LINE
  5
12D
  8
0
 62
     7
 10
120.907
 20
207.15199999999999
 30
0.0
 11
121.2409999999999
 21
207.73099999999991
 31
0.0
  0
LINE
  5
12E
  8
0
 62
     7
 10
121.43600000000001
 20
206.7359999999999
 30
0.0
 11
121.7829999999999
 21
207.33500000000001
 31
0.0
  0
LINE
  5
12F
  8
0
 62
     7
 10
121.831
 20
206.0859999999999
 30
0.0
 11
122.23099999999999
 21
206.78
 31
0.0
  0
LINE
  5
130
  8
0
 62
     7
 10
121.95399999999999
 20
204.965
 30
0.0
 11
122.55
 21
205.999
 31
0.0
  0
LINE
  5
131
  8
0
 62
     7
 10
121.95399999999999
 20
203.63199999999989
 30
0.0
 11
122.97199999999999
 21
205.3949999999999
 31
0.0
  0
LINE
  5
132
  8
0
 62
     7
 10
121.95399999999999
 20
202.29900000000001
 30
0.0
 11
123.7419999999999
 21
205.3949999999999
 31
0.0
  0
LINE
  5
133
  8
0
 62
     7
 10
121.95399999999999
 20
200.965
 30
0.0
 11
124.511
 21
205.3949999999999
 31
0.0
  0
LINE
  5
134
  8
0
 62
     7
 10
121.95399999999999
 20
199.63200000000001
 30
0.0
 11
125.28099999999991
 21
205.3949999999999
 31
0.0
  0
LINE
  5
135
  8
0
 62
     7
 10
125.6659999999999
 20
204.72900000000001
 30
0.0
 11
126.051
 21
205.3949999999999
 31
0.0
  0
LINE
  5
136
  8
0
 62
     7
 10
121.95399999999999
 20
198.29900000000001
 30
0.0
 11
125.621
 21
204.64899999999989
 31
0.0
  0
LINE
  5
137
  8
0
 62
     7
 10
126.43600000000001
 20
204.72900000000001
 30
0.0
 11
126.821
 21
205.3949999999999
 31
0.0
  0
LINE
  5
138
  8
0
 62
     7
 10
121.95399999999999
 20
196.965
 30
0.0
 11
125.621
 21
203.31599999999989
 31
0.0
  0
LINE
  5
139
  8
0
 62
     7
 10
127.2049999999999
 20
204.72900000000001
 30
0.0
 11
127.254
 21
204.8119999999999
 31
0.0
  0
LINE
  5
13A
  8
0
 62
     7
 10
123.577
 20
198.44399999999999
 30
0.0
 11
125.621
 21
201.983
 31
0.0
  0
LINE
  5
13B
  8
0
 62
     7
 10
121.95399999999999
 20
195.63200000000001
 30
0.0
 11
122.621
 21
196.78699999999989
 31
0.0
  0
LINE
  5
13C
  8
0
 62
     7
 10
121.95399999999999
 20
194.29900000000001
 30
0.0
 11
122.621
 21
195.453
 31
0.0
  0
LINE
  5
13D
  8
0
 62
     7
 10
121.95399999999999
 20
192.965
 30
0.0
 11
122.621
 21
194.12
 31
0.0
  0
LINE
  5
13E
  8
0
 62
     7
 10
121.95399999999999
 20
191.63199999999989
 30
0.0
 11
122.621
 21
192.78700000000001
 31
0.0
  0
LINE
  5
13F
  8
0
 62
     7
 10
121.95399999999999
 20
190.298
 30
0.0
 11
122.621
 21
191.453
 31
0.0
  0
LINE
  5
140
  8
0
 62
     7
 10
121.95399999999999
 20
188.96499999999989
 30
0.0
 11
122.621
 21
190.12
 31
0.0
  0
LINE
  5
141
  8
0
 62
     7
 10
121.95399999999999
 20
187.63199999999989
 30
0.0
 11
122.621
 21
188.78700000000001
 31
0.0
  0
LINE
  5
142
  8
0
 62
     7
 10
122.06100000000001
 20
186.48299999999989
 30
0.0
 11
122.621
 21
187.453
 31
0.0
  0
LINE
  5
143
  8
0
 62
     7
 10
107.28699999999991
 20
233.45899999999989
 30
0.0
 11
107.636
 21
233.66
 31
0.0
  0
LINE
  5
144
  8
0
 62
     7
 10
108.501
 20
233.38900000000001
 30
0.0
 11
108.9579999999999
 21
233.654
 31
0.0
  0
LINE
  5
145
  8
0
 62
     7
 10
109.8219999999999
 20
233.38200000000001
 30
0.0
 11
110.271
 21
233.64099999999991
 31
0.0
  0
LINE
  5
146
  8
0
 62
     7
 10
111.1159999999999
 20
233.36000000000001
 30
0.0
 11
111.565
 21
233.619
 31
0.0
  0
LINE
  5
147
  8
0
 62
     7
 10
112.40900000000001
 20
233.3359999999999
 30
0.0
 11
112.8479999999999
 21
233.59
 31
0.0
  0
LINE
  5
148
  8
0
 62
     7
 10
113.6789999999999
 20
233.30000000000001
 30
0.0
 11
114.11799999999999
 21
233.55299999999991
 31
0.0
  0
LINE
  5
149
  8
0
 62
     7
 10
114.94499999999989
 20
233.26099999999991
 30
0.0
 11
115.377
 21
233.51099999999991
 31
0.0
  0
LINE
  5
14A
  8
0
 62
     7
 10
116.1909999999999
 20
233.2109999999999
 30
0.0
 11
116.62299999999991
 21
233.46000000000001
 31
0.0
  0
LINE
  5
14B
  8
0
 62
     7
 10
117.4339999999999
 20
233.1579999999999
 30
0.0
 11
117.857
 21
233.40299999999991
 31
0.0
  0
LINE
  5
14C
  8
0
 62
     7
 10
118.6549999999999
 20
233.09399999999999
 30
0.0
 11
119.07899999999999
 21
233.33799999999999
 31
0.0
  0
LINE
  5
14D
  8
0
 62
     7
 10
119.867
 20
233.02299999999991
 30
0.0
 11
120.17700000000001
 21
233.20199999999991
 31
0.0
  0
LINE
  5
14E
  8
0
 62
     7
 10
120.401
 20
232.56200000000001
 30
0.0
 11
120.6329999999999
 21
232.696
 31
0.0
  0
LINE
  5
14F
  8
0
 62
     7
 10
120.476
 20
231.8359999999999
 30
0.0
 11
120.73099999999999
 21
231.983
 31
0.0
  0
LINE
  5
150
  8
0
 62
     7
 10
120.541
 20
231.10299999999989
 30
0.0
 11
120.795
 21
231.25
 31
0.0
  0
LINE
  5
151
  8
0
 62
     7
 10
120.605
 20
230.3709999999999
 30
0.0
 11
120.86
 21
230.51699999999991
 31
0.0
  0
LINE
  5
152
  8
0
 62
     7
 10
126.983
 20
233.2829999999999
 30
0.0
 11
127.46599999999999
 21
233.56200000000001
 31
0.0
  0
LINE
  5
153
  8
0
 62
     7
 10
126.0029999999999
 20
232.71700000000001
 30
0.0
 11
126.583
 21
233.05199999999999
 31
0.0
  0
LINE
  5
154
  8
0
 62
     7
 10
120.669
 20
229.63800000000001
 30
0.0
 11
120.92399999999989
 21
229.78499999999991
 31
0.0
  0
LINE
  5
155
  8
0
 62
     7
 10
128.33799999999991
 20
233.2949999999999
 30
0.0
 11
128.79900000000001
 21
233.56200000000001
 31
0.0
  0
LINE
  5
156
  8
0
 62
     7
 10
125.04299999999991
 20
231.393
 30
0.0
 11
125.6099999999999
 21
231.72
 31
0.0
  0
LINE
  5
157
  8
0
 62
     7
 10
120.825
 20
228.95799999999991
 30
0.0
 11
121.056
 21
229.09099999999989
 31
0.0
  0
LINE
  5
158
  8
0
 62
     7
 10
129.67099999999999
 20
233.2949999999999
 30
0.0
 11
130.13200000000001
 21
233.56200000000001
 31
0.0
  0
LINE
  5
159
  8
0
 62
     7
 10
124.083
 20
230.06899999999999
 30
0.0
 11
124.65000000000001
 21
230.39599999999999
 31
0.0
  0
LINE
  5
15A
  8
0
 62
     7
 10
121.381
 20
228.50899999999999
 30
0.0
 11
121.761
 21
228.72799999999989
 31
0.0
  0
LINE
  5
15B
  8
0
 62
     7
 10
130.7359999999999
 20
233.1399999999999
 30
0.0
 11
130.98099999999991
 21
233.28099999999989
 31
0.0
  0
LINE
  5
15C
  8
0
 62
     7
 10
122.672
 20
228.48500000000001
 30
0.0
 11
123.676
 21
229.06499999999991
 31
0.0
  0
LINE
  5
15D
  8
0
 62
     7
 10
131.018
 20
232.53399999999999
 30
0.0
 11
131.27999999999989
 21
232.68499999999989
 31
0.0
  0
LINE
  5
15E
  8
0
 62
     7
 10
130.96299999999999
 20
231.732
 30
0.0
 11
131.24199999999999
 21
231.89299999999989
 31
0.0
  0
LINE
  5
15F
  8
0
 62
     7
 10
130.905
 20
230.928
 30
0.0
 11
131.18399999999991
 21
231.09
 31
0.0
  0
LINE
  5
160
  8
0
 62
     7
 10
130.84700000000001
 20
230.125
 30
0.0
 11
131.126
 21
230.28599999999989
 31
0.0
  0
LINE
  5
161
  8
0
 62
     7
 10
130.7889999999999
 20
229.322
 30
0.0
 11
131.0679999999999
 21
229.483
 31
0.0
  0
LINE
  5
162
  8
0
 62
     7
 10
130.73099999999991
 20
228.51900000000001
 30
0.0
 11
131.00999999999999
 21
228.67999999999989
 31
0.0
  0
LINE
  5
163
  8
0
 62
     7
 10
133.12100000000001
 20
232.71999999999991
 30
0.0
 11
133.4679999999999
 21
233.06800000000001
 31
0.0
  0
LINE
  5
164
  8
0
 62
     7
 10
133.12100000000001
 20
231.77699999999999
 30
0.0
 11
134.4799999999999
 21
233.137
 31
0.0
  0
LINE
  5
165
  8
0
 62
     7
 10
128.77199999999999
 20
227.428
 30
0.0
 11
129.12299999999991
 21
227.78
 31
0.0
  0
LINE
  5
166
  8
0
 62
     7
 10
133.614
 20
231.328
 30
0.0
 11
135.49299999999991
 21
233.20699999999991
 31
0.0
  0
LINE
  5
167
  8
0
 62
     7
 10
129.71399999999991
 20
227.428
 30
0.0
 11
130.136
 21
227.84999999999999
 31
0.0
  0
LINE
  5
168
  8
0
 62
     7
 10
129.18100000000001
 20
226.89500000000001
 30
0.0
 11
129.58099999999999
 21
227.2949999999999
 31
0.0
  0
LINE
  5
169
  8
0
 62
     7
 10
134.55699999999999
 20
231.328
 30
0.0
 11
136.81
 21
233.5809999999999
 31
0.0
  0
LINE
  5
16A
  8
0
 62
     7
 10
130.12299999999991
 20
226.89500000000001
 30
0.0
 11
131.04900000000001
 21
227.81999999999999
 31
0.0
  0
LINE
  5
16B
  8
0
 62
     7
 10
135.49999999999989
 20
231.328
 30
0.0
 11
136.64599999999999
 21
232.47499999999991
 31
0.0
  0
LINE
  5
16C
  8
0
 62
     7
 10
133.45400000000001
 20
228.339
 30
0.0
 11
134.34
 21
229.226
 31
0.0
  0
LINE
  5
16D
  8
0
 62
     7
 10
133.45400000000001
 20
227.39699999999999
 30
0.0
 11
135.28700000000001
 21
229.22999999999999
 31
0.0
  0
LINE
  5
16E
  8
0
 62
     7
 10
133.45400000000001
 20
226.45400000000001
 30
0.0
 11
135.80199999999999
 21
228.80199999999999
 31
0.0
  0
LINE
  5
16F
  8
0
 62
     7
 10
135.827
 20
227.88399999999999
 30
0.0
 11
137.11999999999989
 21
229.178
 31
0.0
  0
LINE
  5
170
  8
0
 62
     7
 10
133.45400000000001
 20
225.511
 30
0.0
 11
134.37100000000001
 21
226.42799999999991
 31
0.0
  0
LINE
  5
171
  8
0
 62
     7
 10
136.86600000000001
 20
227.98099999999991
 30
0.0
 11
137.1109999999999
 21
228.22499999999991
 31
0.0
  0
LINE
  5
172
  8
0
 62
     7
 10
133.45400000000001
 20
224.5679999999999
 30
0.0
 11
134.37100000000001
 21
225.48500000000001
 31
0.0
  0
LINE
  5
173
  8
0
 62
     7
 10
133.45400000000001
 20
223.625
 30
0.0
 11
134.33000000000001
 21
224.50200000000001
 31
0.0
  0
LINE
  5
174
  8
0
 62
     7
 10
115.28700000000001
 20
173.40299999999991
 30
0.0
 11
115.44799999999989
 21
173.56399999999999
 31
0.0
  0
LINE
  5
175
  8
0
 62
     7
 10
115.28700000000001
 20
172.46100000000001
 30
0.0
 11
115.6429999999999
 21
172.81700000000001
 31
0.0
  0
LINE
  5
176
  8
0
 62
     7
 10
115.28700000000001
 20
171.518
 30
0.0
 11
115.941
 21
172.17099999999991
 31
0.0
  0
LINE
  5
177
  8
0
 62
     7
 10
115.3399999999999
 20
170.62899999999999
 30
0.0
 11
116.274
 21
171.56200000000001
 31
0.0
  0
LINE
  5
178
  8
0
 62
     7
 10
116.28399999999991
 20
170.62899999999999
 30
0.0
 11
116.45399999999989
 21
170.79900000000001
 31
0.0
  0
LINE
  5
179
  8
0
 62
     7
 10
115.28700000000001
 20
114.9489999999999
 30
0.0
 11
116.1669999999999
 21
115.82899999999999
 31
0.0
  0
LINE
  5
17A
  8
0
 62
     7
 10
115.28700000000001
 20
114.00700000000001
 30
0.0
 11
116.45399999999989
 21
115.1729999999999
 31
0.0
  0
LINE
  5
17B
  8
0
 62
     7
 10
115.28700000000001
 20
113.06399999999989
 30
0.0
 11
115.40899999999991
 21
113.18600000000001
 31
0.0
  0
LINE
  5
17C
  8
0
 62
     7
 10
116.027
 20
95.562000000000026
 30
0.0
 11
107.277
 21
95.562000000000026
 31
0.0
  0
LINE
  5
17D
  8
0
 62
     7
 10
107.277
 20
95.562000000000026
 30
0.0
 11
107.277
 21
95.228599999999986
 31
0.0
  0
LINE
  5
17E
  8
0
 62
     7
 10
116.3599999999999
 20
95.895499999999998
 30
0.0
 11
116.355
 21
95.837299999999999
 31
0.0
  0
LINE
  5
17F
  8
0
 62
     7
 10
116.355
 20
95.837299999999999
 30
0.0
 11
116.3399999999999
 21
95.781499999999994
 31
0.0
  0
LINE
  5
180
  8
0
 62
     7
 10
116.3399999999999
 20
95.781499999999994
 30
0.0
 11
116.3149999999999
 21
95.728399999999993
 31
0.0
  0
LINE
  5
181
  8
0
 62
     7
 10
116.3149999999999
 20
95.728399999999993
 30
0.0
 11
116.282
 21
95.680899999999994
 31
0.0
  0
LINE
  5
182
  8
0
 62
     7
 10
116.282
 20
95.680899999999994
 30
0.0
 11
116.2409999999999
 21
95.639899999999997
 31
0.0
  0
LINE
  5
183
  8
0
 62
     7
 10
116.2409999999999
 20
95.639899999999997
 30
0.0
 11
116.1929999999999
 21
95.606499999999997
 31
0.0
  0
LINE
  5
184
  8
0
 62
     7
 10
116.1929999999999
 20
95.606499999999997
 30
0.0
 11
116.1399999999999
 21
95.582000000000008
 31
0.0
  0
LINE
  5
185
  8
0
 62
     7
 10
116.1399999999999
 20
95.582000000000008
 30
0.0
 11
116.08499999999989
 21
95.5672
 31
0.0
  0
LINE
  5
186
  8
0
 62
     7
 10
116.08499999999989
 20
95.5672
 30
0.0
 11
116.027
 21
95.562000000000026
 31
0.0
  0
LINE
  5
187
  8
0
 62
     7
 10
116.3599999999999
 20
103.2289999999999
 30
0.0
 11
116.3599999999999
 21
95.895499999999998
 31
0.0
  0
LINE
  5
188
  8
0
 62
     7
 10
117.026
 20
103.895
 30
0.0
 11
116.911
 21
103.88500000000001
 31
0.0
  0
LINE
  5
189
  8
0
 62
     7
 10
116.911
 20
103.88500000000001
 30
0.0
 11
116.7979999999999
 21
103.855
 31
0.0
  0
LINE
  5
18A
  8
0
 62
     7
 10
116.7979999999999
 20
103.855
 30
0.0
 11
116.693
 21
103.8059999999999
 31
0.0
  0
LINE
  5
18B
  8
0
 62
     7
 10
116.693
 20
103.8059999999999
 30
0.0
 11
116.598
 21
103.7389999999999
 31
0.0
  0
LINE
  5
18C
  8
0
 62
     7
 10
116.598
 20
103.7389999999999
 30
0.0
 11
116.51599999999991
 21
103.657
 31
0.0
  0
LINE
  5
18D
  8
0
 62
     7
 10
116.51599999999991
 20
103.657
 30
0.0
 11
116.449
 21
103.562
 31
0.0
  0
LINE
  5
18E
  8
0
 62
     7
 10
116.449
 20
103.562
 30
0.0
 11
116.40000000000001
 21
103.45699999999989
 31
0.0
  0
LINE
  5
18F
  8
0
 62
     7
 10
116.40000000000001
 20
103.45699999999989
 30
0.0
 11
116.37
 21
103.3449999999999
 31
0.0
  0
LINE
  5
190
  8
0
 62
     7
 10
116.37
 20
103.3449999999999
 30
0.0
 11
116.3599999999999
 21
103.2289999999999
 31
0.0
  0
LINE
  5
191
  8
0
 62
     7
 10
117.178
 20
103.895
 30
0.0
 11
117.026
 21
103.895
 31
0.0
  0
LINE
  5
192
  8
0
 62
     7
 10
117.345
 20
103.73
 30
0.0
 11
117.34099999999999
 21
103.7619999999999
 31
0.0
  0
LINE
  5
193
  8
0
 62
     7
 10
117.34099999999999
 20
103.7619999999999
 30
0.0
 11
117.33199999999999
 21
103.79300000000001
 31
0.0
  0
LINE
  5
194
  8
0
 62
     7
 10
117.33199999999999
 20
103.79300000000001
 30
0.0
 11
117.3159999999999
 21
103.822
 31
0.0
  0
LINE
  5
195
  8
0
 62
     7
 10
117.3159999999999
 20
103.822
 30
0.0
 11
117.2949999999999
 21
103.84699999999999
 31
0.0
  0
LINE
  5
196
  8
0
 62
     7
 10
117.2949999999999
 20
103.84699999999999
 30
0.0
 11
117.27
 21
103.86799999999999
 31
0.0
  0
LINE
  5
197
  8
0
 62
     7
 10
117.27
 20
103.86799999999999
 30
0.0
 11
117.2409999999999
 21
103.8829999999999
 31
0.0
  0
LINE
  5
198
  8
0
 62
     7
 10
117.2409999999999
 20
103.8829999999999
 30
0.0
 11
117.20999999999989
 21
103.892
 31
0.0
  0
LINE
  5
199
  8
0
 62
     7
 10
117.20999999999989
 20
103.892
 30
0.0
 11
117.178
 21
103.895
 31
0.0
  0
LINE
  5
19A
  8
0
 62
     7
 10
117.4079999999999
 20
96.225899999999996
 30
0.0
 11
117.345
 21
103.73
 31
0.0
  0
LINE
  5
19B
  8
0
 62
     7
 10
117.73999999999999
 20
95.895499999999998
 30
0.0
 11
117.676
 21
95.901700000000005
 31
0.0
  0
LINE
  5
19C
  8
0
 62
     7
 10
117.676
 20
95.901700000000005
 30
0.0
 11
117.6139999999999
 21
95.920299999999983
 31
0.0
  0
LINE
  5
19D
  8
0
 62
     7
 10
117.6139999999999
 20
95.920299999999983
 30
0.0
 11
117.5559999999999
 21
95.950999999999993
 31
0.0
  0
LINE
  5
19E
  8
0
 62
     7
 10
117.5559999999999
 20
95.950999999999993
 30
0.0
 11
117.5059999999999
 21
95.992000000000004
 31
0.0
  0
LINE
  5
19F
  8
0
 62
     7
 10
117.5059999999999
 20
95.992000000000004
 30
0.0
 11
117.4649999999999
 21
96.041899999999998
 31
0.0
  0
LINE
  5
1A0
  8
0
 62
     7
 10
117.4649999999999
 20
96.041899999999998
 30
0.0
 11
117.4339999999999
 21
96.099100000000007
 31
0.0
  0
LINE
  5
1A1
  8
0
 62
     7
 10
117.4339999999999
 20
96.099100000000007
 30
0.0
 11
117.4139999999999
 21
96.161100000000005
 31
0.0
  0
LINE
  5
1A2
  8
0
 62
     7
 10
117.4139999999999
 20
96.161100000000005
 30
0.0
 11
117.4079999999999
 21
96.225899999999996
 31
0.0
  0
LINE
  5
1A3
  8
0
 62
     7
 10
117.7769999999999
 20
95.895499999999998
 30
0.0
 11
117.73999999999999
 21
95.895499999999998
 31
0.0
  0
LINE
  5
1A4
  8
0
 62
     7
 10
118.276
 20
95.395300000000006
 30
0.0
 11
118.267
 21
95.492800000000017
 31
0.0
  0
LINE
  5
1A5
  8
0
 62
     7
 10
118.267
 20
95.492800000000017
 30
0.0
 11
118.2379999999999
 21
95.586500000000001
 31
0.0
  0
LINE
  5
1A6
  8
0
 62
     7
 10
118.2379999999999
 20
95.586500000000001
 30
0.0
 11
118.19199999999999
 21
95.673299999999998
 31
0.0
  0
LINE
  5
1A7
  8
0
 62
     7
 10
118.19199999999999
 20
95.673299999999998
 30
0.0
 11
118.13
 21
95.748800000000003
 31
0.0
  0
LINE
  5
1A8
  8
0
 62
     7
 10
118.13
 20
95.748800000000003
 30
0.0
 11
118.05499999999989
 21
95.811099999999996
 31
0.0
  0
LINE
  5
1A9
  8
0
 62
     7
 10
118.05499999999989
 20
95.811099999999996
 30
0.0
 11
117.9679999999999
 21
95.857299999999995
 31
0.0
  0
LINE
  5
1AA
  8
0
 62
     7
 10
117.9679999999999
 20
95.857299999999995
 30
0.0
 11
117.8739999999999
 21
95.885900000000007
 31
0.0
  0
LINE
  5
1AB
  8
0
 62
     7
 10
117.8739999999999
 20
95.885900000000007
 30
0.0
 11
117.7769999999999
 21
95.895499999999998
 31
0.0
  0
LINE
  5
1AC
  8
0
 62
     7
 10
118.276
 20
89.561999999999998
 30
0.0
 11
118.276
 21
95.395300000000006
 31
0.0
  0
LINE
  5
1AD
  8
0
 62
     7
 10
117.6099999999999
 20
88.895399999999995
 30
0.0
 11
117.7259999999999
 21
88.905399999999986
 31
0.0
  0
LINE
  5
1AE
  8
0
 62
     7
 10
117.7259999999999
 20
88.905399999999986
 30
0.0
 11
117.83799999999989
 21
88.935699999999997
 31
0.0
  0
LINE
  5
1AF
  8
0
 62
     7
 10
117.83799999999989
 20
88.935699999999997
 30
0.0
 11
117.944
 21
88.984999999999999
 31
0.0
  0
LINE
  5
1B0
  8
0
 62
     7
 10
117.944
 20
88.984999999999999
 30
0.0
 11
118.039
 21
89.051500000000004
 31
0.0
  0
LINE
  5
1B1
  8
0
 62
     7
 10
118.039
 20
89.051500000000004
 30
0.0
 11
118.121
 21
89.133499999999984
 31
0.0
  0
LINE
  5
1B2
  8
0
 62
     7
 10
118.121
 20
89.133499999999984
 30
0.0
 11
118.1879999999999
 21
89.228899999999996
 31
0.0
  0
LINE
  5
1B3
  8
0
 62
     7
 10
118.1879999999999
 20
89.228899999999996
 30
0.0
 11
118.236
 21
89.334000000000003
 31
0.0
  0
LINE
  5
1B4
  8
0
 62
     7
 10
118.236
 20
89.334000000000003
 30
0.0
 11
118.267
 21
89.446299999999994
 31
0.0
  0
LINE
  5
1B5
  8
0
 62
     7
 10
118.267
 20
89.446299999999994
 30
0.0
 11
118.276
 21
89.561999999999998
 31
0.0
  0
LINE
  5
1B6
  8
0
 62
     7
 10
107.277
 20
95.228599999999986
 30
0.0
 11
117.2439999999999
 21
95.228599999999986
 31
0.0
  0
LINE
  5
1B7
  8
0
 62
     7
 10
117.2439999999999
 20
95.228599999999986
 30
0.0
 11
117.4099999999999
 21
88.895399999999995
 31
0.0
  0
LINE
  5
1B8
  8
0
 62
     7
 10
117.4099999999999
 20
88.895399999999995
 30
0.0
 11
117.6099999999999
 21
88.895399999999995
 31
0.0
  0
LINE
  5
1B9
  8
0
 62
     7
 10
107.277
 20
95.228599999999986
 30
0.0
 11
107.277
 21
95.562000000000026
 31
0.0
  0
ARC
  5
1BA
  8
0
 62
     7
 10
116.01418099999999
 20
95.908072999999987
 30
0.0
 40
0.346259
 50
272.07626199999987
 51
357.92374799999988
  0
LINE
  5
1BB
  8
0
 62
     7
 10
118.51000000000001
 20
104.562
 30
0.0
 11
118.51000000000001
 21
107.2289999999999
 31
0.0
  0
LINE
  5
1BC
  8
0
 62
     7
 10
118.51000000000001
 20
107.2289999999999
 30
0.0
 11
116.54299999999991
 21
107.2289999999999
 31
0.0
  0
LINE
  5
1BD
  8
0
 62
     7
 10
116.54299999999991
 20
107.2289999999999
 30
0.0
 11
116.54299999999991
 21
114.8949999999999
 31
0.0
  0
LINE
  5
1BE
  8
0
 62
     7
 10
116.54299999999991
 20
114.8949999999999
 30
0.0
 11
116.277
 21
114.8949999999999
 31
0.0
  0
LINE
  5
1BF
  8
0
 62
     7
 10
116.277
 20
114.8949999999999
 30
0.0
 11
115.4099999999999
 21
113.229
 31
0.0
  0
LINE
  5
1C0
  8
0
 62
     7
 10
115.4099999999999
 20
113.229
 30
0.0
 11
115.277
 21
103.895
 31
0.0
  0
LINE
  5
1C1
  8
0
 62
     7
 10
115.277
 20
103.895
 30
0.0
 11
115.437
 21
95.888599999999997
 31
0.0
  0
LINE
  5
1C2
  8
0
 62
     7
 10
117.84399999999989
 20
103.895
 30
0.0
 11
117.959
 21
103.905
 31
0.0
  0
LINE
  5
1C3
  8
0
 62
     7
 10
117.959
 20
103.905
 30
0.0
 11
118.0719999999999
 21
103.93600000000001
 31
0.0
  0
LINE
  5
1C4
  8
0
 62
     7
 10
118.0719999999999
 20
103.93600000000001
 30
0.0
 11
118.176
 21
103.9849999999999
 31
0.0
  0
LINE
  5
1C5
  8
0
 62
     7
 10
118.176
 20
103.9849999999999
 30
0.0
 11
118.27199999999991
 21
104.051
 31
0.0
  0
LINE
  5
1C6
  8
0
 62
     7
 10
118.27199999999991
 20
104.051
 30
0.0
 11
118.354
 21
104.1329999999999
 31
0.0
  0
LINE
  5
1C7
  8
0
 62
     7
 10
118.354
 20
104.1329999999999
 30
0.0
 11
118.42099999999991
 21
104.2289999999999
 31
0.0
  0
LINE
  5
1C8
  8
0
 62
     7
 10
118.42099999999991
 20
104.2289999999999
 30
0.0
 11
118.47
 21
104.334
 31
0.0
  0
LINE
  5
1C9
  8
0
 62
     7
 10
118.47
 20
104.334
 30
0.0
 11
118.5
 21
104.4459999999999
 31
0.0
  0
LINE
  5
1CA
  8
0
 62
     7
 10
118.5
 20
104.4459999999999
 30
0.0
 11
118.51000000000001
 21
104.562
 31
0.0
  0
LINE
  5
1CB
  8
0
 62
     7
 10
116.28
 20
95.892799999999994
 30
0.0
 11
116.3429999999999
 21
103.895
 31
0.0
  0
LINE
  5
1CC
  8
0
 62
     7
 10
116.3429999999999
 20
103.895
 30
0.0
 11
117.84399999999989
 21
103.895
 31
0.0
  0
LINE
  5
1CD
  8
0
 62
     7
 10
115.9459999999999
 20
95.562000000000026
 30
0.0
 11
116.011
 21
95.568600000000004
 31
0.0
  0
LINE
  5
1CE
  8
0
 62
     7
 10
116.011
 20
95.568600000000004
 30
0.0
 11
116.07299999999999
 21
95.587199999999996
 31
0.0
  0
LINE
  5
1CF
  8
0
 62
     7
 10
116.07299999999999
 20
95.587199999999996
 30
0.0
 11
116.1299999999999
 21
95.617500000000007
 31
0.0
  0
LINE
  5
1D0
  8
0
 62
     7
 10
116.1299999999999
 20
95.617500000000007
 30
0.0
 11
116.181
 21
95.658799999999985
 31
0.0
  0
LINE
  5
1D1
  8
0
 62
     7
 10
116.181
 20
95.658799999999985
 30
0.0
 11
116.22199999999999
 21
95.708799999999997
 31
0.0
  0
LINE
  5
1D2
  8
0
 62
     7
 10
116.22199999999999
 20
95.708799999999997
 30
0.0
 11
116.2529999999999
 21
95.766000000000005
 31
0.0
  0
LINE
  5
1D3
  8
0
 62
     7
 10
116.2529999999999
 20
95.766000000000005
 30
0.0
 11
116.273
 21
95.827999999999975
 31
0.0
  0
LINE
  5
1D4
  8
0
 62
     7
 10
116.273
 20
95.827999999999975
 30
0.0
 11
116.28
 21
95.892799999999994
 31
0.0
  0
LINE
  5
1D5
  8
0
 62
     7
 10
115.7699999999999
 20
95.562000000000026
 30
0.0
 11
115.9459999999999
 21
95.562000000000026
 31
0.0
  0
LINE
  5
1D6
  8
0
 62
     7
 10
115.437
 20
95.888599999999997
 30
0.0
 11
115.44499999999989
 21
95.824600000000004
 31
0.0
  0
LINE
  5
1D7
  8
0
 62
     7
 10
115.44499999999989
 20
95.824600000000004
 30
0.0
 11
115.464
 21
95.763199999999998
 31
0.0
  0
LINE
  5
1D8
  8
0
 62
     7
 10
115.464
 20
95.763199999999998
 30
0.0
 11
115.495
 21
95.706699999999984
 31
0.0
  0
LINE
  5
1D9
  8
0
 62
     7
 10
115.495
 20
95.706699999999984
 30
0.0
 11
115.53700000000001
 21
95.657499999999985
 31
0.0
  0
LINE
  5
1DA
  8
0
 62
     7
 10
115.53700000000001
 20
95.657499999999985
 30
0.0
 11
115.5869999999999
 21
95.616799999999998
 31
0.0
  0
LINE
  5
1DB
  8
0
 62
     7
 10
115.5869999999999
 20
95.616799999999998
 30
0.0
 11
115.64399999999991
 21
95.586799999999997
 31
0.0
  0
LINE
  5
1DC
  8
0
 62
     7
 10
115.64399999999991
 20
95.586799999999997
 30
0.0
 11
115.7059999999999
 21
95.568200000000004
 31
0.0
  0
LINE
  5
1DD
  8
0
 62
     7
 10
115.7059999999999
 20
95.568200000000004
 30
0.0
 11
115.7699999999999
 21
95.562000000000026
 31
0.0
  0
LINE
  5
1DE
  8
0
 62
     7
 10
115.396
 20
112.2349999999999
 30
0.0
 11
115.4099999999999
 21
113.229
 31
0.0
  0
LINE
  5
1DF
  8
0
 62
     7
 10
115.4099999999999
 20
113.229
 30
0.0
 11
116.277
 21
114.8949999999999
 31
0.0
  0
LINE
  5
1E0
  8
0
 62
     7
 10
116.277
 20
114.8949999999999
 30
0.0
 11
116.45399999999989
 21
114.8949999999999
 31
0.0
  0
LINE
  5
1E1
  8
0
 62
     7
 10
116.45399999999989
 20
114.8949999999999
 30
0.0
 11
116.45399999999989
 21
115.82899999999999
 31
0.0
  0
LINE
  5
1E2
  8
0
 62
     7
 10
116.45399999999989
 20
115.82899999999999
 30
0.0
 11
115.28700000000001
 21
115.82899999999999
 31
0.0
  0
LINE
  5
1E3
  8
0
 62
     7
 10
115.28700000000001
 20
115.82899999999999
 30
0.0
 11
115.28700000000001
 21
112.16200000000001
 31
0.0
  0
LINE
  5
1E4
  8
0
 62
     7
 10
115.28700000000001
 20
112.16200000000001
 30
0.0
 11
115.396
 21
112.2349999999999
 31
0.0
  0
LINE
  5
1E5
  8
0
 62
     7
 10
117.887
 20
118.16200000000001
 30
0.0
 11
115.4039999999999
 21
118.16200000000001
 31
0.0
  0
LINE
  5
1E6
  8
0
 62
     7
 10
115.4039999999999
 20
118.16200000000001
 30
0.0
 11
115.4039999999999
 21
116.82899999999999
 31
0.0
  0
LINE
  5
1E7
  8
0
 62
     7
 10
115.4039999999999
 20
116.82899999999999
 30
0.0
 11
116.81999999999989
 21
116.82899999999999
 31
0.0
  0
LINE
  5
1E8
  8
0
 62
     7
 10
116.81999999999989
 20
116.82899999999999
 30
0.0
 11
117.321
 21
116.32899999999989
 31
0.0
  0
LINE
  5
1E9
  8
0
 62
     7
 10
117.321
 20
116.32899999999989
 30
0.0
 11
117.321
 21
108.3949999999999
 31
0.0
  0
LINE
  5
1EA
  8
0
 62
     7
 10
118.554
 20
117.495
 30
0.0
 11
118.541
 21
117.625
 31
0.0
  0
LINE
  5
1EB
  8
0
 62
     7
 10
118.541
 20
117.625
 30
0.0
 11
118.5029999999999
 21
117.7499999999999
 31
0.0
  0
LINE
  5
1EC
  8
0
 62
     7
 10
118.5029999999999
 20
117.7499999999999
 30
0.0
 11
118.44199999999999
 21
117.866
 31
0.0
  0
LINE
  5
1ED
  8
0
 62
     7
 10
118.44199999999999
 20
117.866
 30
0.0
 11
118.3579999999999
 21
117.967
 31
0.0
  0
LINE
  5
1EE
  8
0
 62
     7
 10
118.3579999999999
 20
117.967
 30
0.0
 11
118.25700000000001
 21
118.04900000000001
 31
0.0
  0
LINE
  5
1EF
  8
0
 62
     7
 10
118.25700000000001
 20
118.04900000000001
 30
0.0
 11
118.142
 21
118.111
 31
0.0
  0
LINE
  5
1F0
  8
0
 62
     7
 10
118.142
 20
118.111
 30
0.0
 11
118.017
 21
118.1489999999999
 31
0.0
  0
LINE
  5
1F1
  8
0
 62
     7
 10
118.017
 20
118.1489999999999
 30
0.0
 11
117.887
 21
118.16200000000001
 31
0.0
  0
LINE
  5
1F2
  8
0
 62
     7
 10
117.321
 20
108.3949999999999
 30
0.0
 11
118.554
 21
108.3949999999999
 31
0.0
  0
LINE
  5
1F3
  8
0
 62
     7
 10
118.554
 20
108.3949999999999
 30
0.0
 11
118.554
 21
117.495
 31
0.0
  0
LINE
  5
1F4
  8
0
 62
     7
 10
114.25399999999991
 20
114.229
 30
0.0
 11
114.25399999999991
 21
110.8959999999999
 31
0.0
  0
LINE
  5
1F5
  8
0
 62
     7
 10
113.587
 20
114.8949999999999
 30
0.0
 11
113.7029999999999
 21
114.88500000000001
 31
0.0
  0
LINE
  5
1F6
  8
0
 62
     7
 10
113.7029999999999
 20
114.88500000000001
 30
0.0
 11
113.8149999999999
 21
114.8549999999999
 31
0.0
  0
LINE
  5
1F7
  8
0
 62
     7
 10
113.8149999999999
 20
114.8549999999999
 30
0.0
 11
113.9199999999999
 21
114.806
 31
0.0
  0
LINE
  5
1F8
  8
0
 62
     7
 10
113.9199999999999
 20
114.806
 30
0.0
 11
114.0149999999999
 21
114.7399999999999
 31
0.0
  0
LINE
  5
1F9
  8
0
 62
     7
 10
114.0149999999999
 20
114.7399999999999
 30
0.0
 11
114.098
 21
114.657
 31
0.0
  0
LINE
  5
1FA
  8
0
 62
     7
 10
114.098
 20
114.657
 30
0.0
 11
114.1639999999999
 21
114.562
 31
0.0
  0
LINE
  5
1FB
  8
0
 62
     7
 10
114.1639999999999
 20
114.562
 30
0.0
 11
114.21299999999989
 21
114.45699999999999
 31
0.0
  0
LINE
  5
1FC
  8
0
 62
     7
 10
114.21299999999989
 20
114.45699999999999
 30
0.0
 11
114.244
 21
114.34399999999999
 31
0.0
  0
LINE
  5
1FD
  8
0
 62
     7
 10
114.244
 20
114.34399999999999
 30
0.0
 11
114.25399999999991
 21
114.229
 31
0.0
  0
LINE
  5
1FE
  8
0
 62
     7
 10
113.45399999999989
 20
114.8949999999999
 30
0.0
 11
113.587
 21
114.8949999999999
 31
0.0
  0
LINE
  5
1FF
  8
0
 62
     7
 10
112.95399999999989
 20
115.395
 30
0.0
 11
112.96299999999989
 21
115.2979999999999
 31
0.0
  0
LINE
  5
200
  8
0
 62
     7
 10
112.96299999999989
 20
115.2979999999999
 30
0.0
 11
112.992
 21
115.20399999999989
 31
0.0
  0
LINE
  5
201
  8
0
 62
     7
 10
112.992
 20
115.20399999999989
 30
0.0
 11
113.0379999999999
 21
115.1179999999999
 31
0.0
  0
LINE
  5
202
  8
0
 62
     7
 10
113.0379999999999
 20
115.1179999999999
 30
0.0
 11
113.09999999999999
 21
115.0419999999999
 31
0.0
  0
LINE
  5
203
  8
0
 62
     7
 10
113.09999999999999
 20
115.0419999999999
 30
0.0
 11
113.176
 21
114.979
 31
0.0
  0
LINE
  5
204
  8
0
 62
     7
 10
113.176
 20
114.979
 30
0.0
 11
113.2619999999999
 21
114.93299999999989
 31
0.0
  0
LINE
  5
205
  8
0
 62
     7
 10
113.2619999999999
 20
114.93299999999989
 30
0.0
 11
113.35599999999999
 21
114.905
 31
0.0
  0
LINE
  5
206
  8
0
 62
     7
 10
113.35599999999999
 20
114.905
 30
0.0
 11
113.45399999999989
 21
114.8949999999999
 31
0.0
  0
LINE
  5
207
  8
0
 62
     7
 10
113.25399999999991
 20
126.729
 30
0.0
 11
112.95399999999989
 21
126.729
 31
0.0
  0
LINE
  5
208
  8
0
 62
     7
 10
112.95399999999989
 20
126.729
 30
0.0
 11
112.95399999999989
 21
115.395
 31
0.0
  0
LINE
  5
209
  8
0
 62
     7
 10
113.587
 20
126.3949999999999
 30
0.0
 11
113.58199999999999
 21
126.4529999999999
 31
0.0
  0
LINE
  5
20A
  8
0
 62
     7
 10
113.58199999999999
 20
126.4529999999999
 30
0.0
 11
113.56699999999999
 21
126.509
 31
0.0
  0
LINE
  5
20B
  8
0
 62
     7
 10
113.56699999999999
 20
126.509
 30
0.0
 11
113.54299999999991
 21
126.562
 31
0.0
  0
LINE
  5
20C
  8
0
 62
     7
 10
113.54299999999991
 20
126.562
 30
0.0
 11
113.5089999999999
 21
126.6089999999999
 31
0.0
  0
LINE
  5
20D
  8
0
 62
     7
 10
113.5089999999999
 20
126.6089999999999
 30
0.0
 11
113.4679999999999
 21
126.65000000000001
 31
0.0
  0
LINE
  5
20E
  8
0
 62
     7
 10
113.4679999999999
 20
126.65000000000001
 30
0.0
 11
113.42
 21
126.6839999999999
 31
0.0
  0
LINE
  5
20F
  8
0
 62
     7
 10
113.42
 20
126.6839999999999
 30
0.0
 11
113.36799999999999
 21
126.7079999999999
 31
0.0
  0
LINE
  5
210
  8
0
 62
     7
 10
113.36799999999999
 20
126.7079999999999
 30
0.0
 11
113.312
 21
126.723
 31
0.0
  0
LINE
  5
211
  8
0
 62
     7
 10
113.312
 20
126.723
 30
0.0
 11
113.25399999999991
 21
126.729
 31
0.0
  0
LINE
  5
212
  8
0
 62
     7
 10
115.20999999999989
 20
111.223
 30
0.0
 11
115.28700000000001
 21
115.82899999999999
 31
0.0
  0
LINE
  5
213
  8
0
 62
     7
 10
115.28700000000001
 20
115.82899999999999
 30
0.0
 11
116.53700000000001
 21
115.82899999999999
 31
0.0
  0
LINE
  5
214
  8
0
 62
     7
 10
116.53700000000001
 20
115.82899999999999
 30
0.0
 11
116.53700000000001
 21
116.82899999999999
 31
0.0
  0
LINE
  5
215
  8
0
 62
     7
 10
116.53700000000001
 20
116.82899999999999
 30
0.0
 11
113.587
 21
116.82899999999999
 31
0.0
  0
LINE
  5
216
  8
0
 62
     7
 10
113.587
 20
116.82899999999999
 30
0.0
 11
113.587
 21
126.3949999999999
 31
0.0
  0
LINE
  5
217
  8
0
 62
     7
 10
114.876
 20
110.8959999999999
 30
0.0
 11
114.9399999999999
 21
110.902
 31
0.0
  0
LINE
  5
218
  8
0
 62
     7
 10
114.9399999999999
 20
110.902
 30
0.0
 11
115.002
 21
110.9199999999999
 31
0.0
  0
LINE
  5
219
  8
0
 62
     7
 10
115.002
 20
110.9199999999999
 30
0.0
 11
115.059
 21
110.95
 31
0.0
  0
LINE
  5
21A
  8
0
 62
     7
 10
115.059
 20
110.95
 30
0.0
 11
115.11
 21
110.9909999999999
 31
0.0
  0
LINE
  5
21B
  8
0
 62
     7
 10
115.11
 20
110.9909999999999
 30
0.0
 11
115.151
 21
111.0409999999999
 31
0.0
  0
LINE
  5
21C
  8
0
 62
     7
 10
115.151
 20
111.0409999999999
 30
0.0
 11
115.18299999999989
 21
111.09699999999999
 31
0.0
  0
LINE
  5
21D
  8
0
 62
     7
 10
115.18299999999989
 20
111.09699999999999
 30
0.0
 11
115.202
 21
111.15899999999991
 31
0.0
  0
LINE
  5
21E
  8
0
 62
     7
 10
115.202
 20
111.15899999999991
 30
0.0
 11
115.20999999999989
 21
111.223
 31
0.0
  0
LINE
  5
21F
  8
0
 62
     7
 10
114.25399999999991
 20
110.8959999999999
 30
0.0
 11
114.876
 21
110.8959999999999
 31
0.0
  0
LINE
  5
220
  8
0
 62
     7
 10
115.31999999999999
 20
180.90700000000001
 30
0.0
 11
115.45399999999989
 21
173.22900000000001
 31
0.0
  0
LINE
  5
221
  8
0
 62
     7
 10
114.6539999999999
 20
181.56200000000001
 30
0.0
 11
114.782
 21
181.54900000000001
 31
0.0
  0
LINE
  5
222
  8
0
 62
     7
 10
114.782
 20
181.54900000000001
 30
0.0
 11
114.90600000000001
 21
181.512
 31
0.0
  0
LINE
  5
223
  8
0
 62
     7
 10
114.90600000000001
 20
181.512
 30
0.0
 11
115.0199999999999
 21
181.45199999999991
 31
0.0
  0
LINE
  5
224
  8
0
 62
     7
 10
115.0199999999999
 20
181.45199999999991
 30
0.0
 11
115.121
 21
181.37100000000001
 31
0.0
  0
LINE
  5
225
  8
0
 62
     7
 10
115.121
 20
181.37100000000001
 30
0.0
 11
115.2029999999999
 21
181.27199999999999
 31
0.0
  0
LINE
  5
226
  8
0
 62
     7
 10
115.2029999999999
 20
181.27199999999999
 30
0.0
 11
115.26600000000001
 21
181.15799999999999
 31
0.0
  0
LINE
  5
227
  8
0
 62
     7
 10
115.26600000000001
 20
181.15799999999999
 30
0.0
 11
115.30500000000001
 21
181.03499999999991
 31
0.0
  0
LINE
  5
228
  8
0
 62
     7
 10
115.30500000000001
 20
181.03499999999991
 30
0.0
 11
115.31999999999999
 21
180.90700000000001
 31
0.0
  0
LINE
  5
229
  8
0
 62
     7
 10
114.25399999999991
 20
181.56200000000001
 30
0.0
 11
114.6539999999999
 21
181.56200000000001
 31
0.0
  0
LINE
  5
22A
  8
0
 62
     7
 10
113.95399999999989
 20
181.86199999999991
 30
0.0
 11
113.95999999999989
 21
181.803
 31
0.0
  0
LINE
  5
22B
  8
0
 62
     7
 10
113.95999999999989
 20
181.803
 30
0.0
 11
113.977
 21
181.74700000000001
 31
0.0
  0
LINE
  5
22C
  8
0
 62
     7
 10
113.977
 20
181.74700000000001
 30
0.0
 11
114.00399999999991
 21
181.69499999999999
 31
0.0
  0
LINE
  5
22D
  8
0
 62
     7
 10
114.00399999999991
 20
181.69499999999999
 30
0.0
 11
114.0419999999999
 21
181.64999999999989
 31
0.0
  0
LINE
  5
22E
  8
0
 62
     7
 10
114.0419999999999
 20
181.64999999999989
 30
0.0
 11
114.087
 21
181.61199999999991
 31
0.0
  0
LINE
  5
22F
  8
0
 62
     7
 10
114.087
 20
181.61199999999991
 30
0.0
 11
114.1389999999999
 21
181.58500000000001
 31
0.0
  0
LINE
  5
230
  8
0
 62
     7
 10
114.1389999999999
 20
181.58500000000001
 30
0.0
 11
114.19499999999999
 21
181.56700000000001
 31
0.0
  0
LINE
  5
231
  8
0
 62
     7
 10
114.19499999999999
 20
181.56700000000001
 30
0.0
 11
114.25399999999991
 21
181.56200000000001
 31
0.0
  0
LINE
  5
232
  8
0
 62
     7
 10
114.45999999999999
 20
204.06200000000001
 30
0.0
 11
113.95399999999989
 21
204.06200000000001
 31
0.0
  0
LINE
  5
233
  8
0
 62
     7
 10
113.95399999999989
 20
204.06200000000001
 30
0.0
 11
113.95399999999989
 21
181.86199999999991
 31
0.0
  0
LINE
  5
234
  8
0
 62
     7
 10
114.79299999999991
 20
203.7339999999999
 30
0.0
 11
114.786
 21
203.798
 31
0.0
  0
LINE
  5
235
  8
0
 62
     7
 10
114.786
 20
203.798
 30
0.0
 11
114.76600000000001
 21
203.86000000000001
 31
0.0
  0
LINE
  5
236
  8
0
 62
     7
 10
114.76600000000001
 20
203.86000000000001
 30
0.0
 11
114.735
 21
203.91699999999989
 31
0.0
  0
LINE
  5
237
  8
0
 62
     7
 10
114.735
 20
203.91699999999989
 30
0.0
 11
114.693
 21
203.96600000000001
 31
0.0
  0
LINE
  5
238
  8
0
 62
     7
 10
114.693
 20
203.96600000000001
 30
0.0
 11
114.6429999999999
 21
204.00700000000001
 31
0.0
  0
LINE
  5
239
  8
0
 62
     7
 10
114.6429999999999
 20
204.00700000000001
 30
0.0
 11
114.586
 21
204.03700000000001
 31
0.0
  0
LINE
  5
23A
  8
0
 62
     7
 10
114.586
 20
204.03700000000001
 30
0.0
 11
114.524
 21
204.0559999999999
 31
0.0
  0
LINE
  5
23B
  8
0
 62
     7
 10
114.524
 20
204.0559999999999
 30
0.0
 11
114.45999999999999
 21
204.06200000000001
 31
0.0
  0
LINE
  5
23C
  8
0
 62
     7
 10
115.1399999999999
 20
183.84399999999999
 30
0.0
 11
114.79299999999991
 21
203.7339999999999
 31
0.0
  0
LINE
  5
23D
  8
0
 62
     7
 10
116.1399999999999
 20
182.86199999999991
 30
0.0
 11
115.947
 21
182.88099999999989
 31
0.0
  0
LINE
  5
23E
  8
0
 62
     7
 10
115.947
 20
182.88099999999989
 30
0.0
 11
115.761
 21
182.93599999999989
 31
0.0
  0
LINE
  5
23F
  8
0
 62
     7
 10
115.761
 20
182.93599999999989
 30
0.0
 11
115.59
 21
183.02699999999999
 31
0.0
  0
LINE
  5
240
  8
0
 62
     7
 10
115.59
 20
183.02699999999999
 30
0.0
 11
115.43899999999999
 21
183.14799999999991
 31
0.0
  0
LINE
  5
241
  8
0
 62
     7
 10
115.43899999999999
 20
183.14799999999991
 30
0.0
 11
115.31399999999999
 21
183.29699999999991
 31
0.0
  0
LINE
  5
242
  8
0
 62
     7
 10
115.31399999999999
 20
183.29699999999991
 30
0.0
 11
115.2209999999999
 21
183.46700000000001
 31
0.0
  0
LINE
  5
243
  8
0
 62
     7
 10
115.2209999999999
 20
183.46700000000001
 30
0.0
 11
115.16200000000001
 21
183.65199999999999
 31
0.0
  0
LINE
  5
244
  8
0
 62
     7
 10
115.16200000000001
 20
183.65199999999999
 30
0.0
 11
115.1399999999999
 21
183.84399999999999
 31
0.0
  0
LINE
  5
245
  8
0
 62
     7
 10
124.354
 20
182.86199999999991
 30
0.0
 11
116.1399999999999
 21
182.86199999999991
 31
0.0
  0
LINE
  5
246
  8
0
 62
     7
 10
126.0199999999999
 20
184.499
 30
0.0
 11
125.983
 21
184.17799999999991
 31
0.0
  0
LINE
  5
247
  8
0
 62
     7
 10
125.983
 20
184.17799999999991
 30
0.0
 11
125.88500000000001
 21
183.8709999999999
 31
0.0
  0
LINE
  5
248
  8
0
 62
     7
 10
125.88500000000001
 20
183.8709999999999
 30
0.0
 11
125.73
 21
183.58699999999999
 31
0.0
  0
LINE
  5
249
  8
0
 62
     7
 10
125.73
 20
183.58699999999999
 30
0.0
 11
125.52200000000001
 21
183.34
 31
0.0
  0
LINE
  5
24A
  8
0
 62
     7
 10
125.52200000000001
 20
183.34
 30
0.0
 11
125.2709999999999
 21
183.13699999999989
 31
0.0
  0
LINE
  5
24B
  8
0
 62
     7
 10
125.2709999999999
 20
183.13699999999989
 30
0.0
 11
124.985
 21
182.98599999999999
 31
0.0
  0
LINE
  5
24C
  8
0
 62
     7
 10
124.985
 20
182.98599999999999
 30
0.0
 11
124.675
 21
182.89299999999989
 31
0.0
  0
LINE
  5
24D
  8
0
 62
     7
 10
124.675
 20
182.89299999999989
 30
0.0
 11
124.354
 21
182.86199999999991
 31
0.0
  0
LINE
  5
24E
  8
0
 62
     7
 10
126.3679999999999
 20
204.4009999999999
 30
0.0
 11
126.0199999999999
 21
184.499
 31
0.0
  0
LINE
  5
24F
  8
0
 62
     7
 10
126.70099999999999
 20
204.72900000000001
 30
0.0
 11
126.6369999999999
 21
204.72200000000001
 31
0.0
  0
LINE
  5
250
  8
0
 62
     7
 10
126.6369999999999
 20
204.72200000000001
 30
0.0
 11
126.575
 21
204.70399999999989
 31
0.0
  0
LINE
  5
251
  8
0
 62
     7
 10
126.575
 20
204.70399999999989
 30
0.0
 11
126.5179999999999
 21
204.673
 31
0.0
  0
LINE
  5
252
  8
0
 62
     7
 10
126.5179999999999
 20
204.673
 30
0.0
 11
126.467
 21
204.6329999999999
 31
0.0
  0
LINE
  5
253
  8
0
 62
     7
 10
126.467
 20
204.6329999999999
 30
0.0
 11
126.4259999999999
 21
204.583
 31
0.0
  0
LINE
  5
254
  8
0
 62
     7
 10
126.4259999999999
 20
204.583
 30
0.0
 11
126.39399999999991
 21
204.52699999999999
 31
0.0
  0
LINE
  5
255
  8
0
 62
     7
 10
126.39399999999991
 20
204.52699999999999
 30
0.0
 11
126.3749999999999
 21
204.46499999999989
 31
0.0
  0
LINE
  5
256
  8
0
 62
     7
 10
126.3749999999999
 20
204.46499999999989
 30
0.0
 11
126.3679999999999
 21
204.4009999999999
 31
0.0
  0
LINE
  5
257
  8
0
 62
     7
 10
126.087
 20
205.56200000000001
 30
0.0
 11
127.254
 21
205.56200000000001
 31
0.0
  0
LINE
  5
258
  8
0
 62
     7
 10
127.254
 20
205.56200000000001
 30
0.0
 11
127.254
 21
204.72900000000001
 31
0.0
  0
LINE
  5
259
  8
0
 62
     7
 10
127.254
 20
204.72900000000001
 30
0.0
 11
126.70099999999999
 21
204.72900000000001
 31
0.0
  0
LINE
  5
25A
  8
0
 62
     7
 10
126.92
 20
206.39500000000001
 30
0.0
 11
126.7579999999999
 21
206.37899999999999
 31
0.0
  0
LINE
  5
25B
  8
0
 62
     7
 10
126.7579999999999
 20
206.37899999999999
 30
0.0
 11
126.602
 21
206.33199999999999
 31
0.0
  0
LINE
  5
25C
  8
0
 62
     7
 10
126.602
 20
206.33199999999999
 30
0.0
 11
126.45699999999999
 21
206.25499999999991
 31
0.0
  0
LINE
  5
25D
  8
0
 62
     7
 10
126.45699999999999
 20
206.25499999999991
 30
0.0
 11
126.331
 21
206.1509999999999
 31
0.0
  0
LINE
  5
25E
  8
0
 62
     7
 10
126.331
 20
206.1509999999999
 30
0.0
 11
126.22799999999999
 21
206.02499999999989
 31
0.0
  0
LINE
  5
25F
  8
0
 62
     7
 10
126.22799999999999
 20
206.02499999999989
 30
0.0
 11
126.151
 21
205.88099999999989
 31
0.0
  0
LINE
  5
260
  8
0
 62
     7
 10
126.151
 20
205.88099999999989
 30
0.0
 11
126.10299999999989
 21
205.72399999999999
 31
0.0
  0
LINE
  5
261
  8
0
 62
     7
 10
126.10299999999989
 20
205.72399999999999
 30
0.0
 11
126.087
 21
205.56200000000001
 31
0.0
  0
LINE
  5
262
  8
0
 62
     7
 10
127.4159999999999
 20
206.39500000000001
 30
0.0
 11
126.92
 21
206.39500000000001
 31
0.0
  0
LINE
  5
263
  8
0
 62
     7
 10
127.74799999999991
 20
206.6999999999999
 30
0.0
 11
127.73699999999999
 21
206.63900000000001
 31
0.0
  0
LINE
  5
264
  8
0
 62
     7
 10
127.73699999999999
 20
206.63900000000001
 30
0.0
 11
127.715
 21
206.5809999999999
 31
0.0
  0
LINE
  5
265
  8
0
 62
     7
 10
127.715
 20
206.5809999999999
 30
0.0
 11
127.68299999999989
 21
206.529
 31
0.0
  0
LINE
  5
266
  8
0
 62
     7
 10
127.68299999999989
 20
206.529
 30
0.0
 11
127.64100000000001
 21
206.483
 31
0.0
  0
LINE
  5
267
  8
0
 62
     7
 10
127.64100000000001
 20
206.483
 30
0.0
 11
127.592
 21
206.44599999999991
 31
0.0
  0
LINE
  5
268
  8
0
 62
     7
 10
127.592
 20
206.44599999999991
 30
0.0
 11
127.53700000000001
 21
206.41799999999989
 31
0.0
  0
LINE
  5
269
  8
0
 62
     7
 10
127.53700000000001
 20
206.41799999999989
 30
0.0
 11
127.4769999999999
 21
206.4009999999999
 31
0.0
  0
LINE
  5
26A
  8
0
 62
     7
 10
127.4769999999999
 20
206.4009999999999
 30
0.0
 11
127.4159999999999
 21
206.39500000000001
 31
0.0
  0
LINE
  5
26B
  8
0
 62
     7
 10
129.0029999999999
 20
223.5379999999999
 30
0.0
 11
128.05699999999999
 21
210.33799999999999
 31
0.0
  0
LINE
  5
26C
  8
0
 62
     7
 10
128.05699999999999
 20
210.33799999999999
 30
0.0
 11
127.74799999999991
 21
206.6999999999999
 31
0.0
  0
LINE
  5
26D
  8
0
 62
     7
 10
130.96299999999999
 20
225.39500000000001
 30
0.0
 11
130.59499999999991
 21
225.35400000000001
 31
0.0
  0
LINE
  5
26E
  8
0
 62
     7
 10
130.59499999999991
 20
225.35400000000001
 30
0.0
 11
130.24100000000001
 21
225.2459999999999
 31
0.0
  0
LINE
  5
26F
  8
0
 62
     7
 10
130.24100000000001
 20
225.2459999999999
 30
0.0
 11
129.9129999999999
 21
225.07499999999999
 31
0.0
  0
LINE
  5
270
  8
0
 62
     7
 10
129.9129999999999
 20
225.07499999999999
 30
0.0
 11
129.62299999999991
 21
224.84700000000001
 31
0.0
  0
LINE
  5
271
  8
0
 62
     7
 10
129.62299999999991
 20
224.84700000000001
 30
0.0
 11
129.37899999999991
 21
224.56899999999999
 31
0.0
  0
LINE
  5
272
  8
0
 62
     7
 10
129.37899999999991
 20
224.56899999999999
 30
0.0
 11
129.191
 21
224.25
 31
0.0
  0
LINE
  5
273
  8
0
 62
     7
 10
129.191
 20
224.25
 30
0.0
 11
129.06399999999999
 21
223.90299999999999
 31
0.0
  0
LINE
  5
274
  8
0
 62
     7
 10
129.06399999999999
 20
223.90299999999999
 30
0.0
 11
129.0029999999999
 21
223.5379999999999
 31
0.0
  0
LINE
  5
275
  8
0
 62
     7
 10
131.45400000000001
 20
225.89500000000001
 30
0.0
 11
131.4439999999999
 21
225.79799999999989
 31
0.0
  0
LINE
  5
276
  8
0
 62
     7
 10
131.4439999999999
 20
225.79799999999989
 30
0.0
 11
131.417
 21
225.70500000000001
 31
0.0
  0
LINE
  5
277
  8
0
 62
     7
 10
131.417
 20
225.70500000000001
 30
0.0
 11
131.37100000000001
 21
225.62
 31
0.0
  0
LINE
  5
278
  8
0
 62
     7
 10
131.37100000000001
 20
225.62
 30
0.0
 11
131.31099999999989
 21
225.54400000000001
 31
0.0
  0
LINE
  5
279
  8
0
 62
     7
 10
131.31099999999989
 20
225.54400000000001
 30
0.0
 11
131.2359999999999
 21
225.482
 31
0.0
  0
LINE
  5
27A
  8
0
 62
     7
 10
131.2359999999999
 20
225.482
 30
0.0
 11
131.15100000000001
 21
225.435
 31
0.0
  0
LINE
  5
27B
  8
0
 62
     7
 10
131.15100000000001
 20
225.435
 30
0.0
 11
131.05899999999991
 21
225.40599999999989
 31
0.0
  0
LINE
  5
27C
  8
0
 62
     7
 10
131.05899999999991
 20
225.40599999999989
 30
0.0
 11
130.96299999999999
 21
225.39500000000001
 31
0.0
  0
LINE
  5
27D
  8
0
 62
     7
 10
131.45400000000001
 20
232.71700000000001
 30
0.0
 11
131.45400000000001
 21
225.89500000000001
 31
0.0
  0
LINE
  5
27E
  8
0
 62
     7
 10
132.73099999999991
 20
234.04899999999989
 30
0.0
 11
132.4789999999999
 21
234.01400000000001
 31
0.0
  0
LINE
  5
27F
  8
0
 62
     7
 10
132.4789999999999
 20
234.01400000000001
 30
0.0
 11
132.238
 21
233.93199999999999
 31
0.0
  0
LINE
  5
280
  8
0
 62
     7
 10
132.238
 20
233.93199999999999
 30
0.0
 11
132.017
 21
233.80600000000001
 31
0.0
  0
LINE
  5
281
  8
0
 62
     7
 10
132.017
 20
233.80600000000001
 30
0.0
 11
131.8249999999999
 21
233.6399999999999
 31
0.0
  0
LINE
  5
282
  8
0
 62
     7
 10
131.8249999999999
 20
233.6399999999999
 30
0.0
 11
131.667
 21
233.44
 31
0.0
  0
LINE
  5
283
  8
0
 62
     7
 10
131.667
 20
233.44
 30
0.0
 11
131.55000000000001
 21
233.214
 31
0.0
  0
LINE
  5
284
  8
0
 62
     7
 10
131.55000000000001
 20
233.214
 30
0.0
 11
131.47799999999989
 21
232.96999999999991
 31
0.0
  0
LINE
  5
285
  8
0
 62
     7
 10
131.47799999999989
 20
232.96999999999991
 30
0.0
 11
131.45400000000001
 21
232.71700000000001
 31
0.0
  0
LINE
  5
286
  8
0
 62
     7
 10
136.93899999999991
 20
234.22799999999989
 30
0.0
 11
132.73099999999991
 21
234.04899999999989
 31
0.0
  0
LINE
  5
287
  8
0
 62
     7
 10
137.0979999999999
 20
233.59399999999999
 30
0.0
 11
137.15399999999991
 21
233.6279999999999
 31
0.0
  0
LINE
  5
288
  8
0
 62
     7
 10
137.15399999999991
 20
233.6279999999999
 30
0.0
 11
137.202
 21
233.672
 31
0.0
  0
LINE
  5
289
  8
0
 62
     7
 10
137.202
 20
233.672
 30
0.0
 11
137.24000000000001
 21
233.72399999999999
 31
0.0
  0
LINE
  5
28A
  8
0
 62
     7
 10
137.24000000000001
 20
233.72399999999999
 30
0.0
 11
137.268
 21
233.7829999999999
 31
0.0
  0
LINE
  5
28B
  8
0
 62
     7
 10
137.268
 20
233.7829999999999
 30
0.0
 11
137.28399999999991
 21
233.84599999999989
 31
0.0
  0
LINE
  5
28C
  8
0
 62
     7
 10
137.28399999999991
 20
233.84599999999989
 30
0.0
 11
137.28700000000001
 21
233.91099999999989
 31
0.0
  0
LINE
  5
28D
  8
0
 62
     7
 10
137.28700000000001
 20
233.91099999999989
 30
0.0
 11
137.27699999999999
 21
233.976
 31
0.0
  0
LINE
  5
28E
  8
0
 62
     7
 10
137.27699999999999
 20
233.976
 30
0.0
 11
137.256
 21
234.03700000000001
 31
0.0
  0
LINE
  5
28F
  8
0
 62
     7
 10
137.256
 20
234.03700000000001
 30
0.0
 11
137.22200000000001
 21
234.0929999999999
 31
0.0
  0
LINE
  5
290
  8
0
 62
     7
 10
137.22200000000001
 20
234.0929999999999
 30
0.0
 11
137.17799999999991
 21
234.14099999999991
 31
0.0
  0
LINE
  5
291
  8
0
 62
     7
 10
137.17799999999991
 20
234.14099999999991
 30
0.0
 11
137.126
 21
234.18000000000001
 31
0.0
  0
LINE
  5
292
  8
0
 62
     7
 10
137.126
 20
234.18000000000001
 30
0.0
 11
137.06700000000001
 21
234.208
 31
0.0
  0
LINE
  5
293
  8
0
 62
     7
 10
137.06700000000001
 20
234.208
 30
0.0
 11
137.00499999999991
 21
234.22499999999991
 31
0.0
  0
LINE
  5
294
  8
0
 62
     7
 10
137.00499999999991
 20
234.22499999999991
 30
0.0
 11
136.93899999999991
 21
234.22799999999989
 31
0.0
  0
LINE
  5
295
  8
0
 62
     7
 10
132.999
 20
233.048
 30
0.0
 11
136.40399999999991
 21
233.26199999999989
 31
0.0
  0
LINE
  5
296
  8
0
 62
     7
 10
136.40399999999991
 20
233.26199999999989
 30
0.0
 11
137.0979999999999
 21
233.59399999999999
 31
0.0
  0
LINE
  5
297
  8
0
 62
     7
 10
132.68700000000001
 20
232.715
 30
0.0
 11
132.6929999999999
 21
232.77799999999999
 31
0.0
  0
LINE
  5
298
  8
0
 62
     7
 10
132.6929999999999
 20
232.77799999999999
 30
0.0
 11
132.71100000000001
 21
232.83799999999999
 31
0.0
  0
LINE
  5
299
  8
0
 62
     7
 10
132.71100000000001
 20
232.83799999999999
 30
0.0
 11
132.739
 21
232.89400000000001
 31
0.0
  0
LINE
  5
29A
  8
0
 62
     7
 10
132.739
 20
232.89400000000001
 30
0.0
 11
132.77799999999991
 21
232.9429999999999
 31
0.0
  0
LINE
  5
29B
  8
0
 62
     7
 10
132.77799999999991
 20
232.9429999999999
 30
0.0
 11
132.8239999999999
 21
232.9849999999999
 31
0.0
  0
LINE
  5
29C
  8
0
 62
     7
 10
132.8239999999999
 20
232.9849999999999
 30
0.0
 11
132.87899999999991
 21
233.01699999999991
 31
0.0
  0
LINE
  5
29D
  8
0
 62
     7
 10
132.87899999999991
 20
233.01699999999991
 30
0.0
 11
132.93700000000001
 21
233.0379999999999
 31
0.0
  0
LINE
  5
29E
  8
0
 62
     7
 10
132.93700000000001
 20
233.0379999999999
 30
0.0
 11
132.999
 21
233.048
 31
0.0
  0
LINE
  5
29F
  8
0
 62
     7
 10
132.52099999999999
 20
224.2109999999999
 30
0.0
 11
132.52099999999999
 21
224.5449999999999
 31
0.0
  0
LINE
  5
2A0
  8
0
 62
     7
 10
132.52099999999999
 20
224.5449999999999
 30
0.0
 11
133.28699999999989
 21
225.31200000000001
 31
0.0
  0
LINE
  5
2A1
  8
0
 62
     7
 10
133.28699999999989
 20
225.31200000000001
 30
0.0
 11
133.28699999999989
 21
232.1279999999999
 31
0.0
  0
LINE
  5
2A2
  8
0
 62
     7
 10
133.28699999999989
 20
232.1279999999999
 30
0.0
 11
132.68700000000001
 21
232.1279999999999
 31
0.0
  0
LINE
  5
2A3
  8
0
 62
     7
 10
132.68700000000001
 20
232.1279999999999
 30
0.0
 11
132.68700000000001
 21
232.715
 31
0.0
  0
LINE
  5
2A4
  8
0
 62
     7
 10
129.762
 20
221.53899999999999
 30
0.0
 11
129.803
 21
222.01300000000001
 31
0.0
  0
LINE
  5
2A5
  8
0
 62
     7
 10
129.803
 20
222.01300000000001
 30
0.0
 11
129.92799999999991
 21
222.47200000000001
 31
0.0
  0
LINE
  5
2A6
  8
0
 62
     7
 10
129.92799999999991
 20
222.47200000000001
 30
0.0
 11
130.13200000000001
 21
222.9009999999999
 31
0.0
  0
LINE
  5
2A7
  8
0
 62
     7
 10
130.13200000000001
 20
222.9009999999999
 30
0.0
 11
130.41
 21
223.2879999999999
 31
0.0
  0
LINE
  5
2A8
  8
0
 62
     7
 10
130.41
 20
223.2879999999999
 30
0.0
 11
130.75200000000001
 21
223.619
 31
0.0
  0
LINE
  5
2A9
  8
0
 62
     7
 10
130.75200000000001
 20
223.619
 30
0.0
 11
131.14699999999999
 21
223.88399999999999
 31
0.0
  0
LINE
  5
2AA
  8
0
 62
     7
 10
131.14699999999999
 20
223.88399999999999
 30
0.0
 11
131.583
 21
224.0749999999999
 31
0.0
  0
LINE
  5
2AB
  8
0
 62
     7
 10
131.583
 20
224.0749999999999
 30
0.0
 11
132.0449999999999
 21
224.184
 31
0.0
  0
LINE
  5
2AC
  8
0
 62
     7
 10
132.0449999999999
 20
224.184
 30
0.0
 11
132.52099999999999
 21
224.2109999999999
 31
0.0
  0
LINE
  5
2AD
  8
0
 62
     7
 10
128.4129999999999
 20
203.90000000000001
 30
0.0
 11
128.953
 21
210.26199999999989
 31
0.0
  0
LINE
  5
2AE
  8
0
 62
     7
 10
128.953
 20
210.26199999999989
 30
0.0
 11
129.762
 21
221.53899999999999
 31
0.0
  0
LINE
  5
2AF
  8
0
 62
     7
 10
128.08099999999999
 20
203.595
 30
0.0
 11
128.143
 21
203.601
 31
0.0
  0
LINE
  5
2B0
  8
0
 62
     7
 10
128.143
 20
203.601
 30
0.0
 11
128.20199999999991
 21
203.61799999999991
 31
0.0
  0
LINE
  5
2B1
  8
0
 62
     7
 10
128.20199999999991
 20
203.61799999999991
 30
0.0
 11
128.25699999999989
 21
203.6459999999999
 31
0.0
  0
LINE
  5
2B2
  8
0
 62
     7
 10
128.25699999999989
 20
203.6459999999999
 30
0.0
 11
128.30699999999999
 21
203.68299999999999
 31
0.0
  0
LINE
  5
2B3
  8
0
 62
     7
 10
128.30699999999999
 20
203.68299999999999
 30
0.0
 11
128.3479999999999
 21
203.72900000000001
 31
0.0
  0
LINE
  5
2B4
  8
0
 62
     7
 10
128.3479999999999
 20
203.72900000000001
 30
0.0
 11
128.38
 21
203.7819999999999
 31
0.0
  0
LINE
  5
2B5
  8
0
 62
     7
 10
128.38
 20
203.7819999999999
 30
0.0
 11
128.40199999999999
 21
203.839
 31
0.0
  0
LINE
  5
2B6
  8
0
 62
     7
 10
128.40199999999999
 20
203.839
 30
0.0
 11
128.4129999999999
 21
203.90000000000001
 31
0.0
  0
LINE
  5
2B7
  8
0
 62
     7
 10
127.74499999999991
 20
203.595
 30
0.0
 11
128.08099999999999
 21
203.595
 31
0.0
  0
LINE
  5
2B8
  8
0
 62
     7
 10
127.245
 20
203.1039999999999
 30
0.0
 11
127.256
 21
203.19999999999999
 31
0.0
  0
LINE
  5
2B9
  8
0
 62
     7
 10
127.256
 20
203.19999999999999
 30
0.0
 11
127.286
 21
203.29199999999989
 31
0.0
  0
LINE
  5
2BA
  8
0
 62
     7
 10
127.286
 20
203.29199999999989
 30
0.0
 11
127.33199999999999
 21
203.3779999999999
 31
0.0
  0
LINE
  5
2BB
  8
0
 62
     7
 10
127.33199999999999
 20
203.3779999999999
 30
0.0
 11
127.3949999999999
 21
203.452
 31
0.0
  0
LINE
  5
2BC
  8
0
 62
     7
 10
127.3949999999999
 20
203.452
 30
0.0
 11
127.4699999999999
 21
203.51300000000001
 31
0.0
  0
LINE
  5
2BD
  8
0
 62
     7
 10
127.4699999999999
 20
203.51300000000001
 30
0.0
 11
127.55500000000001
 21
203.55799999999991
 31
0.0
  0
LINE
  5
2BE
  8
0
 62
     7
 10
127.55500000000001
 20
203.55799999999991
 30
0.0
 11
127.648
 21
203.58600000000001
 31
0.0
  0
LINE
  5
2BF
  8
0
 62
     7
 10
127.648
 20
203.58600000000001
 30
0.0
 11
127.74499999999991
 21
203.595
 31
0.0
  0
LINE
  5
2C0
  8
0
 62
     7
 10
126.92
 20
184.482
 30
0.0
 11
127.245
 21
203.1039999999999
 31
0.0
  0
LINE
  5
2C1
  8
0
 62
     7
 10
124.25399999999991
 20
181.86199999999991
 30
0.0
 11
124.7679999999999
 21
181.91200000000001
 31
0.0
  0
LINE
  5
2C2
  8
0
 62
     7
 10
124.7679999999999
 20
181.91200000000001
 30
0.0
 11
125.2639999999999
 21
182.05999999999989
 31
0.0
  0
LINE
  5
2C3
  8
0
 62
     7
 10
125.2639999999999
 20
182.05999999999989
 30
0.0
 11
125.721
 21
182.30199999999999
 31
0.0
  0
LINE
  5
2C4
  8
0
 62
     7
 10
125.721
 20
182.30199999999999
 30
0.0
 11
126.12299999999991
 21
182.62700000000001
 31
0.0
  0
LINE
  5
2C5
  8
0
 62
     7
 10
126.12299999999991
 20
182.62700000000001
 30
0.0
 11
126.455
 21
183.023
 31
0.0
  0
LINE
  5
2C6
  8
0
 62
     7
 10
126.455
 20
183.023
 30
0.0
 11
126.70399999999989
 21
183.47599999999991
 31
0.0
  0
LINE
  5
2C7
  8
0
 62
     7
 10
126.70399999999989
 20
183.47599999999991
 30
0.0
 11
126.861
 21
183.9679999999999
 31
0.0
  0
LINE
  5
2C8
  8
0
 62
     7
 10
126.861
 20
183.9679999999999
 30
0.0
 11
126.92
 21
184.482
 31
0.0
  0
LINE
  5
2C9
  8
0
 62
     7
 10
117.554
 20
181.86199999999991
 30
0.0
 11
124.25399999999991
 21
181.86199999999991
 31
0.0
  0
LINE
  5
2CA
  8
0
 62
     7
 10
116.554
 20
180.86199999999991
 30
0.0
 11
116.569
 21
181.03599999999989
 31
0.0
  0
LINE
  5
2CB
  8
0
 62
     7
 10
116.569
 20
181.03599999999989
 30
0.0
 11
116.6139999999999
 21
181.20400000000001
 31
0.0
  0
LINE
  5
2CC
  8
0
 62
     7
 10
116.6139999999999
 20
181.20400000000001
 30
0.0
 11
116.687
 21
181.36199999999999
 31
0.0
  0
LINE
  5
2CD
  8
0
 62
     7
 10
116.687
 20
181.36199999999999
 30
0.0
 11
116.788
 21
181.505
 31
0.0
  0
LINE
  5
2CE
  8
0
 62
     7
 10
116.788
 20
181.505
 30
0.0
 11
116.911
 21
181.6279999999999
 31
0.0
  0
LINE
  5
2CF
  8
0
 62
     7
 10
116.911
 20
181.6279999999999
 30
0.0
 11
117.054
 21
181.72799999999989
 31
0.0
  0
LINE
  5
2D0
  8
0
 62
     7
 10
117.054
 20
181.72799999999989
 30
0.0
 11
117.212
 21
181.80199999999999
 31
0.0
  0
LINE
  5
2D1
  8
0
 62
     7
 10
117.212
 20
181.80199999999999
 30
0.0
 11
117.3799999999999
 21
181.84699999999989
 31
0.0
  0
LINE
  5
2D2
  8
0
 62
     7
 10
117.3799999999999
 20
181.84699999999989
 30
0.0
 11
117.554
 21
181.86199999999991
 31
0.0
  0
LINE
  5
2D3
  8
0
 62
     7
 10
115.45399999999989
 20
173.22900000000001
 30
0.0
 11
116.22
 21
171.56200000000001
 31
0.0
  0
LINE
  5
2D4
  8
0
 62
     7
 10
116.22
 20
171.56200000000001
 30
0.0
 11
116.554
 21
171.56200000000001
 31
0.0
  0
LINE
  5
2D5
  8
0
 62
     7
 10
116.554
 20
171.56200000000001
 30
0.0
 11
116.554
 21
180.86199999999991
 31
0.0
  0
ARC
  5
2D6
  8
0
 62
     7
 10
130.93613199999999
 20
225.91234900000001
 30
0.0
 40
0.518127
 50
272.93793499999992
 51
358.05780499999992
  0
LINE
  5
2D7
  8
0
 62
     7
 10
129.762
 20
221.53899999999999
 30
0.0
 11
128.953
 21
210.26199999999989
 31
0.0
  0
LINE
  5
2D8
  8
0
 62
     7
 10
128.05699999999999
 20
210.33799999999999
 30
0.0
 11
129.0029999999999
 21
223.5379999999999
 31
0.0
  0
LINE
  5
2D9
  8
0
 62
     7
 10
115.28700000000001
 20
174.2949999999999
 30
0.0
 11
115.28700000000001
 21
170.62899999999999
 31
0.0
  0
LINE
  5
2DA
  8
0
 62
     7
 10
115.437
 20
174.19200000000001
 30
0.0
 11
115.28700000000001
 21
174.2949999999999
 31
0.0
  0
LINE
  5
2DB
  8
0
 62
     7
 10
115.28700000000001
 20
170.62899999999999
 30
0.0
 11
116.45399999999989
 21
170.62899999999999
 31
0.0
  0
LINE
  5
2DC
  8
0
 62
     7
 10
116.45399999999989
 20
170.62899999999999
 30
0.0
 11
116.45399999999989
 21
171.56200000000001
 31
0.0
  0
LINE
  5
2DD
  8
0
 62
     7
 10
116.45399999999989
 20
171.56200000000001
 30
0.0
 11
116.22
 21
171.56200000000001
 31
0.0
  0
LINE
  5
2DE
  8
0
 62
     7
 10
116.22
 20
171.56200000000001
 30
0.0
 11
115.45399999999989
 21
173.22900000000001
 31
0.0
  0
LINE
  5
2DF
  8
0
 62
     7
 10
115.45399999999989
 20
173.22900000000001
 30
0.0
 11
115.437
 21
174.19200000000001
 31
0.0
  0
LINE
  5
2E0
  8
0
 62
     7
 10
112.95399999999989
 20
171.06200000000001
 30
0.0
 11
112.95399999999989
 21
159.72799999999989
 31
0.0
  0
LINE
  5
2E1
  8
0
 62
     7
 10
113.45399999999989
 20
171.56200000000001
 30
0.0
 11
113.367
 21
171.554
 31
0.0
  0
LINE
  5
2E2
  8
0
 62
     7
 10
113.367
 20
171.554
 30
0.0
 11
113.283
 21
171.53200000000001
 31
0.0
  0
LINE
  5
2E3
  8
0
 62
     7
 10
113.283
 20
171.53200000000001
 30
0.0
 11
113.20399999999989
 21
171.49499999999989
 31
0.0
  0
LINE
  5
2E4
  8
0
 62
     7
 10
113.20399999999989
 20
171.49499999999989
 30
0.0
 11
113.13200000000001
 21
171.44499999999999
 31
0.0
  0
LINE
  5
2E5
  8
0
 62
     7
 10
113.13200000000001
 20
171.44499999999999
 30
0.0
 11
113.071
 21
171.3829999999999
 31
0.0
  0
LINE
  5
2E6
  8
0
 62
     7
 10
113.071
 20
171.3829999999999
 30
0.0
 11
113.0209999999999
 21
171.31200000000001
 31
0.0
  0
LINE
  5
2E7
  8
0
 62
     7
 10
113.0209999999999
 20
171.31200000000001
 30
0.0
 11
112.9839999999999
 21
171.233
 31
0.0
  0
LINE
  5
2E8
  8
0
 62
     7
 10
112.9839999999999
 20
171.233
 30
0.0
 11
112.961
 21
171.14899999999989
 31
0.0
  0
LINE
  5
2E9
  8
0
 62
     7
 10
112.961
 20
171.14899999999989
 30
0.0
 11
112.95399999999989
 21
171.06200000000001
 31
0.0
  0
LINE
  5
2EA
  8
0
 62
     7
 10
113.587
 20
171.56200000000001
 30
0.0
 11
113.45399999999989
 21
171.56200000000001
 31
0.0
  0
LINE
  5
2EB
  8
0
 62
     7
 10
114.25399999999991
 20
172.22799999999989
 30
0.0
 11
114.244
 21
172.113
 31
0.0
  0
LINE
  5
2EC
  8
0
 62
     7
 10
114.244
 20
172.113
 30
0.0
 11
114.21299999999989
 21
172.00099999999989
 31
0.0
  0
LINE
  5
2ED
  8
0
 62
     7
 10
114.21299999999989
 20
172.00099999999989
 30
0.0
 11
114.1639999999999
 21
171.89500000000001
 31
0.0
  0
LINE
  5
2EE
  8
0
 62
     7
 10
114.1639999999999
 20
171.89500000000001
 30
0.0
 11
114.098
 21
171.80000000000001
 31
0.0
  0
LINE
  5
2EF
  8
0
 62
     7
 10
114.098
 20
171.80000000000001
 30
0.0
 11
114.0149999999999
 21
171.7179999999999
 31
0.0
  0
LINE
  5
2F0
  8
0
 62
     7
 10
114.0149999999999
 20
171.7179999999999
 30
0.0
 11
113.9199999999999
 21
171.6509999999999
 31
0.0
  0
LINE
  5
2F1
  8
0
 62
     7
 10
113.9199999999999
 20
171.6509999999999
 30
0.0
 11
113.8149999999999
 21
171.602
 31
0.0
  0
LINE
  5
2F2
  8
0
 62
     7
 10
113.8149999999999
 20
171.602
 30
0.0
 11
113.7029999999999
 21
171.572
 31
0.0
  0
LINE
  5
2F3
  8
0
 62
     7
 10
113.7029999999999
 20
171.572
 30
0.0
 11
113.587
 21
171.56200000000001
 31
0.0
  0
LINE
  5
2F4
  8
0
 62
     7
 10
114.876
 20
175.56200000000001
 30
0.0
 11
114.25399999999991
 21
175.56200000000001
 31
0.0
  0
LINE
  5
2F5
  8
0
 62
     7
 10
114.25399999999991
 20
175.56200000000001
 30
0.0
 11
114.25399999999991
 21
172.22799999999989
 31
0.0
  0
LINE
  5
2F6
  8
0
 62
     7
 10
115.20999999999989
 20
175.23400000000001
 30
0.0
 11
115.202
 21
175.29799999999989
 31
0.0
  0
LINE
  5
2F7
  8
0
 62
     7
 10
115.202
 20
175.29799999999989
 30
0.0
 11
115.18299999999989
 21
175.36000000000001
 31
0.0
  0
LINE
  5
2F8
  8
0
 62
     7
 10
115.18299999999989
 20
175.36000000000001
 30
0.0
 11
115.151
 21
175.417
 31
0.0
  0
LINE
  5
2F9
  8
0
 62
     7
 10
115.151
 20
175.417
 30
0.0
 11
115.11
 21
175.46599999999989
 31
0.0
  0
LINE
  5
2FA
  8
0
 62
     7
 10
115.11
 20
175.46599999999989
 30
0.0
 11
115.059
 21
175.50700000000001
 31
0.0
  0
LINE
  5
2FB
  8
0
 62
     7
 10
115.059
 20
175.50700000000001
 30
0.0
 11
115.002
 21
175.53700000000001
 31
0.0
  0
LINE
  5
2FC
  8
0
 62
     7
 10
115.002
 20
175.53700000000001
 30
0.0
 11
114.9399999999999
 21
175.5559999999999
 31
0.0
  0
LINE
  5
2FD
  8
0
 62
     7
 10
114.9399999999999
 20
175.5559999999999
 30
0.0
 11
114.876
 21
175.56200000000001
 31
0.0
  0
LINE
  5
2FE
  8
0
 62
     7
 10
113.587
 20
160.06200000000001
 30
0.0
 11
113.587
 21
169.6279999999999
 31
0.0
  0
LINE
  5
2FF
  8
0
 62
     7
 10
113.587
 20
169.6279999999999
 30
0.0
 11
116.53700000000001
 21
169.6279999999999
 31
0.0
  0
LINE
  5
300
  8
0
 62
     7
 10
116.53700000000001
 20
169.6279999999999
 30
0.0
 11
116.53700000000001
 21
170.62899999999999
 31
0.0
  0
LINE
  5
301
  8
0
 62
     7
 10
116.53700000000001
 20
170.62899999999999
 30
0.0
 11
115.28700000000001
 21
170.62899999999999
 31
0.0
  0
LINE
  5
302
  8
0
 62
     7
 10
115.28700000000001
 20
170.62899999999999
 30
0.0
 11
115.20999999999989
 21
175.23400000000001
 31
0.0
  0
LINE
  5
303
  8
0
 62
     7
 10
113.25399999999991
 20
159.72799999999989
 30
0.0
 11
113.312
 21
159.73400000000001
 31
0.0
  0
LINE
  5
304
  8
0
 62
     7
 10
113.312
 20
159.73400000000001
 30
0.0
 11
113.36799999999999
 21
159.749
 31
0.0
  0
LINE
  5
305
  8
0
 62
     7
 10
113.36799999999999
 20
159.749
 30
0.0
 11
113.42
 21
159.773
 31
0.0
  0
LINE
  5
306
  8
0
 62
     7
 10
113.42
 20
159.773
 30
0.0
 11
113.4679999999999
 21
159.80699999999999
 31
0.0
  0
LINE
  5
307
  8
0
 62
     7
 10
113.4679999999999
 20
159.80699999999999
 30
0.0
 11
113.5089999999999
 21
159.8479999999999
 31
0.0
  0
LINE
  5
308
  8
0
 62
     7
 10
113.5089999999999
 20
159.8479999999999
 30
0.0
 11
113.54299999999991
 21
159.89500000000001
 31
0.0
  0
LINE
  5
309
  8
0
 62
     7
 10
113.54299999999991
 20
159.89500000000001
 30
0.0
 11
113.56699999999999
 21
159.94799999999989
 31
0.0
  0
LINE
  5
30A
  8
0
 62
     7
 10
113.56699999999999
 20
159.94799999999989
 30
0.0
 11
113.58199999999999
 21
160.00399999999991
 31
0.0
  0
LINE
  5
30B
  8
0
 62
     7
 10
113.58199999999999
 20
160.00399999999991
 30
0.0
 11
113.587
 21
160.06200000000001
 31
0.0
  0
LINE
  5
30C
  8
0
 62
     7
 10
112.95399999999989
 20
159.72799999999989
 30
0.0
 11
113.25399999999991
 21
159.72799999999989
 31
0.0
  0
LINE
  5
30D
  8
0
 62
     7
 10
118.554
 20
168.96199999999999
 30
0.0
 11
118.554
 21
178.06200000000001
 31
0.0
  0
LINE
  5
30E
  8
0
 62
     7
 10
118.554
 20
178.06200000000001
 30
0.0
 11
117.321
 21
178.06200000000001
 31
0.0
  0
LINE
  5
30F
  8
0
 62
     7
 10
117.321
 20
178.06200000000001
 30
0.0
 11
117.321
 21
170.12899999999999
 31
0.0
  0
LINE
  5
310
  8
0
 62
     7
 10
117.321
 20
170.12899999999999
 30
0.0
 11
116.81999999999989
 21
169.6279999999999
 31
0.0
  0
LINE
  5
311
  8
0
 62
     7
 10
116.81999999999989
 20
169.6279999999999
 30
0.0
 11
115.4039999999999
 21
169.6279999999999
 31
0.0
  0
LINE
  5
312
  8
0
 62
     7
 10
115.4039999999999
 20
169.6279999999999
 30
0.0
 11
115.4039999999999
 21
168.2949999999999
 31
0.0
  0
LINE
  5
313
  8
0
 62
     7
 10
117.887
 20
168.2949999999999
 30
0.0
 11
118.017
 21
168.30799999999991
 31
0.0
  0
LINE
  5
314
  8
0
 62
     7
 10
118.017
 20
168.30799999999991
 30
0.0
 11
118.142
 21
168.34599999999989
 31
0.0
  0
LINE
  5
315
  8
0
 62
     7
 10
118.142
 20
168.34599999999989
 30
0.0
 11
118.25700000000001
 21
168.40700000000001
 31
0.0
  0
LINE
  5
316
  8
0
 62
     7
 10
118.25700000000001
 20
168.40700000000001
 30
0.0
 11
118.3579999999999
 21
168.4909999999999
 31
0.0
  0
LINE
  5
317
  8
0
 62
     7
 10
118.3579999999999
 20
168.4909999999999
 30
0.0
 11
118.44199999999999
 21
168.59099999999989
 31
0.0
  0
LINE
  5
318
  8
0
 62
     7
 10
118.44199999999999
 20
168.59099999999989
 30
0.0
 11
118.5029999999999
 21
168.70699999999999
 31
0.0
  0
LINE
  5
319
  8
0
 62
     7
 10
118.5029999999999
 20
168.70699999999999
 30
0.0
 11
118.541
 21
168.83199999999999
 31
0.0
  0
LINE
  5
31A
  8
0
 62
     7
 10
118.541
 20
168.83199999999999
 30
0.0
 11
118.554
 21
168.96199999999999
 31
0.0
  0
LINE
  5
31B
  8
0
 62
     7
 10
115.4039999999999
 20
168.2949999999999
 30
0.0
 11
117.887
 21
168.2949999999999
 31
0.0
  0
LINE
  5
31C
  8
0
 62
     7
 10
121.95399999999999
 20
205.3949999999999
 30
0.0
 11
121.95399999999999
 21
186.72799999999989
 31
0.0
  0
LINE
  5
31D
  8
0
 62
     7
 10
119.9529999999999
 20
207.3949999999999
 30
0.0
 11
120.34399999999999
 21
207.357
 31
0.0
  0
LINE
  5
31E
  8
0
 62
     7
 10
120.34399999999999
 20
207.357
 30
0.0
 11
120.71899999999989
 21
207.24299999999991
 31
0.0
  0
LINE
  5
31F
  8
0
 62
     7
 10
120.71899999999989
 20
207.24299999999991
 30
0.0
 11
121.065
 21
207.05799999999999
 31
0.0
  0
LINE
  5
320
  8
0
 62
     7
 10
121.065
 20
207.05799999999999
 30
0.0
 11
121.3679999999999
 21
206.809
 31
0.0
  0
LINE
  5
321
  8
0
 62
     7
 10
121.3679999999999
 20
206.809
 30
0.0
 11
121.6169999999999
 21
206.50599999999989
 31
0.0
  0
LINE
  5
322
  8
0
 62
     7
 10
121.6169999999999
 20
206.50599999999989
 30
0.0
 11
121.801
 21
206.15999999999991
 31
0.0
  0
LINE
  5
323
  8
0
 62
     7
 10
121.801
 20
206.15999999999991
 30
0.0
 11
121.91500000000001
 21
205.785
 31
0.0
  0
LINE
  5
324
  8
0
 62
     7
 10
121.91500000000001
 20
205.785
 30
0.0
 11
121.95399999999999
 21
205.3949999999999
 31
0.0
  0
LINE
  5
325
  8
0
 62
     7
 10
119.9529999999999
 20
208.06200000000001
 30
0.0
 11
107.28699999999991
 21
208.06200000000001
 31
0.0
  0
LINE
  5
326
  8
0
 62
     7
 10
107.28699999999991
 20
208.06200000000001
 30
0.0
 11
107.28699999999991
 21
207.3949999999999
 31
0.0
  0
LINE
  5
327
  8
0
 62
     7
 10
107.28699999999991
 20
207.3949999999999
 30
0.0
 11
119.9529999999999
 21
207.3949999999999
 31
0.0
  0
LINE
  5
328
  8
0
 62
     7
 10
122.621
 20
205.3949999999999
 30
0.0
 11
122.58
 21
205.858
 31
0.0
  0
LINE
  5
329
  8
0
 62
     7
 10
122.58
 20
205.858
 30
0.0
 11
122.459
 21
206.30699999999999
 31
0.0
  0
LINE
  5
32A
  8
0
 62
     7
 10
122.459
 20
206.30699999999999
 30
0.0
 11
122.26299999999991
 21
206.72799999999989
 31
0.0
  0
LINE
  5
32B
  8
0
 62
     7
 10
122.26299999999991
 20
206.72799999999989
 30
0.0
 11
121.996
 21
207.10900000000001
 31
0.0
  0
LINE
  5
32C
  8
0
 62
     7
 10
121.996
 20
207.10900000000001
 30
0.0
 11
121.66799999999991
 21
207.43799999999999
 31
0.0
  0
LINE
  5
32D
  8
0
 62
     7
 10
121.66799999999991
 20
207.43799999999999
 30
0.0
 11
121.28700000000001
 21
207.70500000000001
 31
0.0
  0
LINE
  5
32E
  8
0
 62
     7
 10
121.28700000000001
 20
207.70500000000001
 30
0.0
 11
120.866
 21
207.9009999999999
 31
0.0
  0
LINE
  5
32F
  8
0
 62
     7
 10
120.866
 20
207.9009999999999
 30
0.0
 11
120.4169999999999
 21
208.02099999999999
 31
0.0
  0
LINE
  5
330
  8
0
 62
     7
 10
120.4169999999999
 20
208.02099999999999
 30
0.0
 11
119.9529999999999
 21
208.06200000000001
 31
0.0
  0
LINE
  5
331
  8
0
 62
     7
 10
122.621
 20
186.72799999999989
 30
0.0
 11
122.621
 21
197.06200000000001
 31
0.0
  0
LINE
  5
332
  8
0
 62
     7
 10
122.621
 20
197.06200000000001
 30
0.0
 11
125.621
 21
201.39500000000001
 31
0.0
  0
LINE
  5
333
  8
0
 62
     7
 10
125.621
 20
201.39500000000001
 30
0.0
 11
125.621
 21
204.72900000000001
 31
0.0
  0
LINE
  5
334
  8
0
 62
     7
 10
125.621
 20
204.72900000000001
 30
0.0
 11
127.254
 21
204.72900000000001
 31
0.0
  0
LINE
  5
335
  8
0
 62
     7
 10
127.254
 20
204.72900000000001
 30
0.0
 11
127.254
 21
205.3949999999999
 31
0.0
  0
LINE
  5
336
  8
0
 62
     7
 10
127.254
 20
205.3949999999999
 30
0.0
 11
122.621
 21
205.3949999999999
 31
0.0
  0
LINE
  5
337
  8
0
 62
     7
 10
122.28700000000001
 20
186.39500000000001
 30
0.0
 11
122.3449999999999
 21
186.40000000000001
 31
0.0
  0
LINE
  5
338
  8
0
 62
     7
 10
122.3449999999999
 20
186.40000000000001
 30
0.0
 11
122.401
 21
186.41499999999999
 31
0.0
  0
LINE
  5
339
  8
0
 62
     7
 10
122.401
 20
186.41499999999999
 30
0.0
 11
122.45399999999989
 21
186.44
 31
0.0
  0
LINE
  5
33A
  8
0
 62
     7
 10
122.45399999999989
 20
186.44
 30
0.0
 11
122.501
 21
186.4729999999999
 31
0.0
  0
LINE
  5
33B
  8
0
 62
     7
 10
122.501
 20
186.4729999999999
 30
0.0
 11
122.5419999999999
 21
186.51400000000001
 31
0.0
  0
LINE
  5
33C
  8
0
 62
     7
 10
122.5419999999999
 20
186.51400000000001
 30
0.0
 11
122.57599999999999
 21
186.56200000000001
 31
0.0
  0
LINE
  5
33D
  8
0
 62
     7
 10
122.57599999999999
 20
186.56200000000001
 30
0.0
 11
122.59999999999989
 21
186.61500000000001
 31
0.0
  0
LINE
  5
33E
  8
0
 62
     7
 10
122.59999999999989
 20
186.61500000000001
 30
0.0
 11
122.61499999999999
 21
186.67099999999991
 31
0.0
  0
LINE
  5
33F
  8
0
 62
     7
 10
122.61499999999999
 20
186.67099999999991
 30
0.0
 11
122.621
 21
186.72799999999989
 31
0.0
  0
LINE
  5
340
  8
0
 62
     7
 10
121.95399999999999
 20
186.72799999999989
 30
0.0
 11
121.9589999999999
 21
186.67099999999991
 31
0.0
  0
LINE
  5
341
  8
0
 62
     7
 10
121.9589999999999
 20
186.67099999999991
 30
0.0
 11
121.9739999999999
 21
186.61500000000001
 31
0.0
  0
LINE
  5
342
  8
0
 62
     7
 10
121.9739999999999
 20
186.61500000000001
 30
0.0
 11
121.99799999999991
 21
186.56200000000001
 31
0.0
  0
LINE
  5
343
  8
0
 62
     7
 10
121.99799999999991
 20
186.56200000000001
 30
0.0
 11
122.032
 21
186.51400000000001
 31
0.0
  0
LINE
  5
344
  8
0
 62
     7
 10
122.032
 20
186.51400000000001
 30
0.0
 11
122.07299999999989
 21
186.4729999999999
 31
0.0
  0
LINE
  5
345
  8
0
 62
     7
 10
122.07299999999989
 20
186.4729999999999
 30
0.0
 11
122.12
 21
186.44
 31
0.0
  0
LINE
  5
346
  8
0
 62
     7
 10
122.12
 20
186.44
 30
0.0
 11
122.1729999999999
 21
186.41499999999999
 31
0.0
  0
LINE
  5
347
  8
0
 62
     7
 10
122.1729999999999
 20
186.41499999999999
 30
0.0
 11
122.229
 21
186.40000000000001
 31
0.0
  0
LINE
  5
348
  8
0
 62
     7
 10
122.229
 20
186.40000000000001
 30
0.0
 11
122.28700000000001
 21
186.39500000000001
 31
0.0
  0
LINE
  5
349
  8
0
 62
     7
 10
107.28699999999991
 20
208.06200000000001
 30
0.0
 11
107.28699999999991
 21
207.3949999999999
 31
0.0
  0
LINE
  5
34A
  8
0
 62
     7
 10
122.621
 20
197.06200000000001
 30
0.0
 11
122.621
 21
186.72799999999989
 31
0.0
  0
LINE
  5
34B
  8
0
 62
     7
 10
128.62100000000001
 20
227.428
 30
0.0
 11
129.95400000000001
 21
227.428
 31
0.0
  0
LINE
  5
34C
  8
0
 62
     7
 10
129.95400000000001
 20
227.428
 30
0.0
 11
129.95400000000001
 21
227.2949999999999
 31
0.0
  0
LINE
  5
34D
  8
0
 62
     7
 10
129.95400000000001
 20
227.2949999999999
 30
0.0
 11
128.75399999999991
 21
227.2949999999999
 31
0.0
  0
LINE
  5
34E
  8
0
 62
     7
 10
128.75399999999991
 20
227.2949999999999
 30
0.0
 11
128.75399999999991
 21
227.22799999999989
 31
0.0
  0
LINE
  5
34F
  8
0
 62
     7
 10
128.93100000000001
 20
227.76599999999999
 30
0.0
 11
128.86799999999999
 21
227.75599999999989
 31
0.0
  0
LINE
  5
350
  8
0
 62
     7
 10
128.86799999999999
 20
227.75599999999989
 30
0.0
 11
128.80899999999991
 21
227.73400000000001
 31
0.0
  0
LINE
  5
351
  8
0
 62
     7
 10
128.80899999999991
 20
227.73400000000001
 30
0.0
 11
128.75499999999991
 21
227.70199999999991
 31
0.0
  0
LINE
  5
352
  8
0
 62
     7
 10
128.75499999999991
 20
227.70199999999991
 30
0.0
 11
128.708
 21
227.65899999999999
 31
0.0
  0
LINE
  5
353
  8
0
 62
     7
 10
128.708
 20
227.65899999999999
 30
0.0
 11
128.6699999999999
 21
227.6089999999999
 31
0.0
  0
LINE
  5
354
  8
0
 62
     7
 10
128.6699999999999
 20
227.6089999999999
 30
0.0
 11
128.64199999999991
 21
227.55199999999999
 31
0.0
  0
LINE
  5
355
  8
0
 62
     7
 10
128.64199999999991
 20
227.55199999999999
 30
0.0
 11
128.626
 21
227.4909999999999
 31
0.0
  0
LINE
  5
356
  8
0
 62
     7
 10
128.626
 20
227.4909999999999
 30
0.0
 11
128.62100000000001
 21
227.428
 31
0.0
  0
LINE
  5
357
  8
0
 62
     7
 10
130.78700000000001
 20
227.89500000000001
 30
0.0
 11
128.93100000000001
 21
227.76599999999999
 31
0.0
  0
LINE
  5
358
  8
0
 62
     7
 10
131.28699999999989
 20
227.39500000000001
 30
0.0
 11
131.27999999999989
 21
227.482
 31
0.0
  0
LINE
  5
359
  8
0
 62
     7
 10
131.27999999999989
 20
227.482
 30
0.0
 11
131.25700000000001
 21
227.56599999999989
 31
0.0
  0
LINE
  5
35A
  8
0
 62
     7
 10
131.25700000000001
 20
227.56599999999989
 30
0.0
 11
131.22
 21
227.64500000000001
 31
0.0
  0
LINE
  5
35B
  8
0
 62
     7
 10
131.22
 20
227.64500000000001
 30
0.0
 11
131.1699999999999
 21
227.71599999999989
 31
0.0
  0
LINE
  5
35C
  8
0
 62
     7
 10
131.1699999999999
 20
227.71599999999989
 30
0.0
 11
131.10900000000001
 21
227.77799999999991
 31
0.0
  0
LINE
  5
35D
  8
0
 62
     7
 10
131.10900000000001
 20
227.77799999999991
 30
0.0
 11
131.03700000000001
 21
227.828
 31
0.0
  0
LINE
  5
35E
  8
0
 62
     7
 10
131.03700000000001
 20
227.828
 30
0.0
 11
130.95799999999991
 21
227.86500000000001
 31
0.0
  0
LINE
  5
35F
  8
0
 62
     7
 10
130.95799999999991
 20
227.86500000000001
 30
0.0
 11
130.874
 21
227.88699999999989
 31
0.0
  0
LINE
  5
360
  8
0
 62
     7
 10
130.874
 20
227.88699999999989
 30
0.0
 11
130.78700000000001
 21
227.89500000000001
 31
0.0
  0
LINE
  5
361
  8
0
 62
     7
 10
130.78700000000001
 20
226.89500000000001
 30
0.0
 11
130.874
 21
226.90299999999991
 31
0.0
  0
LINE
  5
362
  8
0
 62
     7
 10
130.874
 20
226.90299999999991
 30
0.0
 11
130.95799999999991
 21
226.9249999999999
 31
0.0
  0
LINE
  5
363
  8
0
 62
     7
 10
130.95799999999991
 20
226.9249999999999
 30
0.0
 11
131.03700000000001
 21
226.96199999999999
 31
0.0
  0
LINE
  5
364
  8
0
 62
     7
 10
131.03700000000001
 20
226.96199999999999
 30
0.0
 11
131.10900000000001
 21
227.01199999999989
 31
0.0
  0
LINE
  5
365
  8
0
 62
     7
 10
131.10900000000001
 20
227.01199999999989
 30
0.0
 11
131.1699999999999
 21
227.0739999999999
 31
0.0
  0
LINE
  5
366
  8
0
 62
     7
 10
131.1699999999999
 20
227.0739999999999
 30
0.0
 11
131.22
 21
227.14500000000001
 31
0.0
  0
LINE
  5
367
  8
0
 62
     7
 10
131.22
 20
227.14500000000001
 30
0.0
 11
131.25700000000001
 21
227.22399999999999
 31
0.0
  0
LINE
  5
368
  8
0
 62
     7
 10
131.25700000000001
 20
227.22399999999999
 30
0.0
 11
131.27999999999989
 21
227.30799999999991
 31
0.0
  0
LINE
  5
369
  8
0
 62
     7
 10
131.27999999999989
 20
227.30799999999991
 30
0.0
 11
131.28699999999989
 21
227.39500000000001
 31
0.0
  0
LINE
  5
36A
  8
0
 62
     7
 10
129.08699999999999
 20
226.89500000000001
 30
0.0
 11
130.78700000000001
 21
226.89500000000001
 31
0.0
  0
LINE
  5
36B
  8
0
 62
     7
 10
128.75399999999991
 20
227.22799999999989
 30
0.0
 11
128.7589999999999
 21
227.17099999999999
 31
0.0
  0
LINE
  5
36C
  8
0
 62
     7
 10
128.7589999999999
 20
227.17099999999999
 30
0.0
 11
128.774
 21
227.11399999999989
 31
0.0
  0
LINE
  5
36D
  8
0
 62
     7
 10
128.774
 20
227.11399999999989
 30
0.0
 11
128.798
 21
227.06200000000001
 31
0.0
  0
LINE
  5
36E
  8
0
 62
     7
 10
128.798
 20
227.06200000000001
 30
0.0
 11
128.83199999999991
 21
227.01400000000001
 31
0.0
  0
LINE
  5
36F
  8
0
 62
     7
 10
128.83199999999991
 20
227.01400000000001
 30
0.0
 11
128.87299999999991
 21
226.97300000000001
 31
0.0
  0
LINE
  5
370
  8
0
 62
     7
 10
128.87299999999991
 20
226.97300000000001
 30
0.0
 11
128.9199999999999
 21
226.94
 31
0.0
  0
LINE
  5
371
  8
0
 62
     7
 10
128.9199999999999
 20
226.94
 30
0.0
 11
128.9729999999999
 21
226.91499999999991
 31
0.0
  0
LINE
  5
372
  8
0
 62
     7
 10
128.9729999999999
 20
226.91499999999991
 30
0.0
 11
129.02899999999991
 21
226.90000000000001
 31
0.0
  0
LINE
  5
373
  8
0
 62
     7
 10
129.02899999999991
 20
226.90000000000001
 30
0.0
 11
129.08699999999999
 21
226.89500000000001
 31
0.0
  0
LINE
  5
374
  8
0
 62
     7
 10
129.08699999999999
 20
226.89500000000001
 30
0.0
 11
130.78700000000001
 21
226.89500000000001
 31
0.0
  0
LINE
  5
375
  8
0
 62
     7
 10
128.93100000000001
 20
227.76599999999999
 30
0.0
 11
130.78700000000001
 21
227.89500000000001
 31
0.0
  0
LINE
  5
376
  8
0
 62
     7
 10
107.28699999999991
 20
233.66199999999989
 30
0.0
 11
107.28699999999991
 21
233.39500000000001
 31
0.0
  0
LINE
  5
377
  8
0
 62
     7
 10
119.815
 20
233.29900000000001
 30
0.0
 11
107.28699999999991
 21
233.66199999999989
 31
0.0
  0
LINE
  5
378
  8
0
 62
     7
 10
120.691
 20
232.44900000000001
 30
0.0
 11
120.66200000000001
 21
232.61199999999991
 31
0.0
  0
LINE
  5
379
  8
0
 62
     7
 10
120.66200000000001
 20
232.61199999999991
 30
0.0
 11
120.604
 21
232.76799999999989
 31
0.0
  0
LINE
  5
37A
  8
0
 62
     7
 10
120.604
 20
232.76799999999989
 30
0.0
 11
120.51899999999991
 21
232.91099999999989
 31
0.0
  0
LINE
  5
37B
  8
0
 62
     7
 10
120.51899999999991
 20
232.91099999999989
 30
0.0
 11
120.411
 21
233.03700000000001
 31
0.0
  0
LINE
  5
37C
  8
0
 62
     7
 10
120.411
 20
233.03700000000001
 30
0.0
 11
120.282
 21
233.142
 31
0.0
  0
LINE
  5
37D
  8
0
 62
     7
 10
120.282
 20
233.142
 30
0.0
 11
120.137
 21
233.22199999999989
 31
0.0
  0
LINE
  5
37E
  8
0
 62
     7
 10
120.137
 20
233.22199999999989
 30
0.0
 11
119.9789999999999
 21
233.27500000000001
 31
0.0
  0
LINE
  5
37F
  8
0
 62
     7
 10
119.9789999999999
 20
233.27500000000001
 30
0.0
 11
119.815
 21
233.29900000000001
 31
0.0
  0
LINE
  5
380
  8
0
 62
     7
 10
120.95699999999999
 20
229.39799999999991
 30
0.0
 11
120.691
 21
232.44900000000001
 31
0.0
  0
LINE
  5
381
  8
0
 62
     7
 10
121.6879999999999
 20
228.72799999999989
 30
0.0
 11
121.5529999999999
 21
228.7409999999999
 31
0.0
  0
LINE
  5
382
  8
0
 62
     7
 10
121.5529999999999
 20
228.7409999999999
 30
0.0
 11
121.422
 21
228.77799999999999
 31
0.0
  0
LINE
  5
383
  8
0
 62
     7
 10
121.422
 20
228.77799999999999
 30
0.0
 11
121.301
 21
228.839
 31
0.0
  0
LINE
  5
384
  8
0
 62
     7
 10
121.301
 20
228.839
 30
0.0
 11
121.19199999999999
 21
228.92099999999999
 31
0.0
  0
LINE
  5
385
  8
0
 62
     7
 10
121.19199999999999
 20
228.92099999999999
 30
0.0
 11
121.1009999999999
 21
229.02199999999999
 31
0.0
  0
LINE
  5
386
  8
0
 62
     7
 10
121.1009999999999
 20
229.02199999999999
 30
0.0
 11
121.0299999999999
 21
229.137
 31
0.0
  0
LINE
  5
387
  8
0
 62
     7
 10
121.0299999999999
 20
229.137
 30
0.0
 11
120.982
 21
229.26400000000001
 31
0.0
  0
LINE
  5
388
  8
0
 62
     7
 10
120.982
 20
229.26400000000001
 30
0.0
 11
120.95699999999999
 21
229.39799999999991
 31
0.0
  0
LINE
  5
389
  8
0
 62
     7
 10
122.39700000000001
 20
228.72799999999989
 30
0.0
 11
121.6879999999999
 21
228.72799999999989
 31
0.0
  0
LINE
  5
38A
  8
0
 62
     7
 10
123.53
 20
229.30699999999999
 30
0.0
 11
123.35599999999999
 21
229.10900000000001
 31
0.0
  0
LINE
  5
38B
  8
0
 62
     7
 10
123.35599999999999
 20
229.10900000000001
 30
0.0
 11
123.1479999999999
 21
228.947
 31
0.0
  0
LINE
  5
38C
  8
0
 62
     7
 10
123.1479999999999
 20
228.947
 30
0.0
 11
122.913
 21
228.827
 31
0.0
  0
LINE
  5
38D
  8
0
 62
     7
 10
122.913
 20
228.827
 30
0.0
 11
122.65899999999991
 21
228.7529999999999
 31
0.0
  0
LINE
  5
38E
  8
0
 62
     7
 10
122.65899999999991
 20
228.7529999999999
 30
0.0
 11
122.39700000000001
 21
228.72799999999989
 31
0.0
  0
LINE
  5
38F
  8
0
 62
     7
 10
126.316
 20
233.149
 30
0.0
 11
123.53
 21
229.30699999999999
 31
0.0
  0
LINE
  5
390
  8
0
 62
     7
 10
127.126
 20
233.56200000000001
 30
0.0
 11
126.9379999999999
 21
233.54400000000001
 31
0.0
  0
LINE
  5
391
  8
0
 62
     7
 10
126.9379999999999
 20
233.54400000000001
 30
0.0
 11
126.75700000000001
 21
233.4909999999999
 31
0.0
  0
LINE
  5
392
  8
0
 62
     7
 10
126.75700000000001
 20
233.4909999999999
 30
0.0
 11
126.5889999999999
 21
233.40600000000001
 31
0.0
  0
LINE
  5
393
  8
0
 62
     7
 10
126.5889999999999
 20
233.40600000000001
 30
0.0
 11
126.4399999999999
 21
233.28999999999991
 31
0.0
  0
LINE
  5
394
  8
0
 62
     7
 10
126.4399999999999
 20
233.28999999999991
 30
0.0
 11
126.316
 21
233.149
 31
0.0
  0
LINE
  5
395
  8
0
 62
     7
 10
130.28700000000001
 20
233.56200000000001
 30
0.0
 11
127.126
 21
233.56200000000001
 31
0.0
  0
LINE
  5
396
  8
0
 62
     7
 10
131.28399999999999
 20
232.4899999999999
 30
0.0
 11
131.28100000000001
 21
232.67199999999991
 31
0.0
  0
LINE
  5
397
  8
0
 62
     7
 10
131.28100000000001
 20
232.67199999999991
 30
0.0
 11
131.244
 21
232.851
 31
0.0
  0
LINE
  5
398
  8
0
 62
     7
 10
131.244
 20
232.851
 30
0.0
 11
131.17599999999999
 21
233.02000000000001
 31
0.0
  0
LINE
  5
399
  8
0
 62
     7
 10
131.17599999999999
 20
233.02000000000001
 30
0.0
 11
131.078
 21
233.17299999999989
 31
0.0
  0
LINE
  5
39A
  8
0
 62
     7
 10
131.078
 20
233.17299999999989
 30
0.0
 11
130.95400000000001
 21
233.30699999999999
 31
0.0
  0
LINE
  5
39B
  8
0
 62
     7
 10
130.95400000000001
 20
233.30699999999999
 30
0.0
 11
130.80799999999991
 21
233.41499999999999
 31
0.0
  0
LINE
  5
39C
  8
0
 62
     7
 10
130.80799999999991
 20
233.41499999999999
 30
0.0
 11
130.64400000000001
 21
233.4959999999999
 31
0.0
  0
LINE
  5
39D
  8
0
 62
     7
 10
130.64400000000001
 20
233.4959999999999
 30
0.0
 11
130.46899999999991
 21
233.5449999999999
 31
0.0
  0
LINE
  5
39E
  8
0
 62
     7
 10
130.46899999999991
 20
233.5449999999999
 30
0.0
 11
130.28700000000001
 21
233.56200000000001
 31
0.0
  0
LINE
  5
39F
  8
0
 62
     7
 10
131.018
 20
232.50899999999999
 30
0.0
 11
130.68600000000001
 21
227.89500000000001
 31
0.0
  0
LINE
  5
3A0
  8
0
 62
     7
 10
130.68600000000001
 20
227.89500000000001
 30
0.0
 11
130.95400000000001
 21
227.89500000000001
 31
0.0
  0
LINE
  5
3A1
  8
0
 62
     7
 10
130.95400000000001
 20
227.89500000000001
 30
0.0
 11
131.28399999999999
 21
232.4899999999999
 31
0.0
  0
LINE
  5
3A2
  8
0
 62
     7
 10
130.28700000000001
 20
233.2949999999999
 30
0.0
 11
130.4199999999999
 21
233.2829999999999
 31
0.0
  0
LINE
  5
3A3
  8
0
 62
     7
 10
130.4199999999999
 20
233.2829999999999
 30
0.0
 11
130.54900000000001
 21
233.24700000000001
 31
0.0
  0
LINE
  5
3A4
  8
0
 62
     7
 10
130.54900000000001
 20
233.24700000000001
 30
0.0
 11
130.6689999999999
 21
233.1879999999999
 31
0.0
  0
LINE
  5
3A5
  8
0
 62
     7
 10
130.6689999999999
 20
233.1879999999999
 30
0.0
 11
130.77600000000001
 21
233.108
 31
0.0
  0
LINE
  5
3A6
  8
0
 62
     7
 10
130.77600000000001
 20
233.108
 30
0.0
 11
130.86699999999999
 21
233.00999999999991
 31
0.0
  0
LINE
  5
3A7
  8
0
 62
     7
 10
130.86699999999999
 20
233.00999999999991
 30
0.0
 11
130.93899999999999
 21
232.898
 31
0.0
  0
LINE
  5
3A8
  8
0
 62
     7
 10
130.93899999999999
 20
232.898
 30
0.0
 11
130.98899999999989
 21
232.77399999999989
 31
0.0
  0
LINE
  5
3A9
  8
0
 62
     7
 10
130.98899999999989
 20
232.77399999999989
 30
0.0
 11
131.01599999999991
 21
232.643
 31
0.0
  0
LINE
  5
3AA
  8
0
 62
     7
 10
131.01599999999991
 20
232.643
 30
0.0
 11
131.018
 21
232.50899999999999
 31
0.0
  0
LINE
  5
3AB
  8
0
 62
     7
 10
127.126
 20
233.2949999999999
 30
0.0
 11
130.28700000000001
 21
233.2949999999999
 31
0.0
  0
LINE
  5
3AC
  8
0
 62
     7
 10
126.532
 20
232.99199999999999
 30
0.0
 11
126.62299999999991
 21
233.09599999999989
 31
0.0
  0
LINE
  5
3AD
  8
0
 62
     7
 10
126.62299999999991
 20
233.09599999999989
 30
0.0
 11
126.732
 21
233.1809999999999
 31
0.0
  0
LINE
  5
3AE
  8
0
 62
     7
 10
126.732
 20
233.1809999999999
 30
0.0
 11
126.855
 21
233.24299999999999
 31
0.0
  0
LINE
  5
3AF
  8
0
 62
     7
 10
126.855
 20
233.24299999999999
 30
0.0
 11
126.988
 21
233.28200000000001
 31
0.0
  0
LINE
  5
3B0
  8
0
 62
     7
 10
126.988
 20
233.28200000000001
 30
0.0
 11
127.126
 21
233.2949999999999
 31
0.0
  0
LINE
  5
3B1
  8
0
 62
     7
 10
123.746
 20
229.15000000000001
 30
0.0
 11
126.532
 21
232.99199999999999
 31
0.0
  0
LINE
  5
3B2
  8
0
 62
     7
 10
122.39700000000001
 20
228.46199999999999
 30
0.0
 11
122.70999999999989
 21
228.4909999999999
 31
0.0
  0
LINE
  5
3B3
  8
0
 62
     7
 10
122.70999999999989
 20
228.4909999999999
 30
0.0
 11
123.011
 21
228.57899999999989
 31
0.0
  0
LINE
  5
3B4
  8
0
 62
     7
 10
123.011
 20
228.57899999999989
 30
0.0
 11
123.29000000000001
 21
228.72200000000001
 31
0.0
  0
LINE
  5
3B5
  8
0
 62
     7
 10
123.29000000000001
 20
228.72200000000001
 30
0.0
 11
123.5379999999999
 21
228.91399999999999
 31
0.0
  0
LINE
  5
3B6
  8
0
 62
     7
 10
123.5379999999999
 20
228.91399999999999
 30
0.0
 11
123.746
 21
229.15000000000001
 31
0.0
  0
LINE
  5
3B7
  8
0
 62
     7
 10
121.6879999999999
 20
228.46199999999999
 30
0.0
 11
122.39700000000001
 21
228.46199999999999
 31
0.0
  0
LINE
  5
3B8
  8
0
 62
     7
 10
120.69199999999989
 20
229.375
 30
0.0
 11
120.72499999999989
 21
229.19200000000001
 31
0.0
  0
LINE
  5
3B9
  8
0
 62
     7
 10
120.72499999999989
 20
229.19200000000001
 30
0.0
 11
120.791
 21
229.02000000000001
 31
0.0
  0
LINE
  5
3BA
  8
0
 62
     7
 10
120.791
 20
229.02000000000001
 30
0.0
 11
120.88799999999991
 21
228.86199999999991
 31
0.0
  0
LINE
  5
3BB
  8
0
 62
     7
 10
120.88799999999991
 20
228.86199999999991
 30
0.0
 11
121.01299999999991
 21
228.72399999999999
 31
0.0
  0
LINE
  5
3BC
  8
0
 62
     7
 10
121.01299999999991
 20
228.72399999999999
 30
0.0
 11
121.16
 21
228.61299999999989
 31
0.0
  0
LINE
  5
3BD
  8
0
 62
     7
 10
121.16
 20
228.61299999999989
 30
0.0
 11
121.325
 21
228.52999999999989
 31
0.0
  0
LINE
  5
3BE
  8
0
 62
     7
 10
121.325
 20
228.52999999999989
 30
0.0
 11
121.50399999999991
 21
228.47900000000001
 31
0.0
  0
LINE
  5
3BF
  8
0
 62
     7
 10
121.50399999999991
 20
228.47900000000001
 30
0.0
 11
121.6879999999999
 21
228.46199999999999
 31
0.0
  0
LINE
  5
3C0
  8
0
 62
     7
 10
120.425
 20
232.4259999999999
 30
0.0
 11
120.69199999999989
 21
229.375
 31
0.0
  0
LINE
  5
3C1
  8
0
 62
     7
 10
119.79899999999989
 20
233.03299999999999
 30
0.0
 11
119.917
 21
233.01599999999991
 31
0.0
  0
LINE
  5
3C2
  8
0
 62
     7
 10
119.917
 20
233.01599999999991
 30
0.0
 11
120.029
 21
232.97799999999989
 31
0.0
  0
LINE
  5
3C3
  8
0
 62
     7
 10
120.029
 20
232.97799999999989
 30
0.0
 11
120.133
 21
232.92099999999991
 31
0.0
  0
LINE
  5
3C4
  8
0
 62
     7
 10
120.133
 20
232.92099999999991
 30
0.0
 11
120.226
 21
232.84599999999989
 31
0.0
  0
LINE
  5
3C5
  8
0
 62
     7
 10
120.226
 20
232.84599999999989
 30
0.0
 11
120.303
 21
232.75599999999989
 31
0.0
  0
LINE
  5
3C6
  8
0
 62
     7
 10
120.303
 20
232.75599999999989
 30
0.0
 11
120.3629999999999
 21
232.654
 31
0.0
  0
LINE
  5
3C7
  8
0
 62
     7
 10
120.3629999999999
 20
232.654
 30
0.0
 11
120.4039999999999
 21
232.542
 31
0.0
  0
LINE
  5
3C8
  8
0
 62
     7
 10
120.4039999999999
 20
232.542
 30
0.0
 11
120.425
 21
232.4259999999999
 31
0.0
  0
LINE
  5
3C9
  8
0
 62
     7
 10
107.28699999999991
 20
233.39500000000001
 30
0.0
 11
119.79899999999989
 21
233.03299999999999
 31
0.0
  0
LINE
  5
3CA
  8
0
 62
     7
 10
127.126
 20
233.56200000000001
 30
0.0
 11
113.8689999999999
 21
233.56200000000001
 31
0.0
  0
LINE
  5
3CB
  8
0
 62
     7
 10
130.28700000000001
 20
233.56200000000001
 30
0.0
 11
127.126
 21
233.56200000000001
 31
0.0
  0
LINE
  5
3CC
  8
0
 62
     7
 10
107.28699999999991
 20
233.66199999999989
 30
0.0
 11
107.28699999999991
 21
233.39500000000001
 31
0.0
  0
LINE
  5
3CD
  8
0
 62
     7
 10
133.45400000000001
 20
228.8429999999999
 30
0.0
 11
133.45400000000001
 21
223.136
 31
0.0
  0
LINE
  5
3CE
  8
0
 62
     7
 10
133.7579999999999
 20
229.1749999999999
 30
0.0
 11
133.69699999999989
 21
229.16399999999999
 31
0.0
  0
LINE
  5
3CF
  8
0
 62
     7
 10
133.69699999999989
 20
229.16399999999999
 30
0.0
 11
133.6399999999999
 21
229.142
 31
0.0
  0
LINE
  5
3D0
  8
0
 62
     7
 10
133.6399999999999
 20
229.142
 30
0.0
 11
133.58699999999999
 21
229.10900000000001
 31
0.0
  0
LINE
  5
3D1
  8
0
 62
     7
 10
133.58699999999999
 20
229.10900000000001
 30
0.0
 11
133.542
 21
229.06800000000001
 31
0.0
  0
LINE
  5
3D2
  8
0
 62
     7
 10
133.542
 20
229.06800000000001
 30
0.0
 11
133.50399999999999
 21
229.01899999999989
 31
0.0
  0
LINE
  5
3D3
  8
0
 62
     7
 10
133.50399999999999
 20
229.01899999999989
 30
0.0
 11
133.47599999999991
 21
228.964
 31
0.0
  0
LINE
  5
3D4
  8
0
 62
     7
 10
133.47599999999991
 20
228.964
 30
0.0
 11
133.46000000000001
 21
228.904
 31
0.0
  0
LINE
  5
3D5
  8
0
 62
     7
 10
133.46000000000001
 20
228.904
 30
0.0
 11
133.45400000000001
 21
228.8429999999999
 31
0.0
  0
LINE
  5
3D6
  8
0
 62
     7
 10
137.11999999999989
 20
228.30199999999999
 30
0.0
 11
137.11999999999989
 21
229.46899999999999
 31
0.0
  0
LINE
  5
3D7
  8
0
 62
     7
 10
137.11999999999989
 20
229.46899999999999
 30
0.0
 11
136.45400000000001
 21
229.41099999999989
 31
0.0
  0
LINE
  5
3D8
  8
0
 62
     7
 10
136.45400000000001
 20
229.41099999999989
 30
0.0
 11
136.45400000000001
 21
228.80199999999999
 31
0.0
  0
LINE
  5
3D9
  8
0
 62
     7
 10
136.45400000000001
 20
228.80199999999999
 30
0.0
 11
135.28700000000001
 21
228.80199999999999
 31
0.0
  0
LINE
  5
3DA
  8
0
 62
     7
 10
135.28700000000001
 20
228.80199999999999
 30
0.0
 11
135.28700000000001
 21
229.309
 31
0.0
  0
LINE
  5
3DB
  8
0
 62
     7
 10
135.28700000000001
 20
229.309
 30
0.0
 11
133.7579999999999
 21
229.1749999999999
 31
0.0
  0
LINE
  5
3DC
  8
0
 62
     7
 10
136.816
 20
227.97
 30
0.0
 11
136.87700000000001
 21
227.98099999999991
 31
0.0
  0
LINE
  5
3DD
  8
0
 62
     7
 10
136.87700000000001
 20
227.98099999999991
 30
0.0
 11
136.934
 21
228.00299999999999
 31
0.0
  0
LINE
  5
3DE
  8
0
 62
     7
 10
136.934
 20
228.00299999999999
 30
0.0
 11
136.98699999999991
 21
228.03599999999989
 31
0.0
  0
LINE
  5
3DF
  8
0
 62
     7
 10
136.98699999999991
 20
228.03599999999989
 30
0.0
 11
137.0329999999999
 21
228.07699999999991
 31
0.0
  0
LINE
  5
3E0
  8
0
 62
     7
 10
137.0329999999999
 20
228.07699999999991
 30
0.0
 11
137.06999999999999
 21
228.12599999999989
 31
0.0
  0
LINE
  5
3E1
  8
0
 62
     7
 10
137.06999999999999
 20
228.12599999999989
 30
0.0
 11
137.0979999999999
 21
228.1809999999999
 31
0.0
  0
LINE
  5
3E2
  8
0
 62
     7
 10
137.0979999999999
 20
228.1809999999999
 30
0.0
 11
137.11500000000001
 21
228.24100000000001
 31
0.0
  0
LINE
  5
3E3
  8
0
 62
     7
 10
137.11500000000001
 20
228.24100000000001
 30
0.0
 11
137.11999999999989
 21
228.30199999999999
 31
0.0
  0
LINE
  5
3E4
  8
0
 62
     7
 10
135.131
 20
227.82299999999989
 30
0.0
 11
136.816
 21
227.97
 31
0.0
  0
LINE
  5
3E5
  8
0
 62
     7
 10
134.37100000000001
 20
226.99299999999999
 30
0.0
 11
134.3839999999999
 21
227.1459999999999
 31
0.0
  0
LINE
  5
3E6
  8
0
 62
     7
 10
134.3839999999999
 20
227.1459999999999
 30
0.0
 11
134.42699999999999
 21
227.2949999999999
 31
0.0
  0
LINE
  5
3E7
  8
0
 62
     7
 10
134.42699999999999
 20
227.2949999999999
 30
0.0
 11
134.49600000000001
 21
227.43299999999991
 31
0.0
  0
LINE
  5
3E8
  8
0
 62
     7
 10
134.49600000000001
 20
227.43299999999991
 30
0.0
 11
134.589
 21
227.55600000000001
 31
0.0
  0
LINE
  5
3E9
  8
0
 62
     7
 10
134.589
 20
227.55600000000001
 30
0.0
 11
134.70299999999989
 21
227.65899999999999
 31
0.0
  0
LINE
  5
3EA
  8
0
 62
     7
 10
134.70299999999989
 20
227.65899999999999
 30
0.0
 11
134.83500000000001
 21
227.74000000000001
 31
0.0
  0
LINE
  5
3EB
  8
0
 62
     7
 10
134.83500000000001
 20
227.74000000000001
 30
0.0
 11
134.9789999999999
 21
227.79499999999999
 31
0.0
  0
LINE
  5
3EC
  8
0
 62
     7
 10
134.9789999999999
 20
227.79499999999999
 30
0.0
 11
135.131
 21
227.82299999999989
 31
0.0
  0
LINE
  5
3ED
  8
0
 62
     7
 10
134.37100000000001
 20
225.01899999999989
 30
0.0
 11
134.37100000000001
 21
226.99299999999999
 31
0.0
  0
LINE
  5
3EE
  8
0
 62
     7
 10
133.78700000000001
 20
223.136
 30
0.0
 11
134.0379999999999
 21
223.5679999999999
 31
0.0
  0
LINE
  5
3EF
  8
0
 62
     7
 10
134.0379999999999
 20
223.5679999999999
 30
0.0
 11
134.221
 21
224.03399999999999
 31
0.0
  0
LINE
  5
3F0
  8
0
 62
     7
 10
134.221
 20
224.03399999999999
 30
0.0
 11
134.33299999999991
 21
224.5209999999999
 31
0.0
  0
LINE
  5
3F1
  8
0
 62
     7
 10
134.33299999999991
 20
224.5209999999999
 30
0.0
 11
134.37100000000001
 21
225.01899999999989
 31
0.0
  0
LINE
  5
3F2
  8
0
 62
     7
 10
133.45400000000001
 20
223.136
 30
0.0
 11
133.78700000000001
 21
223.136
 31
0.0
  0
LINE
  5
3F3
  8
0
 62
     7
 10
135.131
 20
227.82299999999989
 30
0.0
 11
136.816
 21
227.97
 31
0.0
  0
LINE
  5
3F4
  8
0
 62
     7
 10
133.45400000000001
 20
228.13599999999991
 30
0.0
 11
133.45400000000001
 21
223.63599999999991
 31
0.0
  0
LINE
  5
3F5
  8
0
 62
     7
 10
136.45400000000001
 20
229.41099999999989
 30
0.0
 11
137.11999999999989
 21
229.46899999999999
 31
0.0
  0
LINE
  5
3F6
  8
0
 62
     7
 10
135.28700000000001
 20
229.309
 30
0.0
 11
136.45400000000001
 21
229.41099999999989
 31
0.0
  0
LINE
  5
3F7
  8
0
 62
     7
 10
133.7579999999999
 20
229.1749999999999
 30
0.0
 11
135.28700000000001
 21
229.309
 31
0.0
  0
LINE
  5
3F8
  8
0
 62
     7
 10
133.12100000000001
 20
232.74199999999999
 30
0.0
 11
133.12100000000001
 21
231.328
 31
0.0
  0
LINE
  5
3F9
  8
0
 62
     7
 10
133.35099999999991
 20
233.059
 30
0.0
 11
133.29599999999991
 21
233.03599999999989
 31
0.0
  0
LINE
  5
3FA
  8
0
 62
     7
 10
133.29599999999991
 20
233.03599999999989
 30
0.0
 11
133.24600000000001
 21
233.0029999999999
 31
0.0
  0
LINE
  5
3FB
  8
0
 62
     7
 10
133.24600000000001
 20
233.0029999999999
 30
0.0
 11
133.203
 21
232.96199999999999
 31
0.0
  0
LINE
  5
3FC
  8
0
 62
     7
 10
133.203
 20
232.96199999999999
 30
0.0
 11
133.16800000000001
 21
232.9129999999999
 31
0.0
  0
LINE
  5
3FD
  8
0
 62
     7
 10
133.16800000000001
 20
232.9129999999999
 30
0.0
 11
133.14099999999991
 21
232.86000000000001
 31
0.0
  0
LINE
  5
3FE
  8
0
 62
     7
 10
133.14099999999991
 20
232.86000000000001
 30
0.0
 11
133.126
 21
232.80199999999999
 31
0.0
  0
LINE
  5
3FF
  8
0
 62
     7
 10
133.126
 20
232.80199999999999
 30
0.0
 11
133.12100000000001
 21
232.74199999999999
 31
0.0
  0
LINE
  5
400
  8
0
 62
     7
 10
137.41
 20
233.46599999999989
 30
0.0
 11
137.2529999999999
 21
233.79300000000001
 31
0.0
  0
LINE
  5
401
  8
0
 62
     7
 10
137.2529999999999
 20
233.79300000000001
 30
0.0
 11
136.11999999999989
 21
233.25099999999989
 31
0.0
  0
LINE
  5
402
  8
0
 62
     7
 10
136.11999999999989
 20
233.25099999999989
 30
0.0
 11
133.35099999999991
 21
233.059
 31
0.0
  0
LINE
  5
403
  8
0
 62
     7
 10
136.375
 20
231.80600000000001
 30
0.0
 11
136.61799999999991
 21
232.41900000000001
 31
0.0
  0
LINE
  5
404
  8
0
 62
     7
 10
136.61799999999991
 20
232.41900000000001
 30
0.0
 11
136.96600000000001
 21
232.97799999999989
 31
0.0
  0
LINE
  5
405
  8
0
 62
     7
 10
136.96600000000001
 20
232.97799999999989
 30
0.0
 11
137.41
 21
233.46599999999989
 31
0.0
  0
LINE
  5
406
  8
0
 62
     7
 10
135.7359999999999
 20
231.328
 30
0.0
 11
135.857
 21
231.339
 31
0.0
  0
LINE
  5
407
  8
0
 62
     7
 10
135.857
 20
231.339
 30
0.0
 11
135.97499999999999
 21
231.37299999999999
 31
0.0
  0
LINE
  5
408
  8
0
 62
     7
 10
135.97499999999999
 20
231.37299999999999
 30
0.0
 11
136.084
 21
231.42699999999999
 31
0.0
  0
LINE
  5
409
  8
0
 62
     7
 10
136.084
 20
231.42699999999999
 30
0.0
 11
136.18100000000001
 21
231.49999999999989
 31
0.0
  0
LINE
  5
40A
  8
0
 62
     7
 10
136.18100000000001
 20
231.49999999999989
 30
0.0
 11
136.2649999999999
 21
231.589
 31
0.0
  0
LINE
  5
40B
  8
0
 62
     7
 10
136.2649999999999
 20
231.589
 30
0.0
 11
136.32900000000001
 21
231.6929999999999
 31
0.0
  0
LINE
  5
40C
  8
0
 62
     7
 10
136.32900000000001
 20
231.6929999999999
 30
0.0
 11
136.375
 21
231.80600000000001
 31
0.0
  0
LINE
  5
40D
  8
0
 62
     7
 10
133.12100000000001
 20
231.328
 30
0.0
 11
135.7359999999999
 21
231.328
 31
0.0
  0
LINE
  5
40E
  8
0
 62
     7
 10
77.321700000000007
 20
233.79300000000001
 30
0.0
 11
77.164900000000003
 21
233.46599999999989
 31
0.0
  0
ARC
  5
40F
  8
0
 62
     7
 10
78.834794999999986
 20
231.98929799999999
 30
0.0
 40
0.6610550000000001
 50
196.10513199999991
 51
270.357934
  0
ARC
  5
410
  8
0
 62
     7
 10
76.319296999999992
 20
231.3608569999999
 30
0.0
 40
1.9323389999999989
 50
13.316143
 51
21.17858
  0
ARC
  5
411
  8
0
 62
     7
 10
74.619073
 20
230.70772500000001
 30
0.0
 40
3.7536930000000002
 50
21.098725999999999
 51
47.294460999999991
  0
LINE
  5
412
  8
0
 62
     7
 10
78.838899999999995
 20
231.328
 30
0.0
 11
107.28699999999991
 21
231.328
 31
0.0
  0
LINE
  5
413
  8
0
 62
     7
 10
77.164900000000003
 20
233.46599999999989
 30
0.0
 11
107.28699999999991
 21
233.46599999999989
 31
0.0
  0
LINE
  5
414
  8
0
 62
     7
 10
77.311000000000007
 20
233.7709999999999
 30
0.0
 11
107.28699999999991
 21
233.7709999999999
 31
0.0
  0
LINE
  5
415
  8
0
 62
     7
 10
133.12100000000001
 20
231.328
 30
0.0
 11
133.12100000000001
 21
232.74199999999999
 31
0.0
  0
LINE
  5
416
  8
0
 62
     7
 10
133.12100000000001
 20
231.328
 30
0.0
 11
135.7359999999999
 21
231.328
 31
0.0
  0
ARC
  5
417
  8
0
 62
     7
 10
133.45015900000001
 20
232.74529100000001
 30
0.0
 40
0.329462
 50
107.54464299999989
 51
180.489541
  0
ARC
  5
418
  8
0
 62
     7
 10
138.63907399999991
 20
231.97203999999999
 30
0.0
 40
1.934736
 50
129.44437699999989
 51
137.300298
  0
ARC
  5
419
  8
0
 62
     7
 10
139.97037399999991
 20
230.73635400000001
 30
0.0
 40
3.7511230000000002
 50
137.2193629999999
 51
163.43322399999991
  0
ARC
  5
41A
  8
0
 62
     7
 10
135.72932399999991
 20
232.00339299999999
 30
0.0
 40
0.675166
 50
270.52859799999987
 51
342.99357099999992
  0
LINE
  5
41B
  8
0
 62
     7
 10
137.2529999999999
 20
233.79300000000001
 30
0.0
 11
137.41
 21
233.46599999999989
 31
0.0
  0
LINE
  5
41C
  8
0
 62
     7
 10
136.11999999999989
 20
233.25099999999989
 30
0.0
 11
137.2529999999999
 21
233.79300000000001
 31
0.0
  0
LINE
  5
41D
  8
0
 62
     7
 10
136.11999999999989
 20
233.25099999999989
 30
0.0
 11
133.35099999999991
 21
233.059
 31
0.0
  0
LINE
  5
41E
  8
0
 62
     7
 10
101.121
 20
152.357
 30
0.0
 11
101.89700000000001
 21
152.48699999999991
 31
0.0
  0
LINE
  5
41F
  8
0
 62
     7
 10
101.89700000000001
 20
152.48699999999991
 30
0.0
 11
102.626
 21
152.56700000000001
 31
0.0
  0
LINE
  5
420
  8
0
 62
     7
 10
102.626
 20
152.56700000000001
 30
0.0
 11
103.3069999999999
 21
152.59599999999989
 31
0.0
  0
LINE
  5
421
  8
0
 62
     7
 10
103.3069999999999
 20
152.59599999999989
 30
0.0
 11
103.94
 21
152.5749999999999
 31
0.0
  0
LINE
  5
422
  8
0
 62
     7
 10
103.94
 20
152.5749999999999
 30
0.0
 11
104.675
 21
152.4789999999999
 31
0.0
  0
LINE
  5
423
  8
0
 62
     7
 10
104.675
 20
152.4789999999999
 30
0.0
 11
105.4459999999999
 21
152.30199999999999
 31
0.0
  0
LINE
  5
424
  8
0
 62
     7
 10
105.4459999999999
 20
152.30199999999999
 30
0.0
 11
106.27200000000001
 21
152.042
 31
0.0
  0
LINE
  5
425
  8
0
 62
     7
 10
106.27200000000001
 20
152.042
 30
0.0
 11
107.377
 21
151.62899999999991
 31
0.0
  0
LINE
  5
426
  8
0
 62
     7
 10
107.377
 20
151.62899999999991
 30
0.0
 11
108.4739999999999
 21
151.21999999999991
 31
0.0
  0
LINE
  5
427
  8
0
 62
     7
 10
108.4739999999999
 20
151.21999999999991
 30
0.0
 11
109.29899999999989
 21
150.95699999999999
 31
0.0
  0
LINE
  5
428
  8
0
 62
     7
 10
109.29899999999989
 20
150.95699999999999
 30
0.0
 11
110.075
 21
150.77099999999999
 31
0.0
  0
LINE
  5
429
  8
0
 62
     7
 10
110.075
 20
150.77099999999999
 30
0.0
 11
110.8179999999999
 21
150.661
 31
0.0
  0
LINE
  5
42A
  8
0
 62
     7
 10
110.8179999999999
 20
150.661
 30
0.0
 11
111.41199999999991
 21
150.62299999999991
 31
0.0
  0
LINE
  5
42B
  8
0
 62
     7
 10
111.41199999999991
 20
150.62299999999991
 30
0.0
 11
112.05
 21
150.625
 31
0.0
  0
LINE
  5
42C
  8
0
 62
     7
 10
112.05
 20
150.625
 30
0.0
 11
112.7299999999999
 21
150.66499999999999
 31
0.0
  0
LINE
  5
42D
  8
0
 62
     7
 10
112.7299999999999
 20
150.66499999999999
 30
0.0
 11
113.45399999999989
 21
150.744
 31
0.0
  0
LINE
  5
42E
  8
0
 62
     7
 10
101.121
 20
153.357
 30
0.0
 11
101.89700000000001
 21
153.48699999999991
 31
0.0
  0
LINE
  5
42F
  8
0
 62
     7
 10
101.89700000000001
 20
153.48699999999991
 30
0.0
 11
102.626
 21
153.56700000000001
 31
0.0
  0
LINE
  5
430
  8
0
 62
     7
 10
102.626
 20
153.56700000000001
 30
0.0
 11
103.3069999999999
 21
153.596
 31
0.0
  0
LINE
  5
431
  8
0
 62
     7
 10
103.3069999999999
 20
153.596
 30
0.0
 11
103.94
 21
153.5739999999999
 31
0.0
  0
LINE
  5
432
  8
0
 62
     7
 10
103.94
 20
153.5739999999999
 30
0.0
 11
104.675
 21
153.4789999999999
 31
0.0
  0
LINE
  5
433
  8
0
 62
     7
 10
104.675
 20
153.4789999999999
 30
0.0
 11
105.4459999999999
 21
153.30199999999999
 31
0.0
  0
LINE
  5
434
  8
0
 62
     7
 10
105.4459999999999
 20
153.30199999999999
 30
0.0
 11
106.27200000000001
 21
153.042
 31
0.0
  0
LINE
  5
435
  8
0
 62
     7
 10
106.27200000000001
 20
153.042
 30
0.0
 11
107.377
 21
152.62899999999991
 31
0.0
  0
LINE
  5
436
  8
0
 62
     7
 10
107.377
 20
152.62899999999991
 30
0.0
 11
108.4739999999999
 21
152.21999999999991
 31
0.0
  0
LINE
  5
437
  8
0
 62
     7
 10
108.4739999999999
 20
152.21999999999991
 30
0.0
 11
109.29899999999989
 21
151.95699999999991
 31
0.0
  0
LINE
  5
438
  8
0
 62
     7
 10
109.29899999999989
 20
151.95699999999991
 30
0.0
 11
110.075
 21
151.77099999999999
 31
0.0
  0
LINE
  5
439
  8
0
 62
     7
 10
110.075
 20
151.77099999999999
 30
0.0
 11
110.8179999999999
 21
151.661
 31
0.0
  0
LINE
  5
43A
  8
0
 62
     7
 10
110.8179999999999
 20
151.661
 30
0.0
 11
111.41199999999991
 21
151.62299999999999
 31
0.0
  0
LINE
  5
43B
  8
0
 62
     7
 10
111.41199999999991
 20
151.62299999999999
 30
0.0
 11
112.05
 21
151.62399999999991
 31
0.0
  0
LINE
  5
43C
  8
0
 62
     7
 10
112.05
 20
151.62399999999991
 30
0.0
 11
112.7299999999999
 21
151.66499999999999
 31
0.0
  0
LINE
  5
43D
  8
0
 62
     7
 10
112.7299999999999
 20
151.66499999999999
 30
0.0
 11
113.45399999999989
 21
151.744
 31
0.0
  0
LINE
  5
43E
  8
0
 62
     7
 10
107.28699999999991
 20
158.56200000000001
 30
0.0
 11
107.88200000000001
 21
158.7229999999999
 31
0.0
  0
LINE
  5
43F
  8
0
 62
     7
 10
107.88200000000001
 20
158.7229999999999
 30
0.0
 11
108.3949999999999
 21
158.82900000000001
 31
0.0
  0
LINE
  5
440
  8
0
 62
     7
 10
108.3949999999999
 20
158.82900000000001
 30
0.0
 11
108.8659999999999
 21
158.88599999999991
 31
0.0
  0
LINE
  5
441
  8
0
 62
     7
 10
108.8659999999999
 20
158.88599999999991
 30
0.0
 11
109.28700000000001
 21
158.89500000000001
 31
0.0
  0
LINE
  5
442
  8
0
 62
     7
 10
109.28700000000001
 20
158.89500000000001
 30
0.0
 11
109.7579999999999
 21
158.84399999999999
 31
0.0
  0
LINE
  5
443
  8
0
 62
     7
 10
109.7579999999999
 20
158.84399999999999
 30
0.0
 11
110.371
 21
158.71299999999991
 31
0.0
  0
LINE
  5
444
  8
0
 62
     7
 10
110.371
 20
158.71299999999991
 30
0.0
 11
110.9129999999999
 21
158.596
 31
0.0
  0
LINE
  5
445
  8
0
 62
     7
 10
110.9129999999999
 20
158.596
 30
0.0
 11
111.28700000000001
 21
158.56200000000001
 31
0.0
  0
LINE
  5
446
  8
0
 62
     7
 10
111.28700000000001
 20
158.56200000000001
 30
0.0
 11
111.6579999999999
 21
158.5989999999999
 31
0.0
  0
LINE
  5
447
  8
0
 62
     7
 10
111.6579999999999
 20
158.5989999999999
 30
0.0
 11
112.1429999999999
 21
158.727
 31
0.0
  0
LINE
  5
448
  8
0
 62
     7
 10
112.1429999999999
 20
158.727
 30
0.0
 11
112.6009999999999
 21
158.8479999999999
 31
0.0
  0
LINE
  5
449
  8
0
 62
     7
 10
112.6009999999999
 20
158.8479999999999
 30
0.0
 11
112.95399999999989
 21
158.89500000000001
 31
0.0
  0
LINE
  5
44A
  8
0
 62
     7
 10
112.95399999999989
 20
158.89500000000001
 30
0.0
 11
112.9939999999999
 21
158.89699999999999
 31
0.0
  0
LINE
  5
44B
  8
0
 62
     7
 10
112.9939999999999
 20
158.89699999999999
 30
0.0
 11
113.0349999999999
 21
158.898
 31
0.0
  0
LINE
  5
44C
  8
0
 62
     7
 10
113.0349999999999
 20
158.898
 30
0.0
 11
113.07599999999999
 21
158.898
 31
0.0
  0
LINE
  5
44D
  8
0
 62
     7
 10
113.07599999999999
 20
158.898
 30
0.0
 11
113.11799999999999
 21
158.89699999999999
 31
0.0
  0
LINE
  5
44E
  8
0
 62
     7
 10
113.11799999999999
 20
158.89699999999999
 30
0.0
 11
113.1599999999999
 21
158.89599999999999
 31
0.0
  0
LINE
  5
44F
  8
0
 62
     7
 10
113.1599999999999
 20
158.89599999999999
 30
0.0
 11
113.20099999999999
 21
158.89400000000001
 31
0.0
  0
LINE
  5
450
  8
0
 62
     7
 10
113.20099999999999
 20
158.89400000000001
 30
0.0
 11
113.24299999999999
 21
158.89099999999999
 31
0.0
  0
LINE
  5
451
  8
0
 62
     7
 10
113.24299999999999
 20
158.89099999999999
 30
0.0
 11
113.2849999999999
 21
158.887
 31
0.0
  0
LINE
  5
452
  8
0
 62
     7
 10
113.2849999999999
 20
158.887
 30
0.0
 11
113.327
 21
158.8839999999999
 31
0.0
  0
LINE
  5
453
  8
0
 62
     7
 10
113.327
 20
158.8839999999999
 30
0.0
 11
113.369
 21
158.87899999999991
 31
0.0
  0
LINE
  5
454
  8
0
 62
     7
 10
113.369
 20
158.87899999999991
 30
0.0
 11
113.41200000000001
 21
158.874
 31
0.0
  0
LINE
  5
455
  8
0
 62
     7
 10
113.41200000000001
 20
158.874
 30
0.0
 11
113.45399999999989
 21
158.86799999999999
 31
0.0
  0
LINE
  5
456
  8
0
  6
AIGENLINE001
 62
     7
 10
107.28699999999991
 20
80.653599999999997
 30
0.0
 11
107.28699999999991
 21
242.429
 31
0.0
  0
LINE
  5
457
  8
0
 62
     7
 10
101.121
 20
147.94799999999989
 30
0.0
 11
101.121
 21
150.6109999999999
 31
0.0
  0
LINE
  5
458
  8
0
 62
     7
 10
113.45399999999989
 20
149.24600000000001
 30
0.0
 11
113.45399999999989
 21
150.744
 31
0.0
  0
LINE
  5
459
  8
0
 62
     7
 10
101.121
 20
151.28099999999989
 30
0.0
 11
101.121
 21
152.357
 31
0.0
  0
ARC
  5
45A
  8
0
 62
     7
 10
100.96793599999999
 20
150.91706600000001
 30
0.0
 40
0.346346
 50
98.118314999999996
 51
183.92139599999999
  0
ARC
  5
45B
  8
0
 62
     7
 10
100.96536
 20
150.94239400000001
 30
0.0
 40
0.346443
 50
188.13330699999989
 51
273.90642400000002
  0
LINE
  5
45C
  8
0
 62
     7
 10
108.11799999999999
 20
151.34700000000001
 30
0.0
 11
100.9889999999999
 21
150.59700000000001
 31
0.0
  0
LINE
  5
45D
  8
0
 62
     7
 10
106.7399999999999
 20
151.87299999999991
 30
0.0
 11
100.919
 21
151.25999999999991
 31
0.0
  0
ARC
  5
45E
  8
0
 62
     7
 10
100.96793599999999
 20
147.58391499999991
 30
0.0
 40
0.346346
 50
98.118314999999996
 51
183.92139599999999
  0
ARC
  5
45F
  8
0
 62
     7
 10
100.965276
 20
147.609139
 30
0.0
 40
0.346346
 50
188.11836199999991
 51
273.92136899999991
  0
ARC
  5
460
  8
0
 62
     7
 10
113.60655299999991
 20
148.940099
 30
0.0
 40
0.34631
 50
278.05974099999997
 51
3.862210999999999
  0
ARC
  5
461
  8
0
 62
     7
 10
113.609285
 20
148.9146179999999
 30
0.0
 40
0.346249
 50
8.1034430000000004
 51
93.936248000000006
  0
LINE
  5
462
  8
0
 62
     7
 10
113.6549999999999
 20
148.59700000000001
 30
0.0
 11
100.9889999999999
 21
147.26400000000001
 31
0.0
  0
LINE
  5
463
  8
0
 62
     7
 10
113.586
 20
149.25999999999991
 30
0.0
 11
100.919
 21
147.92699999999999
 31
0.0
  0
LINE
  5
464
  8
0
 62
     7
 10
112.53699999999991
 20
210.39500000000001
 30
0.0
 11
112.53699999999991
 21
208.06200000000001
 31
0.0
  0
ARC
  5
465
  8
0
 62
     7
 10
111.4980709999999
 20
210.35641299999989
 30
0.0
 40
1.0394699999999999
 50
2.1292810000000002
 51
87.850968999999992
  0
LINE
  5
466
  8
0
 62
     7
 10
107.28699999999991
 20
212.36199999999991
 30
0.0
 11
108.75399999999991
 21
212.36199999999991
 31
0.0
  0
LINE
  5
467
  8
0
 62
     7
 10
107.20399999999989
 20
212.22900000000001
 30
0.0
 11
108.75399999999991
 21
212.22900000000001
 31
0.0
  0
LINE
  5
468
  8
0
 62
     7
 10
111.53700000000001
 20
211.3949999999999
 30
0.0
 11
107.28699999999991
 21
211.3949999999999
 31
0.0
  0
LINE
  5
469
  8
0
 62
     7
 10
107.28699999999991
 20
223.96899999999999
 30
0.0
 11
106.821
 21
223.96899999999999
 31
0.0
  0
LINE
  5
46A
  8
0
 62
     7
 10
106.1539999999999
 20
227.75599999999989
 30
0.0
 11
107.28699999999991
 21
227.96899999999999
 31
0.0
  0
ARC
  5
46B
  8
0
 62
     7
 10
106.845733
 20
224.66100499999999
 30
0.0
 40
0.6924900000000001
 50
182.1025939999999
 51
267.92703899999998
  0
LINE
  5
46C
  8
0
 62
     7
 10
106.1539999999999
 20
224.636
 30
0.0
 11
106.1539999999999
 21
227.75599999999989
 31
0.0
  0
LINE
  5
46D
  8
0
 62
     7
 10
105.95399999999989
 20
220.2339999999999
 30
0.0
 11
106.371
 21
210.495
 31
0.0
  0
ARC
  5
46E
  8
0
 62
     7
 10
114.265535
 20
181.8731919999999
 30
0.0
 40
0.311596
 50
182.079801
 51
267.85440899999992
  0
LINE
  5
46F
  8
0
 62
     7
 10
114.6539999999999
 20
181.56200000000001
 30
0.0
 11
107.28699999999991
 21
181.56200000000001
 31
0.0
  0
ARC
  5
470
  8
0
 62
     7
 10
114.629937
 20
180.87145499999991
 30
0.0
 40
0.690761
 50
2.9410560000000001
 51
88.044965000000005
  0
LINE
  5
471
  8
0
 62
     7
 10
115.31999999999999
 20
180.90700000000001
 30
0.0
 11
115.45399999999989
 21
173.22900000000001
 31
0.0
  0
LINE
  5
472
  8
0
 62
     7
 10
116.22
 20
171.56200000000001
 30
0.0
 11
115.45399999999989
 21
173.22900000000001
 31
0.0
  0
LINE
  5
473
  8
0
 62
     7
 10
116.22
 20
171.56200000000001
 30
0.0
 11
116.554
 21
171.56200000000001
 31
0.0
  0
LINE
  5
474
  8
0
 62
     7
 10
116.554
 20
172.22799999999989
 30
0.0
 11
116.554
 21
171.56200000000001
 31
0.0
  0
LINE
  5
475
  8
0
 62
     7
 10
117.2209999999999
 20
172.89500000000001
 30
0.0
 11
116.554
 21
172.22799999999989
 31
0.0
  0
LINE
  5
476
  8
0
 62
     7
 10
117.2209999999999
 20
172.89500000000001
 30
0.0
 11
116.554
 21
172.89500000000001
 31
0.0
  0
LINE
  5
477
  8
0
 62
     7
 10
117.2209999999999
 20
179.56200000000001
 30
0.0
 11
117.2209999999999
 21
172.89500000000001
 31
0.0
  0
LINE
  5
478
  8
0
 62
     7
 10
116.554
 20
180.22900000000001
 30
0.0
 11
116.554
 21
172.22799999999989
 31
0.0
  0
LINE
  5
479
  8
0
 62
     7
 10
117.2209999999999
 20
179.56200000000001
 30
0.0
 11
116.554
 21
179.56200000000001
 31
0.0
  0
LINE
  5
47A
  8
0
 62
     7
 10
116.554
 20
180.22900000000001
 30
0.0
 11
117.2209999999999
 21
179.56200000000001
 31
0.0
  0
LINE
  5
47B
  8
0
 62
     7
 10
116.554
 20
180.86199999999991
 30
0.0
 11
116.554
 21
180.22900000000001
 31
0.0
  0
LINE
  5
47C
  8
0
 62
     7
 10
124.25399999999991
 20
181.86199999999991
 30
0.0
 11
117.554
 21
181.86199999999991
 31
0.0
  0
ARC
  5
47D
  8
0
 62
     7
 10
117.59225600000001
 20
180.8234699999999
 30
0.0
 40
1.0391330000000001
 50
92.131778999999995
 51
177.88793200000001
  0
LINE
  5
47E
  8
0
 62
     7
 10
122.28700000000001
 20
186.39500000000001
 30
0.0
 11
115.0959999999999
 21
186.39500000000001
 31
0.0
  0
ARC
  5
47F
  8
0
 62
     7
 10
124.16086
 20
184.6232709999999
 30
0.0
 40
2.762945999999999
 50
271.92491200000001
 51
357.06698699999993
  0
ARC
  5
480
  8
0
 62
     7
 10
124.295174
 20
184.58827400000001
 30
0.0
 40
1.7274320000000001
 50
271.93741199999988
 51
357.05308600000001
  0
ARC
  5
481
  8
0
 62
     7
 10
116.174511
 20
183.8971479999999
 30
0.0
 40
1.035903
 50
182.92006599999991
 51
268.075694
  0
LINE
  5
482
  8
0
 62
     7
 10
124.354
 20
182.86199999999991
 30
0.0
 11
116.136
 21
182.86199999999991
 31
0.0
  0
LINE
  5
483
  8
0
 62
     7
 10
97.353999999999999
 20
179.56200000000001
 30
0.0
 11
97.353999999999999
 21
178.06200000000001
 31
0.0
  0
LINE
  5
484
  8
0
 62
     7
 10
98.020600000000002
 20
180.22900000000001
 30
0.0
 11
98.020600000000002
 21
178.06200000000001
 31
0.0
  0
LINE
  5
485
  8
0
 62
     7
 10
98.020600000000002
 20
180.86199999999991
 30
0.0
 11
98.020600000000002
 21
180.22900000000001
 31
0.0
  0
ARC
  5
486
  8
0
 62
     7
 10
96.981886000000003
 20
180.8231209999999
 30
0.0
 40
1.039480999999999
 50
2.1305990000000001
 51
87.869391000000007
  0
ARC
  5
487
  8
0
 62
     7
 10
90.414241999999987
 20
184.62407499999989
 30
0.0
 40
2.7637830000000001
 50
182.94883799999991
 51
268.05560200000002
  0
LINE
  5
488
  8
0
 62
     7
 10
90.320499999999996
 20
181.86199999999991
 30
0.0
 11
107.28699999999991
 21
181.86199999999991
 31
0.0
  0
LINE
  5
489
  8
0
 62
     7
 10
107.28699999999991
 20
180.22900000000001
 30
0.0
 11
98.020600000000002
 21
180.22900000000001
 31
0.0
  0
LINE
  5
48A
  8
0
 62
     7
 10
98.020600000000002
 20
180.22900000000001
 30
0.0
 11
97.353999999999999
 21
179.56200000000001
 31
0.0
  0
LINE
  5
48B
  8
0
 62
     7
 10
97.353999999999999
 20
179.56200000000001
 30
0.0
 11
107.28699999999991
 21
179.56200000000001
 31
0.0
  0
ARC
  5
48C
  8
0
 62
     7
 10
83.214757999999989
 20
222.30765699999989
 30
0.0
 40
1.1520589999999991
 50
3.3123939999999998
 51
13.884771999999989
  0
ARC
  5
48D
  8
0
 62
     7
 10
82.278163000000006
 20
222.12674699999999
 30
0.0
 40
2.1052740000000001
 50
12.547549999999999
 51
28.633165000000002
  0
ARC
  5
48E
  8
0
 62
     7
 10
83.316514999999995
 20
221.62922399999999
 30
0.0
 40
1.4984580000000001
 50
356.53971799999999
 51
5.4111199999999986
  0
ARC
  5
48F
  8
0
 62
     7
 10
82.090981999999997
 20
221.513847
 30
0.0
 40
2.7294099999999988
 50
5.3962909999999997
 51
36.453843999999997
  0
LINE
  5
490
  8
0
 62
     7
 10
82.053899999999985
 20
231.328
 30
0.0
 11
82.053899999999985
 21
229.46899999999999
 31
0.0
  0
LINE
  5
491
  8
0
 62
     7
 10
81.287199999999984
 20
231.328
 30
0.0
 11
81.287199999999984
 21
229.46899999999999
 31
0.0
  0
LINE
  5
492
  8
0
 62
     7
 10
77.453800000000001
 20
228.30199999999999
 30
0.0
 11
77.453800000000001
 21
229.46899999999999
 31
0.0
  0
LINE
  5
493
  8
0
 62
     7
 10
77.453800000000001
 20
229.46899999999999
 30
0.0
 11
107.28699999999991
 21
229.46899999999999
 31
0.0
  0
ARC
  5
494
  8
0
 62
     7
 10
86.703438000000006
 20
224.63559799999999
 30
0.0
 40
0.6666300000000001
 50
179.99996999999991
 51
270.00002000000001
  0
ARC
  5
495
  8
0
 62
     7
 10
88.608726999999988
 20
224.314885
 30
0.0
 40
0.346146
 50
272.08740499999988
 51
357.942207
  0
LINE
  5
496
  8
0
 62
     7
 10
86.036799999999999
 20
224.636
 30
0.0
 11
86.036799999999999
 21
227.75599999999989
 31
0.0
  0
LINE
  5
497
  8
0
 62
     7
 10
88.621300000000005
 20
223.96899999999999
 30
0.0
 11
86.703400000000016
 21
223.96899999999999
 31
0.0
  0
LINE
  5
498
  8
0
 62
     7
 10
88.954700000000017
 20
224.30199999999999
 30
0.0
 11
88.954700000000017
 21
227.75599999999989
 31
0.0
  0
LINE
  5
499
  8
0
 62
     7
 10
106.1539999999999
 20
227.75599999999989
 30
0.0
 11
80.203900000000004
 21
227.75599999999989
 31
0.0
  0
LINE
  5
49A
  8
0
 62
     7
 10
107.28699999999991
 20
223.136
 30
0.0
 11
80.787300000000002
 21
223.136
 31
0.0
  0
LINE
  5
49B
  8
0
 62
     7
 10
107.28699999999991
 20
227.96899999999999
 30
0.0
 11
77.772800000000004
 21
227.96899999999999
 31
0.0
  0
ARC
  5
49C
  8
0
 62
     7
 10
77.799858
 20
228.3149709999999
 30
0.0
 40
0.346277
 50
182.107562
 51
267.92207100000002
  0
ARC
  5
49D
  8
0
 62
     7
 10
82.009422000000001
 20
224.916495
 30
0.0
 40
1.8084709999999991
 50
176.73847399999991
 51
184.82016899999991
  0
ARC
  5
49E
  8
0
 62
     7
 10
83.586317000000008
 20
225.04986099999999
 30
0.0
 40
3.3909949999999989
 50
184.8267689999999
 51
214.368607
  0
ARC
  5
49F
  8
0
 62
     7
 10
78.370560999999995
 20
224.63559799999999
 30
0.0
 40
0.6666300000000001
 50
179.99996999999991
 51
270.00002000000001
  0
LINE
  5
4A0
  8
0
 62
     7
 10
80.373700000000014
 20
223.96899999999999
 30
0.0
 11
78.370599999999996
 21
223.96899999999999
 31
0.0
  0
LINE
  5
4A1
  8
0
 62
     7
 10
80.203900000000004
 20
225.01899999999989
 30
0.0
 11
80.203900000000004
 21
227.75599999999989
 31
0.0
  0
LINE
  5
4A2
  8
0
 62
     7
 10
77.703900000000004
 20
224.636
 30
0.0
 11
77.703900000000004
 21
227.96899999999999
 31
0.0
  0
LINE
  5
4A3
  8
0
 62
     7
 10
80.203900000000004
 20
227.75599999999989
 30
0.0
 11
77.772800000000004
 21
227.96899999999999
 31
0.0
  0
ARC
  5
4A4
  8
0
 62
     7
 10
77.620644999999996
 20
233.89512599999989
 30
0.0
 40
0.333353
 50
87.586324000000005
 51
177.5862939999999
  0
ARC
  5
4A5
  8
0
 62
     7
 10
77.587766000000002
 20
233.88915399999999
 30
0.0
 40
0.300844
 50
176.1861219999999
 51
203.08632900000001
  0
ARC
  5
4A6
  8
0
 62
     7
 10
94.999332999999993
 20
220.16469199999989
 30
0.0
 40
1.3810530000000001
 50
91.903433000000007
 51
176.71778800000001
  0
ARC
  5
4A7
  8
0
 62
     7
 10
89.575817999999984
 20
220.16528199999999
 30
0.0
 40
1.3804389999999991
 50
3.259145999999999
 51
88.126994999999994
  0
ARC
  5
4A8
  8
0
 62
     7
 10
104.575686
 20
220.16528199999999
 30
0.0
 40
1.3804389999999991
 50
3.259145999999999
 51
88.126994999999994
  0
LINE
  5
4A9
  8
0
 62
     7
 10
90.953999999999994
 20
220.2339999999999
 30
0.0
 11
91.370500000000007
 21
210.495
 31
0.0
  0
LINE
  5
4AA
  8
0
 62
     7
 10
93.620500000000007
 20
220.2339999999999
 30
0.0
 11
93.203900000000004
 21
210.495
 31
0.0
  0
LINE
  5
4AB
  8
0
 62
     7
 10
77.620599999999996
 20
234.22799999999989
 30
0.0
 11
107.28699999999991
 21
234.22799999999989
 31
0.0
  0
ARC
  5
4AC
  8
0
 62
     7
 10
86.811407999999986
 20
203.0770169999999
 30
0.0
 40
0.518528
 50
2.9594070000000001
 51
88.016230000000007
  0
ARC
  5
4AD
  8
0
 62
     7
 10
86.501381999999978
 20
203.9371679999999
 30
0.0
 40
0.342026
 50
186.18830399999999
 51
268.67252100000002
  0
LINE
  5
4AE
  8
0
 62
     7
 10
84.364900000000006
 20
222.374
 30
0.0
 11
85.620599999999996
 21
210.26199999999989
 31
0.0
  0
LINE
  5
4AF
  8
0
 62
     7
 10
107.28699999999991
 20
203.595
 30
0.0
 11
86.493499999999997
 21
203.595
 31
0.0
  0
LINE
  5
4B0
  8
0
 62
     7
 10
87.3292
 20
203.1039999999999
 30
0.0
 11
87.654100000000014
 21
184.482
 31
0.0
  0
LINE
  5
4B1
  8
0
 62
     7
 10
85.620599999999996
 20
210.26199999999989
 30
0.0
 11
84.812200000000004
 21
221.53899999999999
 31
0.0
  0
LINE
  5
4B2
  8
0
 62
     7
 10
86.161299999999997
 20
203.90000000000001
 30
0.0
 11
85.620599999999996
 21
210.26199999999989
 31
0.0
  0
LINE
  5
4B3
  8
0
 62
     7
 10
130.4489999999999
 20
223.136
 30
0.0
 11
133.78700000000001
 21
223.136
 31
0.0
  0
LINE
  5
4B4
  8
0
 62
     7
 10
133.45400000000001
 20
228.13599999999991
 30
0.0
 11
133.45400000000001
 21
228.8429999999999
 31
0.0
  0
LINE
  5
4B5
  8
0
 62
     7
 10
132.78700000000001
 20
227.46899999999999
 30
0.0
 11
133.45400000000001
 21
228.13599999999991
 31
0.0
  0
LINE
  5
4B6
  8
0
 62
     7
 10
133.45400000000001
 20
227.46899999999999
 30
0.0
 11
132.78700000000001
 21
227.46899999999999
 31
0.0
  0
LINE
  5
4B7
  8
0
 62
     7
 10
132.78700000000001
 20
224.30199999999999
 30
0.0
 11
132.78700000000001
 21
227.46899999999999
 31
0.0
  0
LINE
  5
4B8
  8
0
 62
     7
 10
133.45400000000001
 20
224.30199999999999
 30
0.0
 11
132.78700000000001
 21
224.30199999999999
 31
0.0
  0
LINE
  5
4B9
  8
0
 62
     7
 10
133.45400000000001
 20
223.63599999999991
 30
0.0
 11
132.78700000000001
 21
224.30199999999999
 31
0.0
  0
LINE
  5
4BA
  8
0
 62
     7
 10
133.45400000000001
 20
223.136
 30
0.0
 11
133.45400000000001
 21
223.63599999999991
 31
0.0
  0
ARC
  5
4BB
  8
0
 62
     7
 10
135.22383799999989
 20
226.974446
 30
0.0
 40
0.8534360000000001
 50
96.226168000000015
 51
178.7712149999999
  0
ARC
  5
4BC
  8
0
 62
     7
 10
136.2039169999999
 20
224.63542599999991
 30
0.0
 40
0.666458
 50
270.01482900000002
 51
0.014799
  0
ARC
  5
4BD
  8
0
 62
     7
 10
132.366749
 20
224.233666
 30
0.0
 40
1.7952319999999991
 50
322.29038100000002
 51
330.43417299999987
  0
ARC
  5
4BE
  8
0
 62
     7
 10
130.97716800000001
 20
225.02316300000001
 30
0.0
 40
3.3934319999999989
 50
330.41652999999991
 51
359.936194
  0
LINE
  5
4BF
  8
0
 62
     7
 10
136.87
 20
224.636
 30
0.0
 11
136.87
 21
227.96899999999999
 31
0.0
  0
LINE
  5
4C0
  8
0
 62
     7
 10
134.37100000000001
 20
225.01899999999989
 30
0.0
 11
134.37100000000001
 21
226.99299999999999
 31
0.0
  0
LINE
  5
4C1
  8
0
 62
     7
 10
134.1999999999999
 20
223.96899999999999
 30
0.0
 11
136.20400000000001
 21
223.96899999999999
 31
0.0
  0
ARC
  5
4C2
  8
0
 62
     7
 10
136.7771789999999
 20
228.311542
 30
0.0
 40
0.343437
 50
276.4806089999999
 51
358.44736399999999
  0
LINE
  5
4C3
  8
0
 62
     7
 10
137.11999999999989
 20
228.30199999999999
 30
0.0
 11
137.11999999999989
 21
229.46899999999999
 31
0.0
  0
LINE
  5
4C4
  8
0
 62
     7
 10
136.45400000000001
 20
228.80199999999999
 30
0.0
 11
136.45400000000001
 21
229.41099999999989
 31
0.0
  0
LINE
  5
4C5
  8
0
 62
     7
 10
135.28700000000001
 20
228.80199999999999
 30
0.0
 11
136.45400000000001
 21
228.80199999999999
 31
0.0
  0
LINE
  5
4C6
  8
0
 62
     7
 10
135.28700000000001
 20
228.80199999999999
 30
0.0
 11
135.28700000000001
 21
229.309
 31
0.0
  0
ARC
  5
4C7
  8
0
 62
     7
 10
133.795635
 20
228.83473199999989
 30
0.0
 40
0.342222
 50
96.304360000000017
 51
178.653188
  0
LINE
  5
4C8
  8
0
 62
     7
 10
133.28699999999989
 20
229.46899999999999
 30
0.0
 11
137.11999999999989
 21
229.46899999999999
 31
0.0
  0
LINE
  5
4C9
  8
0
 62
     7
 10
132.52099999999999
 20
224.5449999999999
 30
0.0
 11
132.52099999999999
 21
224.2109999999999
 31
0.0
  0
LINE
  5
4CA
  8
0
 62
     7
 10
132.52099999999999
 20
231.02799999999999
 30
0.0
 11
132.52099999999999
 21
224.5449999999999
 31
0.0
  0
ARC
  5
4CB
  8
0
 62
     7
 10
127.08847
 20
232.72962200000001
 30
0.0
 40
0.8329270000000001
 50
87.450785999999994
 51
116.376904
  0
ARC
  5
4CC
  8
0
 62
     7
 10
127.141205
 20
232.5466899999999
 30
0.0
 40
1.0208109999999999
 50
114.4666689999999
 51
151.64403899999991
  0
ARC
  5
4CD
  8
0
 62
     7
 10
130.24640600000001
 20
232.52657199999999
 30
0.0
 40
1.0387010000000001
 50
357.979445
 51
83.771248999999997
  0
ARC
  5
4CE
  8
0
 62
     7
 10
130.28282399999989
 20
232.43861200000001
 30
0.0
 40
1.123122999999999
 50
86.105615000000014
 51
89.764246999999997
  0
ARC
  5
4CF
  8
0
 62
     7
 10
130.286922
 20
232.56162499999991
 30
0.0
 40
0.733462
 50
355.890985
 51
85.864894999999976
  0
ARC
  5
4D0
  8
0
 62
     7
 10
130.29083499999999
 20
232.66423099999989
 30
0.0
 40
0.6308510000000001
 50
85.547442000000004
 51
90.307941999999997
  0
ARC
  5
4D1
  8
0
 62
     7
 10
130.24640600000001
 20
232.52657199999999
 30
0.0
 40
1.0387010000000001
 50
357.979445
 51
83.771248999999997
  0
ARC
  5
4D2
  8
0
 62
     7
 10
130.28282399999989
 20
232.43861200000001
 30
0.0
 40
1.123122999999999
 50
86.105615000000014
 51
89.764246999999997
  0
ARC
  5
4D3
  8
0
 62
     7
 10
113.08876599999989
 20
230.127093
 30
0.0
 40
0.86597
 50
272.09521000000001
 51
357.88111900000001
  0
ARC
  5
4D4
  8
0
 62
     7
 10
113.08908
 20
230.7300029999999
 30
0.0
 40
0.8656450000000001
 50
2.0988560000000001
 51
87.924814999999995
  0
ARC
  5
4D5
  8
0
 62
     7
 10
121.70505
 20
229.480423
 30
0.0
 40
0.7522250000000001
 50
186.3072479999999
 51
268.68167799999998
  0
ARC
  5
4D6
  8
0
 62
     7
 10
122.4542039999999
 20
229.80515899999989
 30
0.0
 40
1.0782929999999991
 50
266.94559900000002
 51
291.8425069999999
  0
ARC
  5
4D7
  8
0
 62
     7
 10
122.3668949999999
 20
230.1648109999999
 30
0.0
 40
1.4455729999999991
 50
289.750517
 51
323.58425499999998
  0
ARC
  5
4D8
  8
0
 62
     7
 10
121.710881
 20
229.48638299999999
 30
0.0
 40
1.024899
 50
186.265545
 51
268.70640800000001
  0
ARC
  5
4D9
  8
0
 62
     7
 10
122.46418199999999
 20
229.729208
 30
0.0
 40
1.269255
 50
266.95451099999991
 51
290.41168399999998
  0
ARC
  5
4DA
  8
0
 62
     7
 10
122.355884
 20
230.178721
 30
0.0
 40
1.729198
 50
288.57987200000002
 51
323.49691599999989
  0
ARC
  5
4DB
  8
0
 62
     7
 10
127.095448
 20
232.67813100000001
 30
0.0
 40
0.617674
 50
87.209772999999984
 51
121.567942
  0
ARC
  5
4DC
  8
0
 62
     7
 10
127.095387
 20
232.595484
 30
0.0
 40
0.689422
 50
117.9654729999999
 51
144.86520200000001
  0
ARC
  5
4DD
  8
0
 62
     7
 10
113.87837399999999
 20
144.94794400000001
 30
0.0
 40
88.283889000000002
 50
86.154565000000005
 51
87.366873999999996
  0
ARC
  5
4DE
  8
0
 62
     7
 10
107.16247
 20
6.9950479999999988
 30
0.0
 40
226.399968
 50
87.272931999999997
 51
89.968435999999997
  0
ARC
  5
4DF
  8
0
 62
     7
 10
119.7508389999999
 20
232.35744099999999
 30
0.0
 40
0.6773550000000002
 50
5.7688459999999999
 51
85.911720999999986
  0
ARC
  5
4E0
  8
0
 62
     7
 10
113.91188799999991
 20
145.33982399999999
 30
0.0
 40
88.157243000000008
 50
86.160539999999997
 51
87.31518299999999
  0
ARC
  5
4E1
  8
0
 62
     7
 10
107.185261
 20
8.0654259999999987
 30
0.0
 40
225.59623099999999
 50
87.241760999999997
 51
89.974112000000005
  0
ARC
  5
4E2
  8
0
 62
     7
 10
119.747935
 20
232.35404299999999
 30
0.0
 40
0.9475389999999999
 50
5.7381299999999991
 51
85.942705000000004
  0
ARC
  5
4E3
  8
0
 62
     7
 10
127.084236
 20
232.75860099999991
 30
0.0
 40
0.804185
 50
87.057606000000007
 51
116.3904679999999
  0
ARC
  5
4E4
  8
0
 62
     7
 10
127.126598
 20
232.56097500000001
 30
0.0
 40
1.0012879999999991
 50
113.5342169999999
 51
144.06093300000001
  0
LINE
  5
4E5
  8
0
 62
     7
 10
130.68600000000001
 20
227.89500000000001
 30
0.0
 11
131.018
 21
232.50899999999999
 31
0.0
  0
LINE
  5
4E6
  8
0
 62
     7
 10
130.95400000000001
 20
227.89500000000001
 30
0.0
 11
131.28399999999999
 21
232.4899999999999
 31
0.0
  0
LINE
  5
4E7
  8
0
 62
     7
 10
107.28699999999991
 20
229.26199999999989
 30
0.0
 11
113.11999999999991
 21
229.26199999999989
 31
0.0
  0
LINE
  5
4E8
  8
0
 62
     7
 10
113.95399999999989
 20
230.762
 30
0.0
 11
113.95399999999989
 21
230.09499999999991
 31
0.0
  0
LINE
  5
4E9
  8
0
 62
     7
 10
107.28699999999991
 20
231.59499999999991
 30
0.0
 11
113.11999999999991
 21
231.59499999999991
 31
0.0
  0
LINE
  5
4EA
  8
0
 62
     7
 10
122.39700000000001
 20
228.72799999999989
 30
0.0
 11
121.6879999999999
 21
228.72799999999989
 31
0.0
  0
LINE
  5
4EB
  8
0
 62
     7
 10
122.39700000000001
 20
228.46199999999999
 30
0.0
 11
107.28699999999991
 21
228.46199999999999
 31
0.0
  0
LINE
  5
4EC
  8
0
 62
     7
 10
130.95400000000001
 20
227.89500000000001
 30
0.0
 11
107.28699999999991
 21
227.89500000000001
 31
0.0
  0
LINE
  5
4ED
  8
0
 62
     7
 10
126.532
 20
232.99199999999999
 30
0.0
 11
123.746
 21
229.15000000000001
 31
0.0
  0
LINE
  5
4EE
  8
0
 62
     7
 10
120.425
 20
232.4259999999999
 30
0.0
 11
120.69199999999989
 21
229.375
 31
0.0
  0
LINE
  5
4EF
  8
0
 62
     7
 10
120.691
 20
232.44900000000001
 30
0.0
 11
120.95699999999999
 21
229.39799999999991
 31
0.0
  0
LINE
  5
4F0
  8
0
 62
     7
 10
126.316
 20
233.149
 30
0.0
 11
123.53
 21
229.30699999999999
 31
0.0
  0
LINE
  5
4F1
  8
0
 62
     7
 10
130.28700000000001
 20
233.2949999999999
 30
0.0
 11
127.1109999999999
 21
233.2949999999999
 31
0.0
  0
ARC
  5
4F2
  8
0
 62
     7
 10
128.9641959999999
 20
227.42445799999999
 30
0.0
 40
0.343522
 50
95.586086000000009
 51
179.34540200000001
  0
LINE
  5
4F3
  8
0
 62
     7
 10
129.06399999999999
 20
227.7759999999999
 30
0.0
 11
107.28699999999991
 21
227.7759999999999
 31
0.0
  0
ARC
  5
4F4
  8
0
 62
     7
 10
122.299649
 20
186.7410899999999
 30
0.0
 40
0.346173
 50
182.0915839999999
 51
267.93804799999992
  0
ARC
  5
4F5
  8
0
 62
     7
 10
122.2745899999999
 20
186.74123899999989
 30
0.0
 40
0.346327
 50
272.08561900000001
 51
357.88478900000001
  0
ARC
  5
4F6
  8
0
 62
     7
 10
119.87714
 20
205.31862499999991
 30
0.0
 40
2.077974999999999
 50
2.1100840000000001
 51
87.894839999999988
  0
ARC
  5
4F7
  8
0
 62
     7
 10
119.953729
 20
205.3948759999999
 30
0.0
 40
2.6669520000000002
 50
0.005561
 51
90.005531000000005
  0
LINE
  5
4F8
  8
0
 62
     7
 10
125.621
 20
201.39500000000001
 30
0.0
 11
122.621
 21
197.06200000000001
 31
0.0
  0
LINE
  5
4F9
  8
0
 62
     7
 10
125.621
 20
204.72900000000001
 30
0.0
 11
125.621
 21
201.39500000000001
 31
0.0
  0
LINE
  5
4FA
  8
0
 62
     7
 10
125.9529999999999
 20
204.72900000000001
 30
0.0
 11
125.621
 21
204.72900000000001
 31
0.0
  0
LINE
  5
4FB
  8
0
 62
     7
 10
127.254
 20
205.3949999999999
 30
0.0
 11
122.621
 21
205.3949999999999
 31
0.0
  0
LINE
  5
4FC
  8
0
 62
     7
 10
121.95399999999999
 20
205.3949999999999
 30
0.0
 11
121.95399999999999
 21
186.72799999999989
 31
0.0
  0
LINE
  5
4FD
  8
0
 62
     7
 10
119.9529999999999
 20
208.06200000000001
 30
0.0
 11
107.28699999999991
 21
208.06200000000001
 31
0.0
  0
LINE
  5
4FE
  8
0
 62
     7
 10
119.9529999999999
 20
207.3949999999999
 30
0.0
 11
107.28699999999991
 21
207.3949999999999
 31
0.0
  0
LINE
  5
4FF
  8
0
 62
     7
 10
118.95399999999999
 20
233.08500000000001
 30
0.0
 11
118.95399999999999
 21
233.0799999999999
 31
0.0
  0
LINE
  5
500
  8
0
 62
     7
 10
107.28699999999991
 20
227.89500000000001
 30
0.0
 11
130.78700000000001
 21
227.89500000000001
 31
0.0
  0
ARC
  5
501
  8
0
 62
     7
 10
130.76845800000001
 20
227.41402999999991
 30
0.0
 40
0.5191100000000001
 50
272.04552200000001
 51
357.89526699999999
  0
ARC
  5
502
  8
0
 62
     7
 10
122.505357
 20
218.64875299999991
 30
0.0
 40
5.415756
 50
279.14610499999992
 51
359.25013899999988
  0
ARC
  5
503
  8
0
 62
     7
 10
136.94512800000001
 20
233.897829
 30
0.0
 40
0.173251
 50
297.86118599999998
 51
23.546865
  0
ARC
  5
504
  8
0
 62
     7
 10
136.95522099999991
 20
233.89773700000001
 30
0.0
 40
0.164088
 50
24.984429999999989
 51
92.921889000000007
  0
ARC
  5
505
  8
0
 62
     7
 10
132.83057899999989
 20
232.67558399999999
 30
0.0
 40
1.3772500000000001
 50
94.157837999999984
 51
178.263147
  0
ARC
  5
506
  8
0
 62
     7
 10
133.03025400000001
 20
232.70638500000001
 30
0.0
 40
0.343059
 50
95.153053999999997
 51
178.48886100000001
  0
ARC
  5
507
  8
0
 62
     7
 10
132.82541000000001
 20
232.68075200000001
 30
0.0
 40
1.2052599999999991
 50
94.177443999999994
 51
178.26101199999999
  0
ARC
  5
508
  8
0
 62
     7
 10
130.63288099999991
 20
226.54983899999999
 30
0.0
 40
0.345642
 50
92.095477999999986
 51
178.0229939999999
  0
ARC
  5
509
  8
0
 62
     7
 10
136.93707900000001
 20
233.90084100000001
 30
0.0
 40
0.345961
 50
297.67309599999987
 51
23.57689199999999
  0
ARC
  5
50A
  8
0
 62
     7
 10
136.95843199999999
 20
233.903265
 30
0.0
 40
0.325482
 50
24.689384
 51
93.373872000000006
  0
ARC
  5
50B
  8
0
 62
     7
 10
129.09944400000001
 20
227.24102899999991
 30
0.0
 40
0.345996
 50
182.09289000000001
 51
267.96636000000001
  0
ARC
  5
50C
  8
0
 62
     7
 10
122.5065669999999
 20
218.64737799999989
 30
0.0
 40
5.280869
 50
279.156409
 51
359.24590899999993
  0
ARC
  5
50D
  8
0
 62
     7
 10
114.447969
 20
203.71674799999991
 30
0.0
 40
0.345161
 50
2.905581999999999
 51
88.021164999999996
  0
ARC
  5
50E
  8
0
 62
     7
 10
128.13308699999999
 20
227.082268
 30
0.0
 40
0.346344
 50
92.088269999999994
 51
177.8820969999999
  0
ARC
  5
50F
  8
0
 62
     7
 10
127.762362
 20
203.077924
 30
0.0
 40
0.5176020000000001
 50
91.927965999999984
 51
177.13585199999989
  0
ARC
  5
510
  8
0
 62
     7
 10
126.712722
 20
204.38311300000001
 30
0.0
 40
0.345589
 50
91.930925000000016
 51
177.05393000000001
  0
ARC
  5
511
  8
0
 62
     7
 10
131.0447289999999
 20
223.34590399999999
 30
0.0
 40
2.05064
 50
92.292873999999998
 51
174.62530799999999
  0
ARC
  5
512
  8
0
 62
     7
 10
126.9518629999999
 20
205.530382
 30
0.0
 40
0.8652780000000001
 50
92.097902999999988
 51
177.91391299999989
  0
ARC
  5
513
  8
0
 62
     7
 10
127.4061169999999
 20
206.73870600000001
 30
0.0
 40
0.343756
 50
271.57988399999999
 51
353.55932999999987
  0
ARC
  5
514
  8
0
 62
     7
 10
133.03025400000001
 20
232.70638500000001
 30
0.0
 40
0.343059
 50
95.153053999999997
 51
178.48886100000001
  0
ARC
  5
515
  8
0
 62
     7
 10
132.82541000000001
 20
232.68075200000001
 30
0.0
 40
1.2052599999999991
 50
94.177443999999994
 51
178.26101199999999
  0
ARC
  5
516
  8
0
 62
     7
 10
132.83057899999989
 20
232.67558399999999
 30
0.0
 40
1.3772500000000001
 50
94.157837999999984
 51
178.263147
  0
ARC
  5
517
  8
0
 62
     7
 10
128.07139599999991
 20
203.9392059999999
 30
0.0
 40
0.344111
 50
271.6312069999999
 51
353.50800800000002
  0
ARC
  5
518
  8
0
 62
     7
 10
132.02334899999991
 20
222.42283399999991
 30
0.0
 40
1.701157
 50
108.401229
 51
140.302922
  0
ARC
  5
519
  8
0
 62
     7
 10
132.22799199999989
 20
222.15644999999989
 30
0.0
 40
2.030120999999999
 50
138.2068229999999
 51
173.84195
  0
ARC
  5
51A
  8
0
 62
     7
 10
132.52736299999989
 20
221.44022899999999
 30
0.0
 40
2.7705950000000001
 50
90.140480000000025
 51
175.92084700000001
  0
ARC
  5
51B
  8
0
 62
     7
 10
131.1886669999999
 20
221.56810999999999
 30
0.0
 40
1.4265600000000001
 50
177.21943899999991
 51
181.177987
  0
ARC
  5
51C
  8
0
 62
     7
 10
109.5897539999999
 20
251.16502800000001
 30
0.0
 40
38.812173999999999
 50
268.76627200000001
 51
270.60010899999992
  0
ARC
  5
51D
  8
0
 62
     7
 10
109.3318329999999
 20
283.16154299999988
 30
0.0
 40
70.809677000000008
 50
270.53763500000002
 51
272.23906399999993
  0
ARC
  5
51E
  8
0
 62
     7
 10
107.989453
 20
319.44298800000001
 30
0.0
 40
107.11589499999999
 50
272.19834700000001
 51
278.24267400000002
  0
ARC
  5
51F
  8
0
 62
     7
 10
130.63288099999991
 20
226.54983899999999
 30
0.0
 40
0.345642
 50
92.095477999999986
 51
178.0229939999999
  0
ARC
  5
520
  8
0
 62
     7
 10
130.76812699999999
 20
227.3759269999999
 30
0.0
 40
0.5194390000000001
 50
2.1004439999999991
 51
87.919280000000001
  0
ARC
  5
521
  8
0
 62
     7
 10
128.12803299999999
 20
227.08767999999989
 30
0.0
 40
0.207515
 50
92.089628000000005
 51
177.95971399999991
  0
ARC
  5
522
  8
0
 62
     7
 10
109.5884189999999
 20
250.56313499999999
 30
0.0
 40
38.343688
 50
268.75319100000002
 51
270.61212199999989
  0
ARC
  5
523
  8
0
 62
     7
 10
109.331608
 20
283.18273699999997
 30
0.0
 40
70.964231000000012
 50
270.53809699999988
 51
272.23821199999998
  0
ARC
  5
524
  8
0
 62
     7
 10
107.9883149999999
 20
319.43595599999998
 30
0.0
 40
107.242279
 50
272.19890800000002
 51
278.243922
  0
ARC
  5
525
  8
0
 62
     7
 10
132.02334899999991
 20
222.42283399999991
 30
0.0
 40
1.701157
 50
108.401229
 51
140.302922
  0
ARC
  5
526
  8
0
 62
     7
 10
132.22799199999989
 20
222.15644999999989
 30
0.0
 40
2.030120999999999
 50
138.2068229999999
 51
173.84195
  0
LINE
  5
527
  8
0
 62
     7
 10
127.92100000000001
 20
227.095
 30
0.0
 11
127.92100000000001
 21
218.578
 31
0.0
  0
LINE
  5
528
  8
0
 62
     7
 10
129.95400000000001
 20
227.428
 30
0.0
 11
129.95400000000001
 21
227.2949999999999
 31
0.0
  0
LINE
  5
529
  8
0
 62
     7
 10
128.12
 20
227.428
 30
0.0
 11
129.95400000000001
 21
227.428
 31
0.0
  0
LINE
  5
52A
  8
0
 62
     7
 10
128.75399999999991
 20
227.2949999999999
 30
0.0
 11
128.75399999999991
 21
227.22799999999989
 31
0.0
  0
LINE
  5
52B
  8
0
 62
     7
 10
107.28699999999991
 20
227.428
 30
0.0
 11
128.12
 21
227.428
 31
0.0
  0
LINE
  5
52C
  8
0
 62
     7
 10
136.95400000000001
 20
234.22799999999989
 30
0.0
 11
107.28699999999991
 21
234.22799999999989
 31
0.0
  0
LINE
  5
52D
  8
0
 62
     7
 10
136.40399999999991
 20
233.26199999999989
 30
0.0
 11
137.0979999999999
 21
233.59399999999999
 31
0.0
  0
LINE
  5
52E
  8
0
 62
     7
 10
131.45400000000001
 20
232.71700000000001
 30
0.0
 11
131.45400000000001
 21
225.89500000000001
 31
0.0
  0
LINE
  5
52F
  8
0
 62
     7
 10
131.62100000000001
 20
232.71700000000001
 30
0.0
 11
131.62100000000001
 21
229.86199999999999
 31
0.0
  0
LINE
  5
530
  8
0
 62
     7
 10
133.28699999999989
 20
232.1279999999999
 30
0.0
 11
132.68700000000001
 21
232.1279999999999
 31
0.0
  0
LINE
  5
531
  8
0
 62
     7
 10
136.33399999999989
 20
233.41300000000001
 30
0.0
 11
136.40399999999991
 21
233.26199999999989
 31
0.0
  0
LINE
  5
532
  8
0
 62
     7
 10
132.68700000000001
 20
232.715
 30
0.0
 11
132.68700000000001
 21
232.1279999999999
 31
0.0
  0
LINE
  5
533
  8
0
 62
     7
 10
131.45400000000001
 20
226.89500000000001
 30
0.0
 11
130.62
 21
226.89500000000001
 31
0.0
  0
LINE
  5
534
  8
0
 62
     7
 10
132.738
 20
233.8829999999999
 30
0.0
 11
136.94699999999989
 21
234.06200000000001
 31
0.0
  0
LINE
  5
535
  8
0
 62
     7
 10
136.40399999999991
 20
233.26199999999989
 30
0.0
 11
132.999
 21
233.048
 31
0.0
  0
LINE
  5
536
  8
0
 62
     7
 10
132.73099999999991
 20
234.04899999999989
 30
0.0
 11
136.93899999999991
 21
234.22799999999989
 31
0.0
  0
LINE
  5
537
  8
0
 62
     7
 10
127.254
 20
204.72900000000001
 30
0.0
 11
125.621
 21
204.72900000000001
 31
0.0
  0
LINE
  5
538
  8
0
 62
     7
 10
127.254
 20
205.56200000000001
 30
0.0
 11
126.087
 21
205.56200000000001
 31
0.0
  0
LINE
  5
539
  8
0
 62
     7
 10
130.28700000000001
 20
225.39500000000001
 30
0.0
 11
127.92100000000001
 21
225.39500000000001
 31
0.0
  0
LINE
  5
53A
  8
0
 62
     7
 10
113.95399999999989
 20
204.06200000000001
 30
0.0
 11
113.95399999999989
 21
181.86199999999991
 31
0.0
  0
LINE
  5
53B
  8
0
 62
     7
 10
130.78700000000001
 20
226.89500000000001
 30
0.0
 11
127.92100000000001
 21
226.89500000000001
 31
0.0
  0
LINE
  5
53C
  8
0
 62
     7
 10
127.78700000000001
 20
227.095
 30
0.0
 11
127.78700000000001
 21
218.578
 31
0.0
  0
LINE
  5
53D
  8
0
 62
     7
 10
114.45999999999999
 20
204.06200000000001
 30
0.0
 11
107.28699999999991
 21
204.06200000000001
 31
0.0
  0
LINE
  5
53E
  8
0
 62
     7
 10
128.08099999999999
 20
203.595
 30
0.0
 11
127.74499999999991
 21
203.595
 31
0.0
  0
LINE
  5
53F
  8
0
 62
     7
 10
127.245
 20
203.1039999999999
 30
0.0
 11
126.92
 21
184.482
 31
0.0
  0
LINE
  5
540
  8
0
 62
     7
 10
114.79299999999991
 20
203.7339999999999
 30
0.0
 11
115.1399999999999
 21
183.84399999999999
 31
0.0
  0
LINE
  5
541
  8
0
 62
     7
 10
127.254
 20
205.56200000000001
 30
0.0
 11
127.254
 21
204.72900000000001
 31
0.0
  0
LINE
  5
542
  8
0
 62
     7
 10
128.12
 20
227.2949999999999
 30
0.0
 11
129.95400000000001
 21
227.2949999999999
 31
0.0
  0
LINE
  5
543
  8
0
 62
     7
 10
126.3679999999999
 20
204.4009999999999
 30
0.0
 11
126.0199999999999
 21
184.499
 31
0.0
  0
LINE
  5
544
  8
0
 62
     7
 10
130.21000000000001
 20
222.374
 30
0.0
 11
128.953
 21
210.26199999999989
 31
0.0
  0
LINE
  5
545
  8
0
 62
     7
 10
130.28700000000001
 20
226.56200000000001
 30
0.0
 11
130.28700000000001
 21
225.26499999999999
 31
0.0
  0
LINE
  5
546
  8
0
 62
     7
 10
127.74799999999991
 20
206.6999999999999
 30
0.0
 11
128.05699999999999
 21
210.33799999999999
 31
0.0
  0
LINE
  5
547
  8
0
 62
     7
 10
136.33399999999989
 20
233.41300000000001
 30
0.0
 11
137.02600000000001
 21
233.745
 31
0.0
  0
LINE
  5
548
  8
0
 62
     7
 10
133.28699999999989
 20
231.7949999999999
 30
0.0
 11
132.52099999999999
 21
231.02799999999999
 31
0.0
  0
LINE
  5
549
  8
0
 62
     7
 10
127.4159999999999
 20
206.39500000000001
 30
0.0
 11
126.92
 21
206.39500000000001
 31
0.0
  0
LINE
  5
54A
  8
0
 62
     7
 10
131.77199999999999
 20
229.86199999999999
 30
0.0
 11
131.62100000000001
 21
229.86199999999999
 31
0.0
  0
LINE
  5
54B
  8
0
 62
     7
 10
128.4129999999999
 20
203.90000000000001
 30
0.0
 11
128.953
 21
210.26199999999989
 31
0.0
  0
LINE
  5
54C
  8
0
 62
     7
 10
131.77199999999999
 20
229.72799999999989
 30
0.0
 11
131.45400000000001
 21
229.72799999999989
 31
0.0
  0
LINE
  5
54D
  8
0
 62
     7
 10
131.77199999999999
 20
229.86199999999999
 30
0.0
 11
131.77199999999999
 21
229.72799999999989
 31
0.0
  0
LINE
  5
54E
  8
0
 62
     7
 10
128.12
 20
227.428
 30
0.0
 11
128.48699999999991
 21
227.428
 31
0.0
  0
LINE
  5
54F
  8
0
 62
     7
 10
133.28699999999989
 20
232.1279999999999
 30
0.0
 11
133.28699999999989
 21
225.31200000000001
 31
0.0
  0
LINE
  5
550
  8
0
 62
     7
 10
133.28699999999989
 20
225.31200000000001
 30
0.0
 11
132.52099999999999
 21
225.31200000000001
 31
0.0
  0
LINE
  5
551
  8
0
 62
     7
 10
133.28699999999989
 20
225.31200000000001
 30
0.0
 11
132.52099999999999
 21
224.5449999999999
 31
0.0
  0
LINE
  5
552
  8
0
 62
     7
 10
133.28699999999989
 20
231.02799999999999
 30
0.0
 11
132.52099999999999
 21
231.02799999999999
 31
0.0
  0
LINE
  5
553
  8
0
 62
     7
 10
129.06399999999999
 20
227.7759999999999
 30
0.0
 11
121.53100000000001
 21
227.7759999999999
 31
0.0
  0
LINE
  5
554
  8
0
 62
     7
 10
96.020600000000016
 20
108.3949999999999
 30
0.0
 11
107.28699999999991
 21
108.3949999999999
 31
0.0
  0
LINE
  5
555
  8
0
 62
     7
 10
101.121
 20
120.611
 30
0.0
 11
101.121
 21
118.16200000000001
 31
0.0
  0
LINE
  5
556
  8
0
 62
     7
 10
101.121
 20
123.944
 30
0.0
 11
101.121
 21
121.28100000000001
 31
0.0
  0
LINE
  5
557
  8
0
 62
     7
 10
101.121
 20
127.2769999999999
 30
0.0
 11
101.121
 21
124.6149999999999
 31
0.0
  0
LINE
  5
558
  8
0
 62
     7
 10
101.121
 20
130.6109999999999
 30
0.0
 11
101.121
 21
127.94799999999989
 31
0.0
  0
LINE
  5
559
  8
0
 62
     7
 10
101.121
 20
133.9439999999999
 30
0.0
 11
101.121
 21
131.28100000000001
 31
0.0
  0
LINE
  5
55A
  8
0
 62
     7
 10
101.121
 20
137.27799999999991
 30
0.0
 11
101.121
 21
134.61500000000001
 31
0.0
  0
LINE
  5
55B
  8
0
 62
     7
 10
101.121
 20
140.6109999999999
 30
0.0
 11
101.121
 21
137.94799999999989
 31
0.0
  0
LINE
  5
55C
  8
0
 62
     7
 10
101.121
 20
143.9439999999999
 30
0.0
 11
101.121
 21
141.28100000000001
 31
0.0
  0
LINE
  5
55D
  8
0
 62
     7
 10
101.121
 20
147.27799999999999
 30
0.0
 11
101.121
 21
144.61500000000001
 31
0.0
  0
LINE
  5
55E
  8
0
 62
     7
 10
103.73699999999999
 20
117.495
 30
0.0
 11
107.28699999999991
 21
117.495
 31
0.0
  0
LINE
  5
55F
  8
0
 62
     7
 10
96.020600000000016
 20
117.495
 30
0.0
 11
101.767
 21
117.495
 31
0.0
  0
ARC
  5
560
  8
0
 62
     7
 10
102.8243919999999
 20
117.469657
 30
0.0
 40
0.692818
 50
92.098157999999984
 51
177.87220999999991
  0
LINE
  5
561
  8
0
 62
     7
 10
102.13200000000001
 20
108.3949999999999
 30
0.0
 11
102.13200000000001
 21
117.495
 31
0.0
  0
ARC
  5
562
  8
0
 62
     7
 10
104.002656
 20
117.4703379999999
 30
0.0
 40
0.692138
 50
92.103030000000004
 51
177.926559
  0
LINE
  5
563
  8
0
 62
     7
 10
103.31100000000001
 20
108.3949999999999
 30
0.0
 11
103.31100000000001
 21
117.495
 31
0.0
  0
LINE
  5
564
  8
0
 62
     7
 10
96.020600000000016
 20
108.3949999999999
 30
0.0
 11
96.020600000000016
 21
117.495
 31
0.0
  0
LINE
  5
565
  8
0
 62
     7
 10
96.687200000000004
 20
118.16200000000001
 30
0.0
 11
107.28699999999991
 21
118.16200000000001
 31
0.0
  0
ARC
  5
566
  8
0
 62
     7
 10
96.712598000000014
 20
117.4699979999999
 30
0.0
 40
0.692478
 50
92.100583999999984
 51
177.89938599999999
  0
ARC
  5
567
  8
0
 62
     7
 10
100.96793599999999
 20
120.917329
 30
0.0
 40
0.346346
 50
98.118314999999996
 51
183.92139599999999
  0
ARC
  5
568
  8
0
 62
     7
 10
100.965276
 20
120.942554
 30
0.0
 40
0.346346
 50
188.11836199999991
 51
273.92136899999991
  0
LINE
  5
569
  8
0
 62
     7
 10
107.28699999999991
 20
121.26000000000001
 30
0.0
 11
100.9889999999999
 21
120.59699999999999
 31
0.0
  0
LINE
  5
56A
  8
0
 62
     7
 10
107.28699999999991
 20
121.9309999999999
 30
0.0
 11
100.919
 21
121.26000000000001
 31
0.0
  0
ARC
  5
56B
  8
0
 62
     7
 10
100.968592
 20
124.250294
 30
0.0
 40
0.346964
 50
98.213155
 51
183.82655600000001
  0
ARC
  5
56C
  8
0
 62
     7
 10
100.9651929999999
 20
124.275946
 30
0.0
 40
0.346249
 50
188.10346299999989
 51
273.93626799999998
  0
LINE
  5
56D
  8
0
 62
     7
 10
107.28699999999991
 20
124.59399999999999
 30
0.0
 11
100.9889999999999
 21
123.9309999999999
 31
0.0
  0
LINE
  5
56E
  8
0
 62
     7
 10
107.28699999999991
 20
125.2639999999999
 30
0.0
 11
100.919
 21
124.59399999999999
 31
0.0
  0
ARC
  5
56F
  8
0
 62
     7
 10
100.96793599999999
 20
127.58397599999989
 30
0.0
 40
0.346346
 50
98.118314999999996
 51
183.92139599999999
  0
ARC
  5
570
  8
0
 62
     7
 10
100.965276
 20
127.6092
 30
0.0
 40
0.346346
 50
188.11836199999991
 51
273.92136899999991
  0
ARC
  5
571
  8
0
 62
     7
 10
100.967907
 20
130.91717199999991
 30
0.0
 40
0.3462969999999999
 50
98.114651000000009
 51
183.872365
  0
ARC
  5
572
  8
0
 62
     7
 10
100.9651929999999
 20
130.9425929999999
 30
0.0
 40
0.346249
 50
188.10346299999989
 51
273.93626799999998
  0
ARC
  5
573
  8
0
 62
     7
 10
100.96793599999999
 20
134.25062199999991
 30
0.0
 40
0.346346
 50
98.118314999999996
 51
183.92139599999999
  0
ARC
  5
574
  8
0
 62
     7
 10
100.965276
 20
134.27584699999991
 30
0.0
 40
0.346346
 50
188.11836199999991
 51
273.92136899999991
  0
ARC
  5
575
  8
0
 62
     7
 10
100.967907
 20
137.58381799999989
 30
0.0
 40
0.3462969999999999
 50
98.114651000000009
 51
183.872365
  0
ARC
  5
576
  8
0
 62
     7
 10
100.9651929999999
 20
137.60923899999989
 30
0.0
 40
0.346249
 50
188.10346299999989
 51
273.93626799999998
  0
ARC
  5
577
  8
0
 62
     7
 10
100.96793599999999
 20
140.91726800000001
 30
0.0
 40
0.346346
 50
98.118314999999996
 51
183.92139599999999
  0
ARC
  5
578
  8
0
 62
     7
 10
100.965276
 20
140.9424929999999
 30
0.0
 40
0.346346
 50
188.11836199999991
 51
273.92136899999991
  0
ARC
  5
579
  8
0
 62
     7
 10
100.967907
 20
144.25046499999991
 30
0.0
 40
0.3462969999999999
 50
98.114651000000009
 51
183.872365
  0
ARC
  5
57A
  8
0
 62
     7
 10
100.9651929999999
 20
144.27588600000001
 30
0.0
 40
0.346249
 50
188.10346299999989
 51
273.93626799999998
  0
ARC
  5
57B
  8
0
 62
     7
 10
96.801047999999994
 20
96.240876999999998
 30
0.0
 40
0.345554
 50
271.97600699999992
 51
357.51841200000001
  0
LINE
  5
57C
  8
0
 62
     7
 10
97.208800000000011
 20
103.73
 30
0.0
 11
97.146299999999997
 21
96.225899999999996
 31
0.0
  0
LINE
  5
57D
  8
0
 62
     7
 10
97.375399999999999
 20
103.895
 30
0.0
 11
107.277
 21
103.895
 31
0.0
  0
ARC
  5
57E
  8
0
 62
     7
 10
97.381596999999999
 20
103.722595
 30
0.0
 40
0.172952
 50
92.060582999999994
 51
177.52312499999999
  0
LINE
  5
57F
  8
0
 62
     7
 10
96.9435
 20
88.895399999999995
 30
0.0
 11
107.277
 21
88.895399999999995
 31
0.0
  0
ARC
  5
580
  8
0
 62
     7
 10
96.968909999999994
 20
89.587401999999983
 30
0.0
 40
0.692472
 50
182.10021399999999
 51
267.89981599999987
  0
LINE
  5
581
  8
0
 62
     7
 10
96.276900000000012
 20
89.561999999999998
 30
0.0
 11
96.276900000000012
 21
95.395300000000006
 31
0.0
  0
LINE
  5
582
  8
0
 62
     7
 10
96.776799999999994
 20
95.895499999999998
 30
0.0
 11
107.277
 21
95.895499999999998
 31
0.0
  0
ARC
  5
583
  8
0
 62
     7
 10
96.79584100000001
 20
95.376603000000003
 30
0.0
 40
0.5192750000000002
 50
92.102579000000006
 51
177.9368639999999
  0
LINE
  5
584
  8
0
 62
     7
 10
96.710300000000004
 20
103.895
 30
0.0
 11
107.277
 21
103.895
 31
0.0
  0
LINE
  5
585
  8
0
 62
     7
 10
102.624
 20
104.562
 30
0.0
 11
102.624
 21
107.2289999999999
 31
0.0
  0
ARC
  5
586
  8
0
 62
     7
 10
103.2903
 20
104.56171999999989
 30
0.0
 40
0.666286
 50
179.99996999999991
 51
270.00002000000001
  0
LINE
  5
587
  8
0
 62
     7
 10
97.443600000000004
 20
107.2289999999999
 30
0.0
 11
97.443600000000004
 21
108.3949999999999
 31
0.0
  0
LINE
  5
588
  8
0
 62
     7
 10
96.043499999999995
 20
107.2289999999999
 30
0.0
 11
107.277
 21
107.2289999999999
 31
0.0
  0
LINE
  5
589
  8
0
 62
     7
 10
96.043499999999995
 20
104.562
 30
0.0
 11
96.043499999999995
 21
107.2289999999999
 31
0.0
  0
ARC
  5
58A
  8
0
 62
     7
 10
96.710040000000006
 20
104.56197899999999
 30
0.0
 40
0.666544
 50
180.02222
 51
270.02222999999992
  0
LINE
  5
58B
  8
0
 62
     7
 10
107.28699999999991
 20
110.8959999999999
 30
0.0
 11
114.876
 21
110.8959999999999
 31
0.0
  0
LINE
  5
58C
  8
0
 62
     7
 10
113.28700000000001
 20
126.729
 30
0.0
 11
113.28700000000001
 21
127.553
 31
0.0
  0
LINE
  5
58D
  8
0
 62
     7
 10
113.75399999999991
 20
122.5929999999999
 30
0.0
 11
113.75399999999991
 21
125.25700000000001
 31
0.0
  0
LINE
  5
58E
  8
0
 62
     7
 10
113.75399999999991
 20
116.82899999999999
 30
0.0
 11
113.75399999999991
 21
121.9229999999999
 31
0.0
  0
LINE
  5
58F
  8
0
 62
     7
 10
113.75399999999991
 20
125.92700000000001
 30
0.0
 11
113.75399999999991
 21
126.3949999999999
 31
0.0
  0
ARC
  5
590
  8
0
 62
     7
 10
113.269426
 20
126.40554999999991
 30
0.0
 40
0.484316
 50
358.81051500000001
 51
67.609203000000008
  0
LINE
  5
591
  8
0
 62
     7
 10
113.75399999999991
 20
121.9229999999999
 30
0.0
 11
113.822
 21
121.93000000000001
 31
0.0
  0
LINE
  5
592
  8
0
 62
     7
 10
113.75399999999991
 20
125.25700000000001
 30
0.0
 11
113.822
 21
125.2639999999999
 31
0.0
  0
LINE
  5
593
  8
0
 62
     7
 10
113.45399999999989
 20
126.85299999999989
 30
0.0
 11
113.45399999999989
 21
128.57599999999999
 31
0.0
  0
LINE
  5
594
  8
0
 62
     7
 10
113.45399999999989
 20
129.24600000000001
 30
0.0
 11
113.45399999999989
 21
131.90899999999991
 31
0.0
  0
LINE
  5
595
  8
0
 62
     7
 10
113.45399999999989
 20
132.57900000000001
 30
0.0
 11
113.45399999999989
 21
135.24299999999999
 31
0.0
  0
LINE
  5
596
  8
0
 62
     7
 10
113.45399999999989
 20
135.9129999999999
 30
0.0
 11
113.45399999999989
 21
138.57599999999991
 31
0.0
  0
LINE
  5
597
  8
0
 62
     7
 10
113.45399999999989
 20
139.24600000000001
 30
0.0
 11
113.45399999999989
 21
141.90899999999991
 31
0.0
  0
LINE
  5
598
  8
0
 62
     7
 10
113.45399999999989
 20
142.58000000000001
 30
0.0
 11
113.45399999999989
 21
145.24299999999991
 31
0.0
  0
LINE
  5
599
  8
0
 62
     7
 10
113.45399999999989
 20
145.9129999999999
 30
0.0
 11
113.45399999999989
 21
148.57599999999991
 31
0.0
  0
LINE
  5
59A
  8
0
 62
     7
 10
117.321
 20
108.3949999999999
 30
0.0
 11
118.554
 21
108.3949999999999
 31
0.0
  0
LINE
  5
59B
  8
0
 62
     7
 10
116.277
 20
114.8949999999999
 30
0.0
 11
116.54299999999991
 21
114.8949999999999
 31
0.0
  0
ARC
  5
59C
  8
0
 62
     7
 10
113.690229
 20
114.6329409999999
 30
0.0
 40
2.942200999999999
 50
302.87789299999997
 51
305.42365799999988
  0
LINE
  5
59D
  8
0
 62
     7
 10
116.45399999999989
 20
115.82899999999999
 30
0.0
 11
116.45399999999989
 21
114.8949999999999
 31
0.0
  0
LINE
  5
59E
  8
0
 62
     7
 10
113.587
 20
116.82899999999999
 30
0.0
 11
116.81999999999989
 21
116.82899999999999
 31
0.0
  0
LINE
  5
59F
  8
0
 62
     7
 10
113.75399999999991
 20
118.16200000000001
 30
0.0
 11
117.887
 21
118.16200000000001
 31
0.0
  0
LINE
  5
5A0
  8
0
 62
     7
 10
117.321
 20
108.3949999999999
 30
0.0
 11
117.321
 21
116.32899999999989
 31
0.0
  0
LINE
  5
5A1
  8
0
 62
     7
 10
116.81999999999989
 20
116.82899999999999
 30
0.0
 11
117.321
 21
116.32899999999989
 31
0.0
  0
LINE
  5
5A2
  8
0
 62
     7
 10
115.4039999999999
 20
116.82899999999999
 30
0.0
 11
115.4039999999999
 21
118.16200000000001
 31
0.0
  0
LINE
  5
5A3
  8
0
 62
     7
 10
118.554
 20
108.3949999999999
 30
0.0
 11
118.554
 21
117.495
 31
0.0
  0
ARC
  5
5A4
  8
0
 62
     7
 10
117.86203
 20
117.46996299999989
 30
0.0
 40
0.6925
 50
2.1033909999999989
 51
87.926201999999989
  0
LINE
  5
5A5
  8
0
 62
     7
 10
115.28700000000001
 20
115.82899999999999
 30
0.0
 11
115.28700000000001
 21
112.16200000000001
 31
0.0
  0
ARC
  5
5A6
  8
0
 62
     7
 10
113.773922
 20
122.273006
 30
0.0
 40
0.345721
 50
277.96887700000002
 51
3.9530750000000001
  0
ARC
  5
5A7
  8
0
 62
     7
 10
113.77594599999991
 20
122.247929
 30
0.0
 40
0.346346
 50
8.1183420000000002
 51
93.921349000000006
  0
ARC
  5
5A8
  8
0
 62
     7
 10
113.77324399999991
 20
125.606707
 30
0.0
 40
0.346359
 50
278.06731300000001
 51
3.8546390000000001
  0
ARC
  5
5A9
  8
0
 62
     7
 10
113.77602899999999
 20
125.581183
 30
0.0
 40
0.346249
 50
8.1034430000000004
 51
93.936248000000006
  0
ARC
  5
5AA
  8
0
 62
     7
 10
113.60655299999991
 20
128.94015999999999
 30
0.0
 40
0.34631
 50
278.05974099999997
 51
3.862210999999999
  0
ARC
  5
5AB
  8
0
 62
     7
 10
113.6092019999999
 20
128.91457600000001
 30
0.0
 40
0.346346
 50
8.1183420000000002
 51
93.921349000000006
  0
ARC
  5
5AC
  8
0
 62
     7
 10
113.6065199999999
 20
132.273359
 30
0.0
 40
0.346363
 50
278.06396100000001
 51
3.9106990000000001
  0
ARC
  5
5AD
  8
0
 62
     7
 10
113.6092019999999
 20
132.24807100000001
 30
0.0
 40
0.346346
 50
8.1183420000000002
 51
93.921349000000006
  0
ARC
  5
5AE
  8
0
 62
     7
 10
113.60655299999991
 20
135.60680600000001
 30
0.0
 40
0.34631
 50
278.05974099999997
 51
3.862210999999999
  0
ARC
  5
5AF
  8
0
 62
     7
 10
113.6092019999999
 20
135.581222
 30
0.0
 40
0.346346
 50
8.1183420000000002
 51
93.921349000000006
  0
ARC
  5
5B0
  8
0
 62
     7
 10
113.6065199999999
 20
138.94000600000001
 30
0.0
 40
0.346363
 50
278.06396100000001
 51
3.9106990000000001
  0
ARC
  5
5B1
  8
0
 62
     7
 10
113.6092019999999
 20
138.91471799999991
 30
0.0
 40
0.346346
 50
8.1183420000000002
 51
93.921349000000006
  0
ARC
  5
5B2
  8
0
 62
     7
 10
113.60655299999991
 20
142.27345199999991
 30
0.0
 40
0.34631
 50
278.05974099999997
 51
3.862210999999999
  0
ARC
  5
5B3
  8
0
 62
     7
 10
113.609285
 20
142.24797100000001
 30
0.0
 40
0.346249
 50
8.1034430000000004
 51
93.936248000000006
  0
ARC
  5
5B4
  8
0
 62
     7
 10
113.6065199999999
 20
145.606652
 30
0.0
 40
0.346363
 50
278.06396100000001
 51
3.9106990000000001
  0
ARC
  5
5B5
  8
0
 62
     7
 10
113.6092019999999
 20
145.58136399999989
 30
0.0
 40
0.346346
 50
8.1183420000000002
 51
93.921349000000006
  0
ARC
  5
5B6
  8
0
 62
     7
 10
113.4726169999999
 20
115.414298
 30
0.0
 40
0.519285
 50
182.10367600000001
 51
267.9358279999999
  0
LINE
  5
5B7
  8
0
 62
     7
 10
112.95399999999989
 20
115.395
 30
0.0
 11
112.95399999999989
 21
126.729
 31
0.0
  0
LINE
  5
5B8
  8
0
 62
     7
 10
107.28699999999991
 20
114.8949999999999
 30
0.0
 11
113.587
 21
114.8949999999999
 31
0.0
  0
ARC
  5
5B9
  8
0
 62
     7
 10
113.561835
 20
114.20330300000001
 30
0.0
 40
0.6925
 50
2.1033909999999989
 51
87.926201999999989
  0
LINE
  5
5BA
  8
0
 62
     7
 10
114.25399999999991
 20
110.8959999999999
 30
0.0
 11
114.25399999999991
 21
114.229
 31
0.0
  0
LINE
  5
5BB
  8
0
 62
     7
 10
115.28700000000001
 20
115.82899999999999
 30
0.0
 11
116.53700000000001
 21
115.82899999999999
 31
0.0
  0
LINE
  5
5BC
  8
0
 62
     7
 10
113.587
 20
116.82899999999999
 30
0.0
 11
116.53700000000001
 21
116.82899999999999
 31
0.0
  0
ARC
  5
5BD
  8
0
 62
     7
 10
114.86477099999991
 20
111.240596
 30
0.0
 40
0.345212
 50
271.87355099999991
 51
357.11134399999992
  0
LINE
  5
5BE
  8
0
 62
     7
 10
115.28700000000001
 20
115.82899999999999
 30
0.0
 11
115.20999999999989
 21
111.223
 31
0.0
  0
ARC
  5
5BF
  8
0
 62
     7
 10
113.241151
 20
126.382909
 30
0.0
 40
0.345972
 50
2.0849579999999999
 51
87.855749999999986
  0
LINE
  5
5C0
  8
0
 62
     7
 10
113.587
 20
116.82899999999999
 30
0.0
 11
113.587
 21
126.3949999999999
 31
0.0
  0
LINE
  5
5C1
  8
0
 62
     7
 10
107.28699999999991
 20
126.729
 30
0.0
 11
113.25399999999991
 21
126.729
 31
0.0
  0
LINE
  5
5C2
  8
0
 62
     7
 10
116.53700000000001
 20
115.82899999999999
 30
0.0
 11
116.53700000000001
 21
116.82899999999999
 31
0.0
  0
LINE
  5
5C3
  8
0
 62
     7
 10
116.3429999999999
 20
103.895
 30
0.0
 11
117.178
 21
103.895
 31
0.0
  0
ARC
  5
5C4
  8
0
 62
     7
 10
117.1719669999999
 20
103.722517
 30
0.0
 40
0.173026
 50
2.5016889999999989
 51
87.973782
  0
LINE
  5
5C5
  8
0
 62
     7
 10
117.345
 20
103.73
 30
0.0
 11
117.4079999999999
 21
96.225899999999996
 31
0.0
  0
LINE
  5
5C6
  8
0
 62
     7
 10
107.277
 20
95.228599999999986
 30
0.0
 11
117.2439999999999
 21
95.228599999999986
 31
0.0
  0
LINE
  5
5C7
  8
0
 62
     7
 10
117.2439999999999
 20
95.228599999999986
 30
0.0
 11
117.4099999999999
 21
88.895399999999995
 31
0.0
  0
LINE
  5
5C8
  8
0
 62
     7
 10
116.3599999999999
 20
95.895499999999998
 30
0.0
 11
116.3599999999999
 21
103.2289999999999
 31
0.0
  0
LINE
  5
5C9
  8
0
 62
     7
 10
117.73999999999999
 20
95.895499999999998
 30
0.0
 11
117.7769999999999
 21
95.895499999999998
 31
0.0
  0
ARC
  5
5CA
  8
0
 62
     7
 10
117.752934
 20
96.241033999999999
 30
0.0
 40
0.345736
 50
182.50634199999999
 51
267.91038199999991
  0
ARC
  5
5CB
  8
0
 62
     7
 10
117.05189900000001
 20
103.203763
 30
0.0
 40
0.692138
 50
92.103030000000004
 51
177.926559
  0
ARC
  5
5CC
  8
0
 62
     7
 10
117.58512399999989
 20
89.58664499999999
 30
0.0
 40
0.6917020000000002
 50
272.06948699999998
 51
357.96014100000002
  0
LINE
  5
5CD
  8
0
 62
     7
 10
118.276
 20
89.561999999999998
 30
0.0
 11
118.276
 21
95.395300000000006
 31
0.0
  0
LINE
  5
5CE
  8
0
 62
     7
 10
107.277
 20
88.895399999999995
 30
0.0
 11
117.6099999999999
 21
88.895399999999995
 31
0.0
  0
ARC
  5
5CF
  8
0
 62
     7
 10
117.757124
 20
95.376291000000009
 30
0.0
 40
0.519612
 50
2.0962040000000002
 51
87.824812000000009
  0
LINE
  5
5D0
  8
0
 62
     7
 10
116.54299999999991
 20
107.2289999999999
 30
0.0
 11
116.54299999999991
 21
114.7289999999999
 31
0.0
  0
LINE
  5
5D1
  8
0
 62
     7
 10
116.54299999999991
 20
114.7289999999999
 30
0.0
 11
116.54299999999991
 21
114.8949999999999
 31
0.0
  0
ARC
  5
5D2
  8
0
 62
     7
 10
115.78207500000001
 20
95.907511999999997
 30
0.0
 40
0.345669
 50
183.13011
 51
268.0660299999999
  0
LINE
  5
5D3
  8
0
 62
     7
 10
115.277
 20
103.895
 30
0.0
 11
115.437
 21
95.888599999999997
 31
0.0
  0
ARC
  5
5D4
  8
0
 62
     7
 10
115.93397899999999
 20
95.907772999999992
 30
0.0
 40
0.345945
 50
272.009726
 51
357.51480299999992
  0
LINE
  5
5D5
  8
0
 62
     7
 10
116.28
 20
95.892799999999994
 30
0.0
 11
116.3429999999999
 21
103.895
 31
0.0
  0
LINE
  5
5D6
  8
0
 62
     7
 10
107.277
 20
95.562000000000026
 30
0.0
 11
116.027
 21
95.562000000000026
 31
0.0
  0
LINE
  5
5D7
  8
0
 62
     7
 10
115.4099999999999
 20
113.229
 30
0.0
 11
115.277
 21
103.895
 31
0.0
  0
LINE
  5
5D8
  8
0
 62
     7
 10
116.3429999999999
 20
103.895
 30
0.0
 11
117.84399999999989
 21
103.895
 31
0.0
  0
LINE
  5
5D9
  8
0
 62
     7
 10
116.277
 20
114.8949999999999
 30
0.0
 11
115.4099999999999
 21
113.229
 31
0.0
  0
LINE
  5
5DA
  8
0
 62
     7
 10
116.54299999999991
 20
107.2289999999999
 30
0.0
 11
118.51000000000001
 21
107.2289999999999
 31
0.0
  0
LINE
  5
5DB
  8
0
 62
     7
 10
117.11
 20
107.2289999999999
 30
0.0
 11
117.11
 21
114.229
 31
0.0
  0
LINE
  5
5DC
  8
0
 62
     7
 10
116.54299999999991
 20
114.7289999999999
 30
0.0
 11
117.11
 21
114.229
 31
0.0
  0
LINE
  5
5DD
  8
0
 62
     7
 10
118.51000000000001
 20
104.562
 30
0.0
 11
118.51000000000001
 21
107.2289999999999
 31
0.0
  0
ARC
  5
5DE
  8
0
 62
     7
 10
117.843681
 20
104.56172099999991
 30
0.0
 40
0.666286
 50
270.00002000000001
 51
359.99998999999991
  0
LINE
  5
5DF
  8
0
 62
     7
 10
113.6549999999999
 20
128.59700000000001
 30
0.0
 11
100.9889999999999
 21
127.2639999999999
 31
0.0
  0
LINE
  5
5E0
  8
0
 62
     7
 10
113.586
 20
129.25999999999991
 30
0.0
 11
100.919
 21
127.92700000000001
 31
0.0
  0
LINE
  5
5E1
  8
0
 62
     7
 10
113.6549999999999
 20
131.93000000000001
 30
0.0
 11
100.9889999999999
 21
130.59700000000001
 31
0.0
  0
LINE
  5
5E2
  8
0
 62
     7
 10
113.586
 20
132.59399999999991
 30
0.0
 11
100.919
 21
131.25999999999991
 31
0.0
  0
LINE
  5
5E3
  8
0
 62
     7
 10
113.6549999999999
 20
135.26400000000001
 30
0.0
 11
100.9889999999999
 21
133.93000000000001
 31
0.0
  0
LINE
  5
5E4
  8
0
 62
     7
 10
113.586
 20
135.92699999999999
 30
0.0
 11
100.919
 21
134.5929999999999
 31
0.0
  0
LINE
  5
5E5
  8
0
 62
     7
 10
113.6549999999999
 20
138.59700000000001
 30
0.0
 11
100.9889999999999
 21
137.26400000000001
 31
0.0
  0
LINE
  5
5E6
  8
0
 62
     7
 10
113.586
 20
139.25999999999991
 30
0.0
 11
100.919
 21
137.92699999999999
 31
0.0
  0
LINE
  5
5E7
  8
0
 62
     7
 10
113.6549999999999
 20
141.93100000000001
 30
0.0
 11
100.9889999999999
 21
140.59700000000001
 31
0.0
  0
LINE
  5
5E8
  8
0
 62
     7
 10
113.586
 20
142.5929999999999
 30
0.0
 11
100.919
 21
141.25999999999991
 31
0.0
  0
LINE
  5
5E9
  8
0
 62
     7
 10
113.6549999999999
 20
145.26400000000001
 30
0.0
 11
100.9889999999999
 21
143.93000000000001
 31
0.0
  0
LINE
  5
5EA
  8
0
 62
     7
 10
113.586
 20
145.92699999999999
 30
0.0
 11
100.919
 21
144.5929999999999
 31
0.0
  0
LINE
  5
5EB
  8
0
 62
     7
 10
113.75399999999991
 20
163.2949999999999
 30
0.0
 11
113.75399999999991
 21
160.62899999999991
 31
0.0
  0
LINE
  5
5EC
  8
0
 62
     7
 10
113.75399999999991
 20
166.62899999999999
 30
0.0
 11
113.75399999999991
 21
163.96199999999999
 31
0.0
  0
LINE
  5
5ED
  8
0
 62
     7
 10
113.75399999999991
 20
169.6279999999999
 30
0.0
 11
113.75399999999991
 21
167.2949999999999
 31
0.0
  0
LINE
  5
5EE
  8
0
 62
     7
 10
113.28700000000001
 20
158.887
 30
0.0
 11
113.28700000000001
 21
159.72799999999989
 31
0.0
  0
ARC
  5
5EF
  8
0
 62
     7
 10
113.2745569999999
 20
160.0453719999999
 30
0.0
 40
0.4767270000000001
 50
292.09996099999989
 51
349.965575
  0
LINE
  5
5F0
  8
0
 62
     7
 10
113.45399999999989
 20
157.27999999999989
 30
0.0
 11
113.45399999999989
 21
159.6039999999999
 31
0.0
  0
LINE
  5
5F1
  8
0
 62
     7
 10
113.45399999999989
 20
153.946
 30
0.0
 11
113.45399999999989
 21
156.60900000000001
 31
0.0
  0
LINE
  5
5F2
  8
0
 62
     7
 10
113.45399999999989
 20
151.744
 30
0.0
 11
113.45399999999989
 21
153.27600000000001
 31
0.0
  0
LINE
  5
5F3
  8
0
 62
     7
 10
101.121
 20
165.98099999999999
 30
0.0
 11
101.121
 21
168.2949999999999
 31
0.0
  0
LINE
  5
5F4
  8
0
 62
     7
 10
101.121
 20
162.64799999999991
 30
0.0
 11
101.121
 21
165.31099999999989
 31
0.0
  0
LINE
  5
5F5
  8
0
 62
     7
 10
101.121
 20
159.315
 30
0.0
 11
101.121
 21
161.97799999999989
 31
0.0
  0
LINE
  5
5F6
  8
0
 62
     7
 10
101.121
 20
155.98099999999991
 30
0.0
 11
101.121
 21
158.64400000000001
 31
0.0
  0
LINE
  5
5F7
  8
0
 62
     7
 10
101.121
 20
153.357
 30
0.0
 11
101.121
 21
155.31100000000001
 31
0.0
  0
ARC
  5
5F8
  8
0
 62
     7
 10
113.741105
 20
166.97463500000001
 30
0.0
 40
0.346253
 50
272.07427799999999
 51
357.89612999999991
  0
ARC
  5
5F9
  8
0
 62
     7
 10
113.74118199999999
 20
166.94928999999991
 30
0.0
 40
0.346173
 50
2.0915810000000001
 51
87.938011000000003
  0
ARC
  5
5FA
  8
0
 62
     7
 10
100.96768899999999
 20
165.61725899999999
 30
0.0
 40
0.346091
 50
98.083034999999995
 51
183.90398099999999
  0
ARC
  5
5FB
  8
0
 62
     7
 10
100.965221
 20
165.642537
 30
0.0
 40
0.346281
 50
188.1084239999999
 51
273.931307
  0
LINE
  5
5FC
  8
0
 62
     7
 10
100.919
 20
165.96000000000001
 30
0.0
 11
107.28699999999991
 21
166.62999999999991
 31
0.0
  0
LINE
  5
5FD
  8
0
 62
     7
 10
100.9889999999999
 20
165.297
 30
0.0
 11
107.28699999999991
 21
165.96000000000001
 31
0.0
  0
ARC
  5
5FE
  8
0
 62
     7
 10
113.74098599999989
 20
163.64125200000001
 30
0.0
 40
0.3463699999999999
 50
272.09327000000002
 51
357.90674000000001
  0
ARC
  5
5FF
  8
0
 62
     7
 10
113.7410049999999
 20
163.6159679999999
 30
0.0
 40
0.346351
 50
2.0902769999999991
 51
87.909712999999996
  0
ARC
  5
600
  8
0
 62
     7
 10
100.96793599999999
 20
162.283886
 30
0.0
 40
0.346346
 50
98.118314999999996
 51
183.92139599999999
  0
ARC
  5
601
  8
0
 62
     7
 10
100.9651929999999
 20
162.30900700000001
 30
0.0
 40
0.346249
 50
188.10346299999989
 51
273.93626799999998
  0
LINE
  5
602
  8
0
 62
     7
 10
100.919
 20
162.62700000000001
 30
0.0
 11
107.28699999999991
 21
163.297
 31
0.0
  0
LINE
  5
603
  8
0
 62
     7
 10
100.9889999999999
 20
161.96399999999991
 30
0.0
 11
107.28699999999991
 21
162.62700000000001
 31
0.0
  0
ARC
  5
604
  8
0
 62
     7
 10
113.74240399999999
 20
160.3077679999999
 30
0.0
 40
0.345465
 50
270.2633019999999
 51
356.24017299999991
  0
ARC
  5
605
  8
0
 62
     7
 10
113.7404879999999
 20
160.2827429999999
 30
0.0
 40
0.346646
 50
0.391909
 51
86.115156999999996
  0
LINE
  5
606
  8
0
 62
     7
 10
113.7639999999999
 20
160.62899999999991
 30
0.0
 11
113.75399999999991
 21
160.62899999999991
 31
0.0
  0
ARC
  5
607
  8
0
 62
     7
 10
100.967907
 20
158.950436
 30
0.0
 40
0.3462969999999999
 50
98.114651000000009
 51
183.872365
  0
ARC
  5
608
  8
0
 62
     7
 10
100.9651929999999
 20
158.97585699999999
 30
0.0
 40
0.346249
 50
188.10346299999989
 51
273.93626799999998
  0
LINE
  5
609
  8
0
 62
     7
 10
100.919
 20
159.29300000000001
 30
0.0
 11
107.28699999999991
 21
159.96399999999991
 31
0.0
  0
LINE
  5
60A
  8
0
 62
     7
 10
100.9889999999999
 20
158.63
 30
0.0
 11
107.28699999999991
 21
159.29300000000001
 31
0.0
  0
ARC
  5
60B
  8
0
 62
     7
 10
113.60655299999991
 20
156.97342299999991
 30
0.0
 40
0.34631
 50
278.05974099999997
 51
3.862210999999999
  0
ARC
  5
60C
  8
0
 62
     7
 10
113.609285
 20
156.9479419999999
 30
0.0
 40
0.346249
 50
8.1034430000000004
 51
93.936248000000006
  0
ARC
  5
60D
  8
0
 62
     7
 10
100.96793599999999
 20
155.6172389999999
 30
0.0
 40
0.346346
 50
98.118314999999996
 51
183.92139599999999
  0
ARC
  5
60E
  8
0
 62
     7
 10
100.965276
 20
155.6424639999999
 30
0.0
 40
0.346346
 50
188.11836199999991
 51
273.92136899999991
  0
LINE
  5
60F
  8
0
 62
     7
 10
100.919
 20
155.96000000000001
 30
0.0
 11
113.586
 21
157.29300000000001
 31
0.0
  0
LINE
  5
610
  8
0
 62
     7
 10
100.9889999999999
 20
155.297
 30
0.0
 11
113.6549999999999
 21
156.631
 31
0.0
  0
ARC
  5
611
  8
0
 62
     7
 10
113.6065199999999
 20
153.6399759999999
 30
0.0
 40
0.346363
 50
278.06396100000001
 51
3.9106990000000001
  0
ARC
  5
612
  8
0
 62
     7
 10
113.6092019999999
 20
153.61468899999991
 30
0.0
 40
0.346346
 50
8.1183420000000002
 51
93.921349000000006
  0
LINE
  5
613
  8
0
 62
     7
 10
105.937
 20
153.155
 30
0.0
 11
113.586
 21
153.96000000000001
 31
0.0
  0
LINE
  5
614
  8
0
 62
     7
 10
107.3639999999999
 20
152.63499999999991
 30
0.0
 11
113.6549999999999
 21
153.29699999999991
 31
0.0
  0
ARC
  5
615
  8
0
 62
     7
 10
113.4538269999999
 20
171.061699
 30
0.0
 40
0.500145
 50
89.990132999999986
 51
179.99010399999989
  0
LINE
  5
616
  8
0
 62
     7
 10
112.95399999999989
 20
171.06200000000001
 30
0.0
 11
112.95399999999989
 21
159.72799999999989
 31
0.0
  0
LINE
  5
617
  8
0
 62
     7
 10
107.28699999999991
 20
171.56200000000001
 30
0.0
 11
113.587
 21
171.56200000000001
 31
0.0
  0
ARC
  5
618
  8
0
 62
     7
 10
113.5620779999999
 20
172.253648
 30
0.0
 40
0.692249
 50
272.054419
 51
357.91598799999991
  0
LINE
  5
619
  8
0
 62
     7
 10
114.25399999999991
 20
175.56200000000001
 30
0.0
 11
114.25399999999991
 21
172.22799999999989
 31
0.0
  0
LINE
  5
61A
  8
0
 62
     7
 10
115.28700000000001
 20
170.62899999999999
 30
0.0
 11
116.53700000000001
 21
170.62899999999999
 31
0.0
  0
LINE
  5
61B
  8
0
 62
     7
 10
113.587
 20
169.6279999999999
 30
0.0
 11
116.53700000000001
 21
169.6279999999999
 31
0.0
  0
ARC
  5
61C
  8
0
 62
     7
 10
114.864611
 20
175.21660800000001
 30
0.0
 40
0.34538
 50
2.9142209999999991
 51
88.100882999999996
  0
LINE
  5
61D
  8
0
 62
     7
 10
115.28700000000001
 20
170.62899999999999
 30
0.0
 11
115.20999999999989
 21
175.23400000000001
 31
0.0
  0
LINE
  5
61E
  8
0
 62
     7
 10
107.28699999999991
 20
175.56200000000001
 30
0.0
 11
114.876
 21
175.56200000000001
 31
0.0
  0
ARC
  5
61F
  8
0
 62
     7
 10
113.24146399999989
 20
160.07378799999989
 30
0.0
 40
0.345635
 50
272.09441800000002
 51
358.02409399999988
  0
LINE
  5
620
  8
0
 62
     7
 10
113.587
 20
169.6279999999999
 30
0.0
 11
113.587
 21
160.06200000000001
 31
0.0
  0
LINE
  5
621
  8
0
 62
     7
 10
107.28699999999991
 20
159.72799999999989
 30
0.0
 11
113.25399999999991
 21
159.72799999999989
 31
0.0
  0
LINE
  5
622
  8
0
 62
     7
 10
116.53700000000001
 20
170.62899999999999
 30
0.0
 11
116.53700000000001
 21
169.6279999999999
 31
0.0
  0
LINE
  5
623
  8
0
 62
     7
 10
117.321
 20
178.06200000000001
 30
0.0
 11
118.554
 21
178.06200000000001
 31
0.0
  0
ARC
  5
624
  8
0
 62
     7
 10
114.150184
 20
172.48735300000001
 30
0.0
 40
2.1357859999999991
 50
52.953288000000001
 51
57.828194000000003
  0
LINE
  5
625
  8
0
 62
     7
 10
115.28700000000001
 20
170.62899999999999
 30
0.0
 11
115.28700000000001
 21
174.2949999999999
 31
0.0
  0
LINE
  5
626
  8
0
 62
     7
 10
116.45399999999989
 20
170.62899999999999
 30
0.0
 11
116.45399999999989
 21
171.56200000000001
 31
0.0
  0
LINE
  5
627
  8
0
 62
     7
 10
103.73699999999999
 20
168.96199999999999
 30
0.0
 11
107.28699999999991
 21
168.96199999999999
 31
0.0
  0
LINE
  5
628
  8
0
 62
     7
 10
96.020600000000016
 20
168.96199999999999
 30
0.0
 11
101.767
 21
168.96199999999999
 31
0.0
  0
ARC
  5
629
  8
0
 62
     7
 10
102.82424
 20
168.98737999999989
 30
0.0
 40
0.6926540000000001
 50
182.10097099999999
 51
267.913858
  0
LINE
  5
62A
  8
0
 62
     7
 10
102.13200000000001
 20
178.06200000000001
 30
0.0
 11
102.13200000000001
 21
168.96199999999999
 31
0.0
  0
ARC
  5
62B
  8
0
 62
     7
 10
103.977515
 20
168.96172799999999
 30
0.0
 40
0.666544
 50
179.97775999999999
 51
269.97780899999992
  0
LINE
  5
62C
  8
0
 62
     7
 10
103.31100000000001
 20
178.06200000000001
 30
0.0
 11
103.31100000000001
 21
168.96199999999999
 31
0.0
  0
LINE
  5
62D
  8
0
 62
     7
 10
96.020600000000016
 20
178.06200000000001
 30
0.0
 11
107.28699999999991
 21
178.06200000000001
 31
0.0
  0
LINE
  5
62E
  8
0
 62
     7
 10
96.020600000000016
 20
178.06200000000001
 30
0.0
 11
96.020600000000016
 21
168.96199999999999
 31
0.0
  0
LINE
  5
62F
  8
0
 62
     7
 10
96.687200000000004
 20
168.2949999999999
 30
0.0
 11
107.28699999999991
 21
168.2949999999999
 31
0.0
  0
ARC
  5
630
  8
0
 62
     7
 10
96.687302000000003
 20
168.96190000000001
 30
0.0
 40
0.666716
 50
179.992569
 51
269.99261799999988
  0
LINE
  5
631
  8
0
 62
     7
 10
117.321
 20
178.06200000000001
 30
0.0
 11
117.321
 21
170.12899999999999
 31
0.0
  0
LINE
  5
632
  8
0
 62
     7
 10
113.587
 20
169.6279999999999
 30
0.0
 11
116.81999999999989
 21
169.6279999999999
 31
0.0
  0
LINE
  5
633
  8
0
 62
     7
 10
116.81999999999989
 20
169.6279999999999
 30
0.0
 11
117.321
 21
170.12899999999999
 31
0.0
  0
LINE
  5
634
  8
0
 62
     7
 10
115.4039999999999
 20
169.6279999999999
 30
0.0
 11
115.4039999999999
 21
168.2949999999999
 31
0.0
  0
LINE
  5
635
  8
0
 62
     7
 10
118.554
 20
178.06200000000001
 30
0.0
 11
118.554
 21
168.96199999999999
 31
0.0
  0
ARC
  5
636
  8
0
 62
     7
 10
117.86203500000001
 20
168.98722000000001
 30
0.0
 40
0.6924890000000001
 50
272.07343300000002
 51
357.91177799999991
  0
LINE
  5
637
  8
0
 62
     7
 10
113.75399999999991
 20
168.2949999999999
 30
0.0
 11
117.887
 21
168.2949999999999
 31
0.0
  0
TEXT
  5
638
  8
_________2
 62
     7
 10
142.91342499999999
 20
30.627400000000002
 30
0.0
 40
3.9357000000000002
  1
CET538
 41
0.5
 72
     1
 11
148.489
 21
30.627400000000002
 31
0.0
  0
TEXT
  5
639
  8
_________2
 62
     7
 10
142.91342499999999
 20
20.6266
 30
0.0
 40
3.9357000000000002
  1
CET538
 41
0.5
 72
     1
 11
148.489
 21
20.6266
 31
0.0
  0
TEXT
  5
63A
  8
_________2
 62
     7
 10
29.525700000000001
 20
22.226900000000001
 30
0.0
 40
3.9357000000000002
  1
シングルシンク用
 41
0.5
  0
LINE
  5
63B
  8
_________2
 62
     7
 10
210.24000000000001
 20
148.93100000000001
 30
0.0
 11
188.49000000000001
 21
148.93100000000001
 31
0.0
  0
LINE
  5
63C
  8
_________2
 62
     7
 10
105.2389999999999
 20
17.4282
 30
0.0
 11
105.2389999999999
 21
0.4482100000000001
 31
0.0
  0
LINE
  5
63D
  8
_________2
 62
     7
 10
105.2389999999999
 20
297.44999999999987
 30
0.0
 11
105.2389999999999
 21
280.42999999999989
 31
0.0
  0
LINE
  5
63E
  8
_________2
 62
     7
 10
21.988499999999991
 20
148.93100000000001
 30
0.0
 11
0.238058
 21
148.93100000000001
 31
0.0
  0
LINE
  5
63F
  8
_________2
 62
     7
 10
81.679900000000004
 20
51.323999999999998
 30
0.0
 11
79.493700000000004
 21
51.323999999999998
 31
0.0
  0
LINE
  5
640
  8
_________2
 62
     7
 10
82.172600000000017
 20
51.323999999999998
 30
0.0
 11
81.920400000000001
 21
51.323999999999998
 31
0.0
  0
LINE
  5
641
  8
_________2
 62
     7
 10
82.665199999999984
 20
51.323999999999998
 30
0.0
 11
85.590100000000007
 21
51.323999999999998
 31
0.0
  0
LINE
  5
642
  8
_________2
 62
     7
 10
82.172600000000017
 20
51.323999999999998
 30
0.0
 11
82.424800000000005
 21
51.323999999999998
 31
0.0
  0
LINE
  5
643
  8
_________2
 62
     7
 10
75.776399999999995
 20
51.323999999999998
 30
0.0
 11
73.589399999999998
 21
51.323999999999998
 31
0.0
  0
LINE
  5
644
  8
_________2
 62
     7
 10
76.2684
 20
51.323999999999998
 30
0.0
 11
76.016900000000007
 21
51.323999999999998
 31
0.0
  0
LINE
  5
645
  8
_________2
 62
     7
 10
76.2684
 20
51.816600000000001
 30
0.0
 11
76.2684
 21
54.003599999999999
 31
0.0
  0
LINE
  5
646
  8
_________2
 62
     7
 10
76.2684
 20
51.323999999999998
 30
0.0
 11
76.2684
 21
51.576500000000003
 31
0.0
  0
LINE
  5
647
  8
_________2
 62
     7
 10
76.76100000000001
 20
51.323999999999998
 30
0.0
 11
78.947999999999993
 21
51.323999999999998
 31
0.0
  0
LINE
  5
648
  8
_________2
 62
     7
 10
76.2684
 20
51.323999999999998
 30
0.0
 11
76.520499999999998
 21
51.323999999999998
 31
0.0
  0
LINE
  5
649
  8
_________2
 62
     7
 10
76.2684
 20
50.832000000000001
 30
0.0
 11
76.2684
 21
48.645400000000002
 31
0.0
  0
LINE
  5
64A
  8
_________2
 62
     7
 10
76.2684
 20
51.323999999999998
 30
0.0
 11
76.2684
 21
51.072499999999998
 31
0.0
  0
LINE
  5
64B
  8
_________2
 62
     7
 10
79.979399999999984
 20
50.104399999999998
 30
0.0
 11
85.157399999999996
 21
49.239699999999999
 31
0.0
  0
LINE
  5
64C
  8
_________2
 62
     7
 10
79.979399999999984
 20
52.543900000000001
 30
0.0
 11
85.157399999999996
 21
53.409300000000002
 31
0.0
  0
LINE
  5
64D
  8
_________2
 62
     7
 10
85.157399999999996
 20
49.239699999999999
 30
0.0
 11
85.157399999999996
 21
53.409300000000002
 31
0.0
  0
LINE
  5
64E
  8
_________2
 62
     7
 10
79.979399999999984
 20
50.104399999999998
 30
0.0
 11
79.979399999999984
 21
52.543900000000001
 31
0.0
  0
ARC
  5
64F
  8
_________2
 62
     7
 10
76.221766000000002
 20
51.277037
 30
0.0
 40
1.267714
 50
2.1220840000000001
 51
87.894083999999992
  0
ARC
  5
650
  8
_________2
 62
     7
 10
76.315297000000001
 20
51.277389999999997
 30
0.0
 40
1.267374999999999
 50
92.122849999999985
 51
177.893304
  0
ARC
  5
651
  8
_________2
 62
     7
 10
76.315273000000005
 20
51.370902000000001
 30
0.0
 40
1.267363
 50
182.12181499999991
 51
267.87821400000001
  0
ARC
  5
652
  8
_________2
 62
     7
 10
76.221461000000005
 20
51.371583999999999
 30
0.0
 40
1.2680439999999991
 50
272.11916400000001
 51
357.84848499999993
  0
ARC
  5
653
  8
_________2
 62
     7
 10
76.187981999999991
 20
51.243968000000002
 30
0.0
 40
2.1668310000000002
 50
2.1161439999999989
 51
87.874379000000005
  0
ARC
  5
654
  8
_________2
 62
     7
 10
76.348411999999996
 20
51.244990000000001
 30
0.0
 40
2.1657980000000001
 50
92.118487999999999
 51
177.90988599999989
  0
ARC
  5
655
  8
_________2
 62
     7
 10
76.348354
 20
51.403983000000011
 30
0.0
 40
2.1657779999999991
 50
182.11700400000001
 51
267.88302499999992
  0
ARC
  5
656
  8
_________2
 62
     7
 10
76.188378999999983
 20
51.404665999999992
 30
0.0
 40
2.1664590000000001
 50
272.11546800000002
 51
357.86560400000002
  0
TEXT
  5
657
  8
_________2
 62
     7
 10
109.5439999999999
 20
23.198699999999992
 30
0.0
 40
3.0923400000000001
  1
図番
 41
0.5
  0
LINE
  5
658
  8
_________2
 62
     7
 10
108.4889999999999
 20
27.428000000000001
 30
0.0
 11
188.49000000000001
 21
27.428000000000001
 31
0.0
  0
TEXT
  5
659
  8
_________2
 62
     7
 10
109.5439999999999
 20
33.198500000000003
 30
0.0
 40
3.0923400000000001
  1
品番
 41
0.5
  0
TEXT
  5
65A
  8
_________2
 62
     7
 10
109.5439999999999
 20
53.337699999999998
 30
0.0
 40
3.0923400000000001
  1
名称
 41
0.5
  0
TEXT
  5
65B
  8
_________2
 62
     7
 10
96.784158333333338
 20
48.341500000000011
 30
0.0
 40
3.6545800000000002
  1
mm
 41
0.5
 72
     1
 11
98.306899999999999
 21
48.341500000000011
 31
0.0
  0
TEXT
  5
65C
  8
_________2
 62
     7
 10
90.582099999999997
 20
53.337699999999998
 30
0.0
 40
3.0923400000000001
  1
単位
 41
0.5
  0
TEXT
  5
65D
  8
_________2
 62
     7
 10
90.582099999999997
 20
40.930100000000003
 30
0.0
 40
3.0923400000000001
  1
尺度
 41
0.5
  0
TEXT
  5
65E
  8
_________2
 62
     7
 10
95.487858666666668
 20
34.73749999999999
 30
0.0
 40
3.6545800000000002
  1
1 ： 3
 41
0.5
 72
     1
 11
98.898799999999994
 21
34.73749999999999
 31
0.0
  0
TEXT
  5
65F
  8
_________2
 62
     7
 10
114.11799999999999
 20
45.7453
 30
0.0
 40
3.9357000000000002
  1
排水金具（ジャバラ式）
 41
0.5
  0
TEXT
  5
660
  8
_________2
 62
     7
 10
44.364200333333329
 20
35.122599999999991
 30
0.0
 40
3.6545800000000002
  1
早川
 41
0.5
 72
     1
 11
46.252400000000002
 21
35.122599999999991
 31
0.0
  0
TEXT
  5
661
  8
_________2
 62
     7
 10
25.729290666666671
 20
35.122599999999991
 30
0.0
 40
3.6545800000000002
  1
菅原
 41
0.5
 72
     1
 11
27.6784
 21
35.122599999999991
 31
0.0
  0
TEXT
  5
662
  8
_________2
 62
     7
 10
72.724699999999999
 20
34.73749999999999
 30
0.0
 40
3.6545800000000002
  1
12.11.29
 41
0.5
  0
TEXT
  5
663
  8
_________2
 62
     7
 10
71.531999999999996
 20
40.930100000000003
 30
0.0
 40
3.0923400000000001
  1
日付
 41
0.5
  0
TEXT
  5
664
  8
_________2
 62
     7
 10
34.578299999999992
 20
40.930100000000003
 30
0.0
 40
3.0923400000000001
  1
検図
 41
0.5
  0
TEXT
  5
665
  8
_________2
 62
     7
 10
22.960000000000001
 20
26.730699999999999
 30
0.0
 40
3.0923400000000001
  1
備考
 41
0.5
  0
TEXT
  5
666
  8
_________2
 62
     7
 10
22.960000000000001
 20
40.930100000000003
 30
0.0
 40
3.0923400000000001
  1
製図
 41
0.5
  0
TEXT
  5
667
  8
_________2
 62
     7
 10
28.727365333333339
 20
49.456000000000003
 30
0.0
 40
4.4979399999999989
  1
セラトレーディング株式会社
 41
0.5
 72
     1
 11
46.119399999999992
 21
49.456000000000003
 31
0.0
  0
LINE
  5
668
  8
_________2
 62
     7
 10
188.49000000000001
 20
17.4282
 30
0.0
 11
21.988499999999991
 21
17.4282
 31
0.0
  0
LINE
  5
669
  8
_________2
 62
     7
 10
21.988499999999991
 20
17.4282
 30
0.0
 11
21.988499999999991
 21
280.42999999999989
 31
0.0
  0
LINE
  5
66A
  8
_________2
 62
     7
 10
21.988499999999991
 20
280.42999999999989
 30
0.0
 11
188.49000000000001
 21
280.42999999999989
 31
0.0
  0
LINE
  5
66B
  8
_________2
 62
     7
 10
188.49000000000001
 20
280.42999999999989
 30
0.0
 11
188.49000000000001
 21
17.4282
 31
0.0
  0
LINE
  5
66C
  8
_________2
 62
     7
 10
70.488799999999998
 20
30.9285
 30
0.0
 11
70.488799999999998
 21
57.428400000000011
 31
0.0
  0
LINE
  5
66D
  8
_________2
 62
     7
 10
89.488600000000005
 20
30.9285
 30
0.0
 11
89.488600000000005
 21
57.428400000000011
 31
0.0
  0
LINE
  5
66E
  8
_________2
 62
     7
 10
108.4889999999999
 20
17.4282
 30
0.0
 11
108.4889999999999
 21
57.428400000000011
 31
0.0
  0
LINE
  5
66F
  8
_________2
 62
     7
 10
33.488300000000002
 20
30.9285
 30
0.0
 11
33.488300000000002
 21
44.928499999999993
 31
0.0
  0
LINE
  5
670
  8
_________2
 62
     7
 10
21.988499999999991
 20
30.9285
 30
0.0
 11
108.4889999999999
 21
30.9285
 31
0.0
  0
LINE
  5
671
  8
_________2
 62
     7
 10
21.988499999999991
 20
44.928499999999993
 30
0.0
 11
108.4889999999999
 21
44.928499999999993
 31
0.0
  0
LINE
  5
672
  8
_________2
 62
     7
 10
108.4889999999999
 20
37.427799999999991
 30
0.0
 11
188.49000000000001
 21
37.427799999999991
 31
0.0
  0
LINE
  5
673
  8
_________2
 62
     7
 10
21.988499999999991
 20
57.428400000000011
 30
0.0
 11
188.49000000000001
 21
57.428400000000011
 31
0.0
  0
ENDSEC
  0
EOF
