  0
SECTION
  2
HEADER
  9
$ACADVER
  1
AC1009
  9
$INSBASE
 10
0.0
 20
0.0
 30
0.0
  9
$EXTMIN
 10
-4.7008599999999987
 20
-21.070999999999991
 30
0.0
  9
$EXTMAX
 10
205.30099999999999
 20
275.93099999999993
 30
0.0
  9
$LIMMIN
 10
0.0
 20
0.0
  9
$LIMMAX
 10
12.0
 20
9.0
  9
$ORTHOMODE
 70
     0
  9
$REGENMODE
 70
     1
  9
$FILLMODE
 70
     1
  9
$QTEXTMODE
 70
     0
  9
$MIRRTEXT
 70
     1
  9
$DRAGMODE
 70
     2
  9
$LTSCALE
 40
1.0
  9
$OSMODE
 70
    37
  9
$ATTMODE
 70
     1
  9
$TEXTSIZE
 40
0.0
  9
$TRACEWID
 40
0.05
  9
$TEXTSTYLE
  7
STANDARD
  9
$CLAYER
  8
0
  9
$CELTYPE
  6
CONTINUOUS
  9
$CECOLOR
 62
   256
  9
$DIMSCALE
 40
1.0
  9
$DIMASZ
 40
0.18
  9
$DIMEXO
 40
0.0625
  9
$DIMDLI
 40
0.38
  9
$DIMRND
 40
0.0
  9
$DIMDLE
 40
0.0
  9
$DIMEXE
 40
0.18
  9
$DIMTP
 40
0.0
  9
$DIMTM
 40
0.0
  9
$DIMTXT
 40
0.18
  9
$DIMCEN
 40
0.09
  9
$DIMTSZ
 40
0.0
  9
$DIMTOL
 70
     0
  9
$DIMLIM
 70
     0
  9
$DIMTIH
 70
     1
  9
$DIMTOH
 70
     1
  9
$DIMSE1
 70
     0
  9
$DIMSE2
 70
     0
  9
$DIMTAD
 70
     0
  9
$DIMZIN
 70
     0
  9
$DIMBLK
  1

  9
$DIMASO
 70
     1
  9
$DIMSHO
 70
     1
  9
$DIMPOST
  1

  9
$DIMAPOST
  1

  9
$DIMALT
 70
     0
  9
$DIMALTD
 70
     2
  9
$DIMALTF
 40
25.399999999999999
  9
$DIMLFAC
 40
1.0
  9
$DIMTOFL
 70
     0
  9
$DIMTVP
 40
0.0
  9
$DIMTIX
 70
     0
  9
$DIMSOXD
 70
     0
  9
$DIMSAH
 70
     0
  9
$DIMBLK1
  1

  9
$DIMBLK2
  1

  9
$DIMSTYLE
  2
STANDARD
  9
$DIMCLRD
 70
     0
  9
$DIMCLRE
 70
     0
  9
$DIMCLRT
 70
     0
  9
$DIMTFAC
 40
1.0
  9
$DIMGAP
 40
0.09
  9
$LUNITS
 70
     2
  9
$LUPREC
 70
     4
  9
$SKETCHINC
 40
0.1
  9
$FILLETRAD
 40
0.0
  9
$AUNITS
 70
     0
  9
$AUPREC
 70
     0
  9
$MENU
  1
.
  9
$ELEVATION
 40
0.0
  9
$PELEVATION
 40
0.0
  9
$THICKNESS
 40
0.0
  9
$LIMCHECK
 70
     0
  9
$BLIPMODE
 70
     0
  9
$CHAMFERA
 40
0.0
  9
$CHAMFERB
 40
0.0
  9
$SKPOLY
 70
     0
  9
$TDCREATE
 40
2444972.375
  9
$TDUPDATE
 40
2454463.2849909491
  9
$TDINDWG
 40
0.0007543056
  9
$TDUSRTIMER
 40
0.0007543056
  9
$USRTIMER
 70
     1
  9
$ANGBASE
 50
0.0
  9
$ANGDIR
 70
     0
  9
$PDMODE
 70
     0
  9
$PDSIZE
 40
0.0
  9
$PLINEWID
 40
0.0
  9
$COORDS
 70
     1
  9
$SPLFRAME
 70
     0
  9
$SPLINETYPE
 70
     6
  9
$SPLINESEGS
 70
     8
  9
$ATTDIA
 70
     0
  9
$ATTREQ
 70
     1
  9
$HANDLING
 70
     1
  9
$HANDSEED
  5
2A3
  9
$SURFTAB1
 70
     6
  9
$SURFTAB2
 70
     6
  9
$SURFTYPE
 70
     6
  9
$SURFU
 70
     6
  9
$SURFV
 70
     6
  9
$UCSNAME
  2

  9
$UCSORG
 10
0.0
 20
0.0
 30
0.0
  9
$UCSXDIR
 10
1.0
 20
0.0
 30
0.0
  9
$UCSYDIR
 10
0.0
 20
1.0
 30
0.0
  9
$PUCSNAME
  2

  9
$PUCSORG
 10
0.0
 20
0.0
 30
0.0
  9
$PUCSXDIR
 10
1.0
 20
0.0
 30
0.0
  9
$PUCSYDIR
 10
0.0
 20
1.0
 30
0.0
  9
$USERI1
 70
     0
  9
$USERI2
 70
     0
  9
$USERI3
 70
     0
  9
$USERI4
 70
     0
  9
$USERI5
 70
     0
  9
$USERR1
 40
0.0
  9
$USERR2
 40
0.0
  9
$USERR3
 40
0.0
  9
$USERR4
 40
0.0
  9
$USERR5
 40
0.0
  9
$WORLDVIEW
 70
     1
  9
$SHADEDGE
 70
     3
  9
$SHADEDIF
 70
    70
  9
$TILEMODE
 70
     1
  9
$MAXACTVP
 70
    48
  9
$PLIMCHECK
 70
     0
  9
$PEXTMIN
 10
1.0000000000000000E+020
 20
1.0000000000000000E+020
 30
1.0000000000000000E+020
  9
$PEXTMAX
 10
-1.0000000000000000E+020
 20
-1.0000000000000000E+020
 30
-1.0000000000000000E+020
  9
$PLIMMIN
 10
0.0
 20
0.0
  9
$PLIMMAX
 10
12.0
 20
9.0
  9
$UNITMODE
 70
     0
  9
$VISRETAIN
 70
     1
  9
$PLINEGEN
 70
     0
  9
$PSLTSCALE
 70
     1
  0
ENDSEC
  0
SECTION
  2
TABLES
  0
TABLE
  2
VPORT
 70
     2
  0
VPORT
  2
*ACTIVE
 70
     0
 10
0.0
 20
0.0
 11
1.0
 21
1.0
 12
195.35142365652419
 22
127.42999999999989
 13
0.0
 23
0.0
 14
1.0
 24
1.0
 15
0.0
 25
0.0
 16
0.0
 26
0.0
 36
1.0
 17
0.0
 27
0.0
 37
0.0
 40
299.34059842519679
 41
2.2894736842105261
 42
50.0
 43
0.0
 44
0.0
 50
0.0
 51
0.0
 71
     0
 72
   100
 73
     1
 74
     1
 75
     0
 76
     0
 77
     0
 78
     0
  0
ENDTAB
  0
TABLE
  2
LTYPE
 70
     2
  0
LTYPE
  2
CONTINUOUS
 70
     0
  3
Solid line
 72
    65
 73
     0
 40
0.0
  0
LTYPE
  2
AIGENLINE001
 70
     0
  3
generate AI->DXF Converter
 72
    65
 73
     4
 40
5.8561449999999988
 49
3.5278
 49
-0.776115
 49
0.776115
 49
-0.776115
  0
ENDTAB
  0
TABLE
  2
LAYER
 70
     2
  0
LAYER
  2
0
 70
     0
 62
     7
  6
CONTINUOUS
  0
LAYER
  2
_________2
 70
     0
 62
     7
  6
CONTINUOUS
  0
ENDTAB
  0
TABLE
  2
STYLE
 70
     1
  0
STYLE
  2
STANDARD
 70
     0
 40
0.0
 41
0.0
 50
0.0
 71
     0
 42
0.0
  3
TXT
  4
EXTFONT.SHX
  0
ENDTAB
  0
TABLE
  2
VIEW
 70
     0
  0
ENDTAB
  0
TABLE
  2
UCS
 70
     0
  0
ENDTAB
  0
TABLE
  2
APPID
 70
     1
  0
APPID
  2
ACAD
 70
     0
  0
ENDTAB
  0
TABLE
  2
DIMSTYLE
 70
     1
  0
DIMSTYLE
  2
STANDARD
 70
     0
  3

  4

  5

  6

  7

 40
1.0
 41
0.18
 42
0.0625
 43
0.38
 44
0.18
 45
0.0
 46
0.0
 47
0.0
 48
0.0
140
0.18
141
0.09
142
0.0
143
25.399999999999999
144
1.0
145
0.0
146
1.0
147
0.09
 71
     0
 72
     0
 73
     1
 74
     1
 75
     0
 76
     0
 77
     0
 78
     0
170
     0
171
     2
172
     0
173
     0
174
     0
175
     0
176
     0
177
     0
178
     0
  0
ENDTAB
  0
ENDSEC
  0
SECTION
  2
BLOCKS
  0
BLOCK
  8
0
  2
$MODEL_SPACE
 70
     0
 10
0.0
 20
0.0
 30
0.0
  3
$MODEL_SPACE
  1

  0
ENDBLK
  5
1A
  8
0
  0
BLOCK
 67
     1
  8
0
  2
$PAPER_SPACE
 70
     0
 10
0.0
 20
0.0
 30
0.0
  3
$PAPER_SPACE
  1

  0
ENDBLK
  5
17
 67
     1
  8
0
  0
ENDSEC
  0
SECTION
  2
ENTITIES
  0
TEXT
  5
22
  8
0
 62
     7
 10
99.726809000000003
 20
209.13200000000001
 30
0.0
 40
3.0923400000000001
  1
G1 1/4
 41
0.5
 72
     1
 11
103.2829999999999
 21
209.13200000000001
 31
0.0
  0
TEXT
  5
23
  8
0
 62
     7
 10
126.4305249999999
 20
153.96700000000001
 30
0.0
 40
3.0923400000000001
  1
82
 41
0.5
 72
     1
 11
127.71899999999999
 21
153.96700000000001
 31
0.0
  0
TEXT
  5
24
  8
0
 62
     7
 10
110.08652499999999
 20
153.85299999999989
 30
0.0
 40
3.0923400000000001
  1
82
 41
0.5
 72
     1
 11
111.375
 21
153.85299999999989
 31
0.0
  0
TEXT
  5
25
  8
0
 62
     7
 10
152.732
 20
117.63943999999999
 30
0.0
 40
3.0923400000000001
  1
675
 50
90.0
 41
0.5
 72
     1
 11
152.732
 21
119.70099999999999
 31
0.0
  0
TEXT
  5
26
  8
0
 62
     7
 10
146.499
 20
174.319525
 30
0.0
 40
3.0923400000000001
  1
98
 50
90.0
 41
0.5
 72
     1
 11
146.499
 21
175.608
 31
0.0
  0
TEXT
  5
27
  8
0
 62
     7
 10
134.06044
 20
40.654799999999987
 30
0.0
 40
3.0923400000000001
  1
%%c75
 41
0.5
 72
     1
 11
136.12200000000001
 21
40.654799999999987
 31
0.0
  0
TEXT
  5
28
  8
0
 62
     7
 10
133.95443999999989
 20
45.702199999999991
 30
0.0
 40
3.0923400000000001
  1
%%c32
 41
0.5
 72
     1
 11
136.01599999999999
 21
45.702199999999991
 31
0.0
  0
TEXT
  5
29
  8
0
 62
     7
 10
120.3629999999999
 20
59.471024999999997
 30
0.0
 40
3.0923400000000001
  1
32
 50
90.0
 41
0.5
 72
     1
 11
120.3629999999999
 21
60.759500000000003
 31
0.0
  0
TEXT
  5
2A
  8
0
 62
     7
 10
91.644599999999997
 20
178.53287299999991
 30
0.0
 40
3.0923400000000001
  1
128～200
 50
90.0
 41
0.5
 72
     1
 11
91.644599999999997
 21
183.32599999999991
 31
0.0
  0
ARC
  5
2B
  8
0
 62
     7
 10
68.941912000000002
 20
246.67875699999999
 30
0.0
 40
7.6820110000000001
 50
180.84225900000001
 51
243.884355
  0
ARC
  5
2C
  8
0
 62
     7
 10
68.760751999999997
 20
246.5658359999999
 30
0.0
 40
7.5000220000000004
 50
90.0
 51
179.99996999999991
  0
ARC
  5
2D
  8
0
 62
     7
 10
68.760750000000002
 20
246.5658359999999
 30
0.0
 40
7.5000220000000004
 50
0.00001
 51
89.999980000000008
  0
ARC
  5
2E
  8
0
 62
     7
 10
68.584810000000004
 20
246.67536299999989
 30
0.0
 40
7.6767429999999992
 50
296.09298599999988
 51
359.18251499999991
  0
ARC
  5
2F
  8
0
 62
     7
 10
68.922563999999994
 20
246.66288999999989
 30
0.0
 40
7.1657039999999981
 50
180.776061
 51
242.01913999999999
  0
ARC
  5
30
  8
0
 62
     7
 10
68.760751999999997
 20
246.5658359999999
 30
0.0
 40
7.0032360000000002
 50
90.0
 51
179.99996999999991
  0
ARC
  5
31
  8
0
 62
     7
 10
68.760750000000002
 20
246.5658359999999
 30
0.0
 40
7.0032360000000002
 50
0.00001
 51
89.999980000000008
  0
ARC
  5
32
  8
0
 62
     7
 10
68.605704000000003
 20
246.6589029999999
 30
0.0
 40
7.1588869999999991
 50
297.95792399999999
 51
359.25512900000001
  0
ARC
  5
33
  8
0
 62
     7
 10
68.780422999999999
 20
246.572216
 30
0.0
 40
4.039267999999999
 50
180.090506
 51
217.134545
  0
ARC
  5
34
  8
0
 62
     7
 10
68.760838000000007
 20
246.565922
 30
0.0
 40
4.0196769999999988
 50
90.001227999999969
 51
180.00123799999989
  0
ARC
  5
35
  8
0
 62
     7
 10
68.76057800000001
 20
246.56600800000001
 30
0.0
 40
4.0195910000000001
 50
359.99755499999992
 51
89.997524999999996
  0
ARC
  5
36
  8
0
 62
     7
 10
68.727271999999985
 20
246.57664
 30
0.0
 40
4.0529120000000001
 50
322.94221399999998
 51
359.84728200000001
  0
LINE
  5
37
  8
0
 62
     7
 10
65.238500000000002
 20
174.80500000000001
 30
0.0
 11
65.460999999999999
 21
174.23400000000001
 31
0.0
  0
LINE
  5
38
  8
0
 62
     7
 10
65.238500000000002
 20
174.80500000000001
 30
0.0
 11
65.238500000000002
 21
175.27799999999999
 31
0.0
  0
LINE
  5
39
  8
0
 62
     7
 10
65.560900000000004
 20
174.80500000000001
 30
0.0
 11
65.238500000000002
 21
174.80500000000001
 31
0.0
  0
LINE
  5
3A
  8
0
 62
     7
 10
65.560900000000004
 20
174.23400000000001
 30
0.0
 11
65.460999999999999
 21
174.23400000000001
 31
0.0
  0
LINE
  5
3B
  8
0
 62
     7
 10
72.283000000000001
 20
174.80500000000001
 30
0.0
 11
72.0608
 21
174.23400000000001
 31
0.0
  0
LINE
  5
3C
  8
0
 62
     7
 10
72.283000000000001
 20
174.80500000000001
 30
0.0
 11
72.283000000000001
 21
175.27799999999999
 31
0.0
  0
LINE
  5
3D
  8
0
 62
     7
 10
71.961100000000002
 20
174.80500000000001
 30
0.0
 11
72.283000000000001
 21
174.80500000000001
 31
0.0
  0
LINE
  5
3E
  8
0
 62
     7
 10
71.961100000000002
 20
174.23400000000001
 30
0.0
 11
72.0608
 21
174.23400000000001
 31
0.0
  0
LINE
  5
3F
  8
0
 62
     7
 10
71.961100000000002
 20
174.16
 30
0.0
 11
71.961100000000002
 21
174.23400000000001
 31
0.0
  0
LINE
  5
40
  8
0
 62
     7
 10
65.560900000000004
 20
174.16
 30
0.0
 11
65.560900000000004
 21
174.23400000000001
 31
0.0
  0
ARC
  5
41
  8
0
 62
     7
 10
72.561356000000004
 20
177.294521
 30
0.0
 40
1.8248799999999989
 50
269.963662
 51
278.11200200000002
  0
ARC
  5
42
  8
0
 62
     7
 10
72.734207999999995
 20
176.012024
 30
0.0
 40
0.530917
 50
279.17492199999998
 51
300.09528999999992
  0
ARC
  5
43
  8
0
 62
     7
 10
71.575008999999994
 20
177.67522199999991
 30
0.0
 40
2.556759
 50
303.88385
 51
310.98765200000003
  0
ARC
  5
44
  8
0
 62
     7
 10
72.557220999999984
 20
177.25970499999991
 30
0.0
 40
1.790066999999999
 50
261.70078100000001
 51
270.09530099999989
  0
ARC
  5
45
  8
0
 62
     7
 10
72.406171000000001
 20
176.08582999999999
 30
0.0
 40
0.6070100000000001
 50
222.8420899999999
 51
259.815268
  0
LINE
  5
46
  8
0
 62
     7
 10
72.893699999999995
 20
175.27799999999999
 30
0.0
 11
73.361199999999997
 21
175.745
 31
0.0
  0
LINE
  5
47
  8
0
 62
     7
 10
71.961100000000002
 20
175.27799999999999
 30
0.0
 11
72.893699999999995
 21
175.27799999999999
 31
0.0
  0
ARC
  5
48
  8
0
 62
     7
 10
64.960493
 20
177.29349499999989
 30
0.0
 40
1.8238540000000001
 50
261.88573300000002
 51
270.03629699999999
  0
ARC
  5
49
  8
0
 62
     7
 10
64.787773999999999
 20
176.01226
 30
0.0
 40
0.5311590000000001
 50
239.91033999999999
 51
260.82271299999991
  0
ARC
  5
4A
  8
0
 62
     7
 10
65.945249000000004
 20
177.673586
 30
0.0
 40
2.5544829999999998
 50
229.01517899999999
 51
236.12637699999999
  0
ARC
  5
4B
  8
0
 62
     7
 10
65.019167999999993
 20
176.485288
 30
0.0
 40
1.017274999999999
 50
266.75857300000001
 51
286.51720999999998
  0
ARC
  5
4C
  8
0
 62
     7
 10
65.074443000000002
 20
176.14933999999991
 30
0.0
 40
0.680804
 50
290.0977509999999
 51
315.60806700000001
  0
LINE
  5
4D
  8
0
 62
     7
 10
64.628200000000007
 20
175.27799999999999
 30
0.0
 11
64.160799999999995
 21
175.745
 31
0.0
  0
LINE
  5
4E
  8
0
 62
     7
 10
65.560900000000004
 20
175.27799999999999
 30
0.0
 11
64.628200000000007
 21
175.27799999999999
 31
0.0
  0
ARC
  5
4F
  8
0
 62
     7
 10
72.561356000000004
 20
175.343548
 30
0.0
 40
1.8248799999999989
 50
81.887997999999996
 51
90.036338000000015
  0
ARC
  5
50
  8
0
 62
     7
 10
72.734207999999995
 20
176.626045
 30
0.0
 40
0.530917
 50
59.904710000000001
 51
80.825078000000005
  0
ARC
  5
51
  8
0
 62
     7
 10
71.575008999999994
 20
174.96284700000001
 30
0.0
 40
2.556759
 50
49.012347999999989
 51
56.116149999999998
  0
ARC
  5
52
  8
0
 62
     7
 10
72.557256999999993
 20
175.36659499999999
 30
0.0
 40
1.8018359999999991
 50
89.906467000000006
 51
98.245792000000023
  0
ARC
  5
53
  8
0
 62
     7
 10
72.405418999999995
 20
176.552458
 30
0.0
 40
0.606779
 50
100.1164909999999
 51
137.07701499999999
  0
LINE
  5
54
  8
0
 62
     7
 10
72.893699999999995
 20
177.36000000000001
 30
0.0
 11
73.361199999999997
 21
176.893
 31
0.0
  0
LINE
  5
55
  8
0
 62
     7
 10
71.961100000000002
 20
177.36000000000001
 30
0.0
 11
72.893699999999995
 21
177.36000000000001
 31
0.0
  0
ARC
  5
56
  8
0
 62
     7
 10
64.960493
 20
175.34457399999999
 30
0.0
 40
1.8238540000000001
 50
89.963702999999995
 51
98.114267000000012
  0
ARC
  5
57
  8
0
 62
     7
 10
64.787773999999999
 20
176.625809
 30
0.0
 40
0.5311590000000001
 50
99.177286999999993
 51
120.08965999999999
  0
ARC
  5
58
  8
0
 62
     7
 10
65.945249000000004
 20
174.964483
 30
0.0
 40
2.5544829999999998
 50
123.87362299999999
 51
130.9848209999999
  0
ARC
  5
59
  8
0
 62
     7
 10
65.019542000000001
 20
176.152016
 30
0.0
 40
1.018059
 50
73.476722999999993
 51
93.25998100000001
  0
ARC
  5
5A
  8
0
 62
     7
 10
65.074274000000003
 20
176.48772700000001
 30
0.0
 40
0.682003
 50
44.350320999999987
 51
69.861333999999985
  0
LINE
  5
5B
  8
0
 62
     7
 10
64.628200000000007
 20
177.36000000000001
 30
0.0
 11
64.160799999999995
 21
176.893
 31
0.0
  0
LINE
  5
5C
  8
0
 62
     7
 10
73.251999999999995
 20
175.745
 30
0.0
 11
73.251999999999995
 21
176.893
 31
0.0
  0
LINE
  5
5D
  8
0
 62
     7
 10
64.269900000000007
 20
175.745
 30
0.0
 11
64.269900000000007
 21
176.893
 31
0.0
  0
LINE
  5
5E
  8
0
 62
     7
 10
64.160799999999995
 20
175.745
 30
0.0
 11
64.160799999999995
 21
176.893
 31
0.0
  0
LINE
  5
5F
  8
0
 62
     7
 10
73.361199999999997
 20
175.745
 30
0.0
 11
73.361199999999997
 21
176.893
 31
0.0
  0
LINE
  5
60
  8
0
 62
     7
 10
65.560900000000004
 20
177.36000000000001
 30
0.0
 11
64.628200000000007
 21
177.36000000000001
 31
0.0
  0
LINE
  5
61
  8
0
 62
     7
 10
73.361199999999997
 20
176.893
 30
0.0
 11
73.251999999999995
 21
176.893
 31
0.0
  0
LINE
  5
62
  8
0
 62
     7
 10
64.269900000000007
 20
176.893
 30
0.0
 11
64.160799999999995
 21
176.893
 31
0.0
  0
LINE
  5
63
  8
0
 62
     7
 10
73.361199999999997
 20
175.745
 30
0.0
 11
73.251999999999995
 21
175.745
 31
0.0
  0
LINE
  5
64
  8
0
 62
     7
 10
64.269900000000007
 20
175.745
 30
0.0
 11
64.160799999999995
 21
175.745
 31
0.0
  0
ARC
  5
65
  8
0
 62
     7
 10
68.760664000000006
 20
165.9605149999999
 30
0.0
 40
3.2004280000000001
 50
270.00156199999998
 51
0.001532
  0
ARC
  5
66
  8
0
 62
     7
 10
68.761094999999997
 20
165.96025499999999
 30
0.0
 40
3.2001689999999989
 50
179.9938019999999
 51
269.99385199999989
  0
LINE
  5
67
  8
0
 62
     7
 10
65.238500000000002
 20
185.03599999999989
 30
0.0
 11
65.460999999999999
 21
184.464
 31
0.0
  0
LINE
  5
68
  8
0
 62
     7
 10
65.238500000000002
 20
185.03599999999989
 30
0.0
 11
65.238500000000002
 21
185.50699999999989
 31
0.0
  0
LINE
  5
69
  8
0
 62
     7
 10
68.760800000000003
 20
185.03599999999989
 30
0.0
 11
65.238500000000002
 21
185.03599999999989
 31
0.0
  0
LINE
  5
6A
  8
0
 62
     7
 10
68.760800000000003
 20
184.464
 30
0.0
 11
65.460999999999999
 21
184.464
 31
0.0
  0
LINE
  5
6B
  8
0
 62
     7
 10
72.283000000000001
 20
185.03599999999989
 30
0.0
 11
72.0608
 21
184.464
 31
0.0
  0
LINE
  5
6C
  8
0
 62
     7
 10
72.283000000000001
 20
185.03599999999989
 30
0.0
 11
72.283000000000001
 21
185.50699999999989
 31
0.0
  0
LINE
  5
6D
  8
0
 62
     7
 10
68.760800000000003
 20
185.03599999999989
 30
0.0
 11
72.283000000000001
 21
185.03599999999989
 31
0.0
  0
LINE
  5
6E
  8
0
 62
     7
 10
68.760800000000003
 20
184.464
 30
0.0
 11
72.0608
 21
184.464
 31
0.0
  0
LINE
  5
6F
  8
0
 62
     7
 10
71.961100000000002
 20
184.3899999999999
 30
0.0
 11
71.961100000000002
 21
184.464
 31
0.0
  0
LINE
  5
70
  8
0
 62
     7
 10
65.560900000000004
 20
184.3899999999999
 30
0.0
 11
65.560900000000004
 21
184.464
 31
0.0
  0
ARC
  5
71
  8
0
 62
     7
 10
68.756191999999999
 20
189.63167300000001
 30
0.0
 40
3.9326199999999991
 50
270.06643600000001
 51
288.969717
  0
ARC
  5
72
  8
0
 62
     7
 10
69.819006000000002
 20
186.41985700000001
 30
0.0
 40
0.551128
 50
293.02400399999999
 51
306.24140899999992
  0
ARC
  5
73
  8
0
 62
     7
 10
72.561356000000004
 20
187.52393499999999
 30
0.0
 40
1.8248799999999989
 50
269.963662
 51
278.11200200000002
  0
ARC
  5
74
  8
0
 62
     7
 10
72.734360999999993
 20
186.240173
 30
0.0
 40
0.529643
 50
279.18044500000002
 51
300.15605499999992
  0
ARC
  5
75
  8
0
 62
     7
 10
71.582986000000005
 20
187.888666
 30
0.0
 40
2.5389560000000002
 50
303.93684000000002
 51
311.09836799999988
  0
ARC
  5
76
  8
0
 62
     7
 10
72.559043000000003
 20
187.52290899999991
 30
0.0
 40
1.8238540000000001
 50
261.88573300000002
 51
270.03629699999999
  0
ARC
  5
77
  8
0
 62
     7
 10
72.386172000000002
 20
186.240409
 30
0.0
 40
0.5298850000000001
 50
239.84958299999991
 51
260.81718599999999
  0
ARC
  5
78
  8
0
 62
     7
 10
73.535843
 20
187.887058
 30
0.0
 40
2.536713999999999
 50
228.90446499999999
 51
236.07339400000001
  0
LINE
  5
79
  8
0
 62
     7
 10
72.893699999999995
 20
185.50699999999989
 30
0.0
 11
73.361199999999997
 21
185.97499999999999
 31
0.0
  0
LINE
  5
7A
  8
0
 62
     7
 10
68.761300000000006
 20
185.50699999999989
 30
0.0
 11
72.893699999999995
 21
185.50699999999989
 31
0.0
  0
ARC
  5
7B
  8
0
 62
     7
 10
68.765827999999999
 20
189.63203100000001
 30
0.0
 40
3.9329789999999991
 50
251.03117599999999
 51
269.93358000000001
  0
ARC
  5
7C
  8
0
 62
     7
 10
67.702433999999997
 20
186.41863699999999
 30
0.0
 40
0.5498020000000001
 50
233.732077
 51
246.97609299999999
  0
ARC
  5
7D
  8
0
 62
     7
 10
64.960493
 20
187.52290899999991
 30
0.0
 40
1.8238540000000001
 50
261.88573300000002
 51
270.03629699999999
  0
ARC
  5
7E
  8
0
 62
     7
 10
64.787621000000001
 20
186.240409
 30
0.0
 40
0.5298850000000001
 50
239.84958299999991
 51
260.81718599999999
  0
ARC
  5
7F
  8
0
 62
     7
 10
65.937293000000011
 20
187.887058
 30
0.0
 40
2.536713999999999
 50
228.90446499999999
 51
236.07339400000001
  0
ARC
  5
80
  8
0
 62
     7
 10
64.962804000000006
 20
187.52463899999989
 30
0.0
 40
1.8255849999999989
 50
269.9637229999999
 51
278.110434
  0
ARC
  5
81
  8
0
 62
     7
 10
65.135843000000008
 20
186.2405929999999
 30
0.0
 40
0.5300600000000001
 50
279.17490699999991
 51
300.14329700000002
  0
ARC
  5
82
  8
0
 62
     7
 10
63.996606999999997
 20
187.87179499999999
 30
0.0
 40
2.518241999999999
 50
303.92401799999999
 51
311.14199999999988
  0
LINE
  5
83
  8
0
 62
     7
 10
64.628200000000007
 20
185.50699999999989
 30
0.0
 11
64.160799999999995
 21
185.97499999999999
 31
0.0
  0
LINE
  5
84
  8
0
 62
     7
 10
68.760800000000003
 20
185.50699999999989
 30
0.0
 11
64.628200000000007
 21
185.50699999999989
 31
0.0
  0
ARC
  5
85
  8
0
 62
     7
 10
68.756173000000004
 20
183.47377199999991
 30
0.0
 40
3.9247619999999999
 50
70.866748000000001
 51
89.933154999999985
  0
ARC
  5
86
  8
0
 62
     7
 10
69.827337999999997
 20
186.68916200000001
 30
0.0
 40
0.537538
 50
53.797890000000002
 51
66.395793000000012
  0
ARC
  5
87
  8
0
 62
     7
 10
72.561356000000004
 20
185.57365200000001
 30
0.0
 40
1.8248799999999989
 50
81.887997999999996
 51
90.036338000000015
  0
ARC
  5
88
  8
0
 62
     7
 10
72.734480000000005
 20
186.856988
 30
0.0
 40
0.530045
 50
59.884098999999999
 51
80.839662000000004
  0
ARC
  5
89
  8
0
 62
     7
 10
71.580534
 20
185.20004800000001
 30
0.0
 40
2.5477780000000001
 50
49.00143099999999
 51
56.130158999999999
  0
ARC
  5
8A
  8
0
 62
     7
 10
72.559043000000003
 20
185.57467800000001
 30
0.0
 40
1.8238540000000001
 50
89.963702999999995
 51
98.114267000000012
  0
ARC
  5
8B
  8
0
 62
     7
 10
72.386052000000007
 20
186.856752
 30
0.0
 40
0.530287
 50
99.162705000000031
 51
120.1102689999999
  0
ARC
  5
8C
  8
0
 62
     7
 10
73.538287999999994
 20
185.20167000000001
 30
0.0
 40
2.5455199999999998
 50
123.8596159999999
 51
130.99573699999999
  0
LINE
  5
8D
  8
0
 62
     7
 10
72.893699999999995
 20
187.59
 30
0.0
 11
73.361199999999997
 21
187.12299999999991
 31
0.0
  0
LINE
  5
8E
  8
0
 62
     7
 10
68.761300000000006
 20
187.59
 30
0.0
 11
72.893699999999995
 21
187.59
 31
0.0
  0
ARC
  5
8F
  8
0
 62
     7
 10
68.765846999999994
 20
183.4734489999999
 30
0.0
 40
3.9250849999999988
 50
90.066828999999984
 51
109.13243799999989
  0
ARC
  5
90
  8
0
 62
     7
 10
67.694085999999999
 20
186.690393
 30
0.0
 40
0.536194
 50
113.603883
 51
126.228476
  0
ARC
  5
91
  8
0
 62
     7
 10
64.960493
 20
185.57467800000001
 30
0.0
 40
1.8238540000000001
 50
89.963702999999995
 51
98.114267000000012
  0
ARC
  5
92
  8
0
 62
     7
 10
64.787502000000003
 20
186.856752
 30
0.0
 40
0.530287
 50
99.162705000000031
 51
120.1102689999999
  0
ARC
  5
93
  8
0
 62
     7
 10
65.939736999999994
 20
185.20167000000001
 30
0.0
 40
2.5455199999999998
 50
123.8596159999999
 51
130.99573699999999
  0
ARC
  5
94
  8
0
 62
     7
 10
64.962804000000006
 20
185.57294699999991
 30
0.0
 40
1.8255849999999989
 50
81.889566000000016
 51
90.036276999999998
  0
ARC
  5
95
  8
0
 62
     7
 10
65.135962000000006
 20
186.8565669999999
 30
0.0
 40
0.530462
 50
59.896845999999996
 51
80.845188000000036
  0
ARC
  5
96
  8
0
 62
     7
 10
63.994219999999999
 20
185.21705700000001
 30
0.0
 40
2.5269129999999991
 50
48.95783200000001
 51
56.142974000000002
  0
LINE
  5
97
  8
0
 62
     7
 10
64.628200000000007
 20
187.59
 30
0.0
 11
64.160799999999995
 21
187.12299999999991
 31
0.0
  0
LINE
  5
98
  8
0
 62
     7
 10
71.868399999999994
 20
185.97499999999999
 30
0.0
 11
71.868399999999994
 21
187.12299999999991
 31
0.0
  0
LINE
  5
99
  8
0
 62
     7
 10
70.144800000000004
 20
185.97499999999999
 30
0.0
 11
70.144800000000004
 21
187.12299999999991
 31
0.0
  0
LINE
  5
9A
  8
0
 62
     7
 10
67.377200000000002
 20
185.97499999999999
 30
0.0
 11
67.377200000000002
 21
187.12299999999991
 31
0.0
  0
LINE
  5
9B
  8
0
 62
     7
 10
65.653400000000005
 20
185.97499999999999
 30
0.0
 11
65.653400000000005
 21
187.12299999999991
 31
0.0
  0
LINE
  5
9C
  8
0
 62
     7
 10
73.251999999999995
 20
185.97499999999999
 30
0.0
 11
73.251999999999995
 21
187.12299999999991
 31
0.0
  0
LINE
  5
9D
  8
0
 62
     7
 10
64.269900000000007
 20
185.97499999999999
 30
0.0
 11
64.269900000000007
 21
187.12299999999991
 31
0.0
  0
LINE
  5
9E
  8
0
 62
     7
 10
64.160799999999995
 20
185.97499999999999
 30
0.0
 11
64.160799999999995
 21
187.12299999999991
 31
0.0
  0
LINE
  5
9F
  8
0
 62
     7
 10
73.361199999999997
 20
185.97499999999999
 30
0.0
 11
73.361199999999997
 21
187.12299999999991
 31
0.0
  0
LINE
  5
A0
  8
0
 62
     7
 10
68.760800000000003
 20
187.59
 30
0.0
 11
64.628200000000007
 21
187.59
 31
0.0
  0
LINE
  5
A1
  8
0
 62
     7
 10
73.361199999999997
 20
187.12299999999991
 30
0.0
 11
73.251999999999995
 21
187.12299999999991
 31
0.0
  0
LINE
  5
A2
  8
0
 62
     7
 10
71.868399999999994
 20
187.12299999999991
 30
0.0
 11
70.144800000000004
 21
187.12299999999991
 31
0.0
  0
LINE
  5
A3
  8
0
 62
     7
 10
67.377200000000002
 20
187.12299999999991
 30
0.0
 11
65.653400000000005
 21
187.12299999999991
 31
0.0
  0
LINE
  5
A4
  8
0
 62
     7
 10
64.269900000000007
 20
187.12299999999991
 30
0.0
 11
64.160799999999995
 21
187.12299999999991
 31
0.0
  0
LINE
  5
A5
  8
0
 62
     7
 10
73.361199999999997
 20
185.97499999999999
 30
0.0
 11
73.251999999999995
 21
185.97499999999999
 31
0.0
  0
LINE
  5
A6
  8
0
 62
     7
 10
71.868399999999994
 20
185.97499999999999
 30
0.0
 11
70.144800000000004
 21
185.97499999999999
 31
0.0
  0
LINE
  5
A7
  8
0
 62
     7
 10
67.377200000000002
 20
185.97499999999999
 30
0.0
 11
65.653400000000005
 21
185.97499999999999
 31
0.0
  0
LINE
  5
A8
  8
0
 62
     7
 10
64.269900000000007
 20
185.97499999999999
 30
0.0
 11
64.160799999999995
 21
185.97499999999999
 31
0.0
  0
LINE
  5
A9
  8
0
 62
     7
 10
71.961100000000002
 20
199.80199999999999
 30
0.0
 11
71.961100000000002
 21
199.87599999999989
 31
0.0
  0
LINE
  5
AA
  8
0
 62
     7
 10
65.560900000000004
 20
199.80199999999999
 30
0.0
 11
65.560900000000004
 21
199.87599999999989
 31
0.0
  0
ARC
  5
AB
  8
0
 62
     7
 10
68.756173000000004
 20
205.03589099999991
 30
0.0
 40
3.9247619999999999
 50
270.066845
 51
289.13325200000003
  0
ARC
  5
AC
  8
0
 62
     7
 10
69.827337999999997
 20
201.82050099999989
 30
0.0
 40
0.537538
 50
293.60420699999992
 51
306.20211
  0
ARC
  5
AD
  8
0
 62
     7
 10
72.561356000000004
 20
202.93601200000001
 30
0.0
 40
1.8248799999999989
 50
269.963662
 51
278.11200200000002
  0
ARC
  5
AE
  8
0
 62
     7
 10
72.734480000000005
 20
201.65267600000001
 30
0.0
 40
0.530045
 50
279.16033799999991
 51
300.11590099999989
  0
ARC
  5
AF
  8
0
 62
     7
 10
71.580534
 20
203.30961599999989
 30
0.0
 40
2.5477780000000001
 50
303.86984100000001
 51
310.99856899999992
  0
ARC
  5
B0
  8
0
 62
     7
 10
72.559043000000003
 20
202.9349859999999
 30
0.0
 40
1.8238540000000001
 50
261.88573300000002
 51
270.03629699999999
  0
ARC
  5
B1
  8
0
 62
     7
 10
72.386052000000007
 20
201.65291099999999
 30
0.0
 40
0.530287
 50
239.88973100000001
 51
260.83729499999998
  0
ARC
  5
B2
  8
0
 62
     7
 10
73.538287999999994
 20
203.3079929999999
 30
0.0
 40
2.5455199999999998
 50
229.0042629999999
 51
236.14038400000001
  0
LINE
  5
B3
  8
0
 62
     7
 10
72.893699999999995
 20
200.91900000000001
 30
0.0
 11
73.361199999999997
 21
201.38699999999989
 31
0.0
  0
LINE
  5
B4
  8
0
 62
     7
 10
68.761300000000006
 20
200.91900000000001
 30
0.0
 11
72.893699999999995
 21
200.91900000000001
 31
0.0
  0
ARC
  5
B5
  8
0
 62
     7
 10
68.765846999999994
 20
205.03621399999989
 30
0.0
 40
3.9250849999999988
 50
250.86756199999999
 51
269.93317100000002
  0
ARC
  5
B6
  8
0
 62
     7
 10
67.694085999999999
 20
201.81927099999999
 30
0.0
 40
0.536194
 50
233.771524
 51
246.396117
  0
ARC
  5
B7
  8
0
 62
     7
 10
64.960493
 20
202.9349859999999
 30
0.0
 40
1.8238540000000001
 50
261.88573300000002
 51
270.03629699999999
  0
ARC
  5
B8
  8
0
 62
     7
 10
64.787502000000003
 20
201.65291099999999
 30
0.0
 40
0.530287
 50
239.88973100000001
 51
260.83729499999998
  0
ARC
  5
B9
  8
0
 62
     7
 10
65.939736999999994
 20
203.3079929999999
 30
0.0
 40
2.5455199999999998
 50
229.0042629999999
 51
236.14038400000001
  0
ARC
  5
BA
  8
0
 62
     7
 10
64.962804000000006
 20
202.93671599999999
 30
0.0
 40
1.8255849999999989
 50
269.9637229999999
 51
278.110434
  0
ARC
  5
BB
  8
0
 62
     7
 10
65.135962000000006
 20
201.65309599999989
 30
0.0
 40
0.530462
 50
279.15481199999988
 51
300.10315400000002
  0
ARC
  5
BC
  8
0
 62
     7
 10
63.994219999999999
 20
203.292607
 30
0.0
 40
2.5269129999999991
 50
303.85702599999991
 51
311.04216799999989
  0
LINE
  5
BD
  8
0
 62
     7
 10
64.628200000000007
 20
200.91900000000001
 30
0.0
 11
64.160799999999995
 21
201.38699999999989
 31
0.0
  0
LINE
  5
BE
  8
0
 62
     7
 10
68.760800000000003
 20
200.91900000000001
 30
0.0
 11
64.628200000000007
 21
200.91900000000001
 31
0.0
  0
ARC
  5
BF
  8
0
 62
     7
 10
68.756173000000004
 20
198.88516000000001
 30
0.0
 40
3.9247619999999999
 50
70.866748000000001
 51
89.933154999999985
  0
ARC
  5
C0
  8
0
 62
     7
 10
69.827337999999997
 20
202.10055
 30
0.0
 40
0.537538
 50
53.797890000000002
 51
66.395793000000012
  0
ARC
  5
C1
  8
0
 62
     7
 10
72.561356000000004
 20
200.98503899999989
 30
0.0
 40
1.8248799999999989
 50
81.887997999999996
 51
90.036338000000015
  0
ARC
  5
C2
  8
0
 62
     7
 10
72.734480000000005
 20
202.26837499999999
 30
0.0
 40
0.530045
 50
59.884098999999999
 51
80.839662000000004
  0
ARC
  5
C3
  8
0
 62
     7
 10
71.580534
 20
200.611436
 30
0.0
 40
2.5477780000000001
 50
49.00143099999999
 51
56.130158999999999
  0
ARC
  5
C4
  8
0
 62
     7
 10
72.559043000000003
 20
200.98606499999991
 30
0.0
 40
1.8238540000000001
 50
89.963702999999995
 51
98.114267000000012
  0
ARC
  5
C5
  8
0
 62
     7
 10
72.386052000000007
 20
202.2681399999999
 30
0.0
 40
0.530287
 50
99.162705000000031
 51
120.1102689999999
  0
ARC
  5
C6
  8
0
 62
     7
 10
73.538287999999994
 20
200.61305799999991
 30
0.0
 40
2.5455199999999998
 50
123.8596159999999
 51
130.99573699999999
  0
LINE
  5
C7
  8
0
 62
     7
 10
72.893699999999995
 20
203.0019999999999
 30
0.0
 11
73.361199999999997
 21
202.53399999999999
 31
0.0
  0
LINE
  5
C8
  8
0
 62
     7
 10
68.761300000000006
 20
203.0019999999999
 30
0.0
 11
72.893699999999995
 21
203.0019999999999
 31
0.0
  0
ARC
  5
C9
  8
0
 62
     7
 10
68.765846999999994
 20
198.884837
 30
0.0
 40
3.9250849999999988
 50
90.066828999999984
 51
109.13243799999989
  0
ARC
  5
CA
  8
0
 62
     7
 10
67.694085999999999
 20
202.10177999999999
 30
0.0
 40
0.536194
 50
113.603883
 51
126.228476
  0
ARC
  5
CB
  8
0
 62
     7
 10
64.960493
 20
200.98606499999991
 30
0.0
 40
1.8238540000000001
 50
89.963702999999995
 51
98.114267000000012
  0
ARC
  5
CC
  8
0
 62
     7
 10
64.787502000000003
 20
202.2681399999999
 30
0.0
 40
0.530287
 50
99.162705000000031
 51
120.1102689999999
  0
ARC
  5
CD
  8
0
 62
     7
 10
65.939736999999994
 20
200.61305799999991
 30
0.0
 40
2.5455199999999998
 50
123.8596159999999
 51
130.99573699999999
  0
ARC
  5
CE
  8
0
 62
     7
 10
64.962804000000006
 20
200.98433499999999
 30
0.0
 40
1.8255849999999989
 50
81.889566000000016
 51
90.036276999999998
  0
ARC
  5
CF
  8
0
 62
     7
 10
65.135962000000006
 20
202.26795499999989
 30
0.0
 40
0.530462
 50
59.896845999999996
 51
80.845188000000036
  0
ARC
  5
D0
  8
0
 62
     7
 10
63.994219999999999
 20
200.62844499999991
 30
0.0
 40
2.5269129999999991
 50
48.95783200000001
 51
56.142974000000002
  0
LINE
  5
D1
  8
0
 62
     7
 10
64.628200000000007
 20
203.0019999999999
 30
0.0
 11
64.160799999999995
 21
202.53399999999999
 31
0.0
  0
LINE
  5
D2
  8
0
 62
     7
 10
71.868399999999994
 20
201.38699999999989
 30
0.0
 11
71.868399999999994
 21
202.53399999999999
 31
0.0
  0
LINE
  5
D3
  8
0
 62
     7
 10
70.144800000000004
 20
201.38699999999989
 30
0.0
 11
70.144800000000004
 21
202.53399999999999
 31
0.0
  0
LINE
  5
D4
  8
0
 62
     7
 10
67.377200000000002
 20
201.38699999999989
 30
0.0
 11
67.377200000000002
 21
202.53399999999999
 31
0.0
  0
LINE
  5
D5
  8
0
 62
     7
 10
65.653400000000005
 20
201.38699999999989
 30
0.0
 11
65.653400000000005
 21
202.53399999999999
 31
0.0
  0
LINE
  5
D6
  8
0
 62
     7
 10
73.251999999999995
 20
201.38699999999989
 30
0.0
 11
73.251999999999995
 21
202.53399999999999
 31
0.0
  0
LINE
  5
D7
  8
0
 62
     7
 10
64.269900000000007
 20
201.38699999999989
 30
0.0
 11
64.269900000000007
 21
202.53399999999999
 31
0.0
  0
LINE
  5
D8
  8
0
 62
     7
 10
64.160799999999995
 20
201.38699999999989
 30
0.0
 11
64.160799999999995
 21
202.53399999999999
 31
0.0
  0
LINE
  5
D9
  8
0
 62
     7
 10
73.361199999999997
 20
201.38699999999989
 30
0.0
 11
73.361199999999997
 21
202.53399999999999
 31
0.0
  0
LINE
  5
DA
  8
0
 62
     7
 10
68.760800000000003
 20
203.0019999999999
 30
0.0
 11
64.628200000000007
 21
203.0019999999999
 31
0.0
  0
LINE
  5
DB
  8
0
 62
     7
 10
73.361199999999997
 20
202.53399999999999
 30
0.0
 11
73.251999999999995
 21
202.53399999999999
 31
0.0
  0
LINE
  5
DC
  8
0
 62
     7
 10
71.868399999999994
 20
202.53399999999999
 30
0.0
 11
70.144800000000004
 21
202.53399999999999
 31
0.0
  0
LINE
  5
DD
  8
0
 62
     7
 10
67.377200000000002
 20
202.53399999999999
 30
0.0
 11
65.653400000000005
 21
202.53399999999999
 31
0.0
  0
LINE
  5
DE
  8
0
 62
     7
 10
64.269900000000007
 20
202.53399999999999
 30
0.0
 11
64.160799999999995
 21
202.53399999999999
 31
0.0
  0
LINE
  5
DF
  8
0
 62
     7
 10
73.361199999999997
 20
201.38699999999989
 30
0.0
 11
73.251999999999995
 21
201.38699999999989
 31
0.0
  0
LINE
  5
E0
  8
0
 62
     7
 10
71.868399999999994
 20
201.38699999999989
 30
0.0
 11
70.144800000000004
 21
201.38699999999989
 31
0.0
  0
LINE
  5
E1
  8
0
 62
     7
 10
67.377200000000002
 20
201.38699999999989
 30
0.0
 11
65.653400000000005
 21
201.38699999999989
 31
0.0
  0
LINE
  5
E2
  8
0
 62
     7
 10
64.269900000000007
 20
201.38699999999989
 30
0.0
 11
64.160799999999995
 21
201.38699999999989
 31
0.0
  0
LINE
  5
E3
  8
0
 62
     7
 10
65.560900000000004
 20
233.39699999999999
 30
0.0
 11
64.269900000000007
 21
231.16099999999989
 31
0.0
  0
LINE
  5
E4
  8
0
 62
     7
 10
73.251999999999995
 20
231.16099999999989
 30
0.0
 11
71.961100000000002
 21
233.39699999999999
 31
0.0
  0
LINE
  5
E5
  8
0
 62
     7
 10
71.868399999999994
 20
226.77399999999989
 30
0.0
 11
73.251999999999995
 21
229.17099999999999
 31
0.0
  0
LINE
  5
E6
  8
0
 62
     7
 10
67.377200000000002
 20
225.779
 30
0.0
 11
70.144800000000004
 21
225.779
 31
0.0
  0
LINE
  5
E7
  8
0
 62
     7
 10
64.269900000000007
 20
229.17099999999999
 30
0.0
 11
65.653800000000004
 21
226.77399999999989
 31
0.0
  0
ARC
  5
E8
  8
0
 62
     7
 10
68.638150999999993
 20
246.44306499999999
 30
0.0
 40
3.3252089999999992
 50
2.115931999999999
 51
87.884057999999996
  0
ARC
  5
E9
  8
0
 62
     7
 10
68.761009999999999
 20
246.565922
 30
0.0
 40
3.200083999999999
 50
90.001542000000001
 51
180.001552
  0
ARC
  5
EA
  8
0
 62
     7
 10
68.883686999999995
 20
230.288464
 30
0.0
 40
3.3250280000000001
 50
182.11591799999999
 51
267.88411200000002
  0
ARC
  5
EB
  8
0
 62
     7
 10
68.761009000000001
 20
230.16578699999999
 30
0.0
 40
3.200083999999999
 50
269.99847799999992
 51
359.99844799999988
  0
ARC
  5
EC
  8
0
 62
     7
 10
68.76700799999999
 20
230.166237
 30
0.0
 40
3.6060599999999989
 50
152.78198399999999
 51
180.00854799999991
  0
ARC
  5
ED
  8
0
 62
     7
 10
68.760922999999991
 20
230.16569999999999
 30
0.0
 40
3.5999750000000001
 50
179.99996999999991
 51
270.00002000000001
  0
ARC
  5
EE
  8
0
 62
     7
 10
68.761094999999997
 20
230.165873
 30
0.0
 40
3.6001479999999999
 50
269.99727799999999
 51
359.99724900000001
  0
ARC
  5
EF
  8
0
 62
     7
 10
68.738371999999998
 20
230.16169500000001
 30
0.0
 40
3.622873999999999
 50
0.063344
 51
27.183457000000001
  0
ARC
  5
F0
  8
0
 62
     7
 10
68.775233999999998
 20
230.16224800000001
 30
0.0
 40
3.8144489999999989
 50
147.43235899999999
 51
179.9481209999999
  0
ARC
  5
F1
  8
0
 62
     7
 10
68.760835999999998
 20
230.165786
 30
0.0
 40
3.8000500000000001
 50
180.00130899999999
 51
270.00131800000003
  0
ARC
  5
F2
  8
0
 62
     7
 10
68.760835999999998
 20
230.16561499999989
 30
0.0
 40
3.7998789999999998
 50
270.00131899999991
 51
0.001289
  0
ARC
  5
F3
  8
0
 62
     7
 10
68.733831000000009
 20
230.159175
 30
0.0
 40
3.8268900000000001
 50
0.097696
 51
32.494081000000001
  0
ARC
  5
F4
  8
0
 62
     7
 10
68.759418999999994
 20
230.16682599999999
 30
0.0
 40
4.6017689999999991
 50
347.49252200000001
 51
359.98599300000001
  0
ARC
  5
F5
  8
0
 62
     7
 10
68.751690999999994
 20
230.18118599999991
 30
0.0
 40
4.6175589999999991
 50
287.55549600000001
 51
312.45206100000001
  0
ARC
  5
F6
  8
0
 62
     7
 10
68.769617000000011
 20
230.180012
 30
0.0
 40
4.6163290000000003
 50
227.54305899999989
 51
252.44446499999989
  0
ARC
  5
F7
  8
0
 62
     7
 10
68.764771999999994
 20
230.16548399999991
 30
0.0
 40
4.6037869999999996
 50
167.5140419999999
 51
192.4760389999999
  0
ARC
  5
F8
  8
0
 62
     7
 10
68.763296999999994
 20
230.16517300000001
 30
0.0
 40
4.5978909999999997
 50
0.006569
 51
12.512765999999999
  0
LINE
  5
F9
  8
0
  6
AIGENLINE001
 62
     7
 10
58.335500000000003
 20
246.56599999999989
 30
0.0
 11
78.655600000000007
 21
246.56599999999989
 31
0.0
  0
LINE
  5
FA
  8
0
  6
AIGENLINE001
 62
     7
 10
62.146099999999997
 20
230.166
 30
0.0
 11
75.456900000000005
 21
230.166
 31
0.0
  0
LINE
  5
FB
  8
0
 62
     7
 10
65.653800000000004
 20
217.15700000000001
 30
0.0
 11
64.269900000000007
 21
214.76099999999991
 31
0.0
  0
LINE
  5
FC
  8
0
 62
     7
 10
70.144800000000004
 20
218.15299999999991
 30
0.0
 11
67.377200000000002
 21
218.15299999999991
 31
0.0
  0
LINE
  5
FD
  8
0
 62
     7
 10
73.251999999999995
 20
214.76099999999991
 30
0.0
 11
71.868399999999994
 21
217.15700000000001
 31
0.0
  0
LINE
  5
FE
  8
0
 62
     7
 10
71.868399999999994
 20
210.374
 30
0.0
 11
73.251999999999995
 21
212.7709999999999
 31
0.0
  0
LINE
  5
FF
  8
0
 62
     7
 10
67.377200000000002
 20
209.37899999999999
 30
0.0
 11
70.144800000000004
 21
209.37899999999999
 31
0.0
  0
LINE
  5
100
  8
0
 62
     7
 10
64.269900000000007
 20
212.7709999999999
 30
0.0
 11
65.653800000000004
 21
210.374
 31
0.0
  0
ARC
  5
101
  8
0
 62
     7
 10
68.760922999999991
 20
213.76556400000001
 30
0.0
 40
3.1000890000000001
 50
0.00001
 51
89.999980000000008
  0
ARC
  5
102
  8
0
 62
     7
 10
68.880068999999992
 20
213.64623999999989
 30
0.0
 40
3.2216169999999988
 50
92.119447999999991
 51
177.87733899999989
  0
ARC
  5
103
  8
0
 62
     7
 10
68.879502999999985
 20
213.88432299999991
 30
0.0
 40
3.2210309999999991
 50
182.11298300000001
 51
267.89022999999992
  0
ARC
  5
104
  8
0
 62
     7
 10
68.760922999999991
 20
213.7655649999999
 30
0.0
 40
3.1000890000000001
 50
270.00002000000001
 51
359.99998999999991
  0
ARC
  5
105
  8
0
 62
     7
 10
68.761009000000001
 20
213.76547799999989
 30
0.0
 40
3.600233999999999
 50
0.001381
 51
90.001350999999985
  0
ARC
  5
106
  8
0
 62
     7
 10
68.761009999999999
 20
213.76564999999991
 30
0.0
 40
3.6000619999999999
 50
90.001370999999992
 51
180.0013809999999
  0
ARC
  5
107
  8
0
 62
     7
 10
68.760750000000002
 20
213.76573599999989
 30
0.0
 40
3.5998019999999991
 50
180.00275199999999
 51
270.00276200000002
  0
ARC
  5
108
  8
0
 62
     7
 10
68.761267000000004
 20
213.76590999999999
 30
0.0
 40
3.5999759999999998
 50
269.99453699999998
 51
359.99450699999989
  0
ARC
  5
109
  8
0
 62
     7
 10
68.760750000000002
 20
213.76573599999989
 30
0.0
 40
3.7999649999999998
 50
359.99741299999999
 51
89.997382999999999
  0
ARC
  5
10A
  8
0
 62
     7
 10
68.760924000000003
 20
213.76556400000001
 30
0.0
 40
3.8001369999999999
 50
90.0
 51
179.99996999999991
  0
ARC
  5
10B
  8
0
 62
     7
 10
68.760750000000002
 20
213.76573599999989
 30
0.0
 40
3.7999640000000001
 50
180.00260700000001
 51
270.00261699999999
  0
ARC
  5
10C
  8
0
 62
     7
 10
68.760922999999991
 20
213.7655649999999
 30
0.0
 40
3.7997930000000002
 50
270.00002000000001
 51
359.99998999999991
  0
ARC
  5
10D
  8
0
 62
     7
 10
68.759418999999994
 20
213.76668900000001
 30
0.0
 40
4.6017689999999991
 50
347.49252200000001
 51
359.98599300000001
  0
ARC
  5
10E
  8
0
 62
     7
 10
68.751690999999994
 20
213.78122200000001
 30
0.0
 40
4.6175589999999991
 50
287.55549600000001
 51
312.45206100000001
  0
ARC
  5
10F
  8
0
 62
     7
 10
68.769617000000011
 20
213.78004799999999
 30
0.0
 40
4.6163290000000003
 50
227.54305899999989
 51
252.44446499999989
  0
ARC
  5
110
  8
0
 62
     7
 10
68.764771999999994
 20
213.7653479999999
 30
0.0
 40
4.6037869999999996
 50
167.5140419999999
 51
192.4760389999999
  0
ARC
  5
111
  8
0
 62
     7
 10
68.770015000000001
 20
213.7499739999999
 30
0.0
 40
4.6176690000000002
 50
107.555458
 51
132.448431
  0
ARC
  5
112
  8
0
 62
     7
 10
68.75505600000001
 20
213.75607799999989
 30
0.0
 40
4.610989
 50
47.52991699999999
 51
72.462524999999999
  0
ARC
  5
113
  8
0
 62
     7
 10
68.763296999999994
 20
213.76503700000001
 30
0.0
 40
4.5978909999999997
 50
0.006569
 51
12.512765999999999
  0
LINE
  5
114
  8
0
 62
     7
 10
71.961100000000002
 20
187.59
 30
0.0
 11
71.961100000000002
 21
200.91900000000001
 31
0.0
  0
LINE
  5
115
  8
0
 62
     7
 10
65.560900000000004
 20
187.59
 30
0.0
 11
65.560900000000004
 21
200.91900000000001
 31
0.0
  0
LINE
  5
116
  8
0
 62
     7
 10
71.961100000000002
 20
165.9609999999999
 30
0.0
 11
71.961100000000002
 21
184.464
 31
0.0
  0
LINE
  5
117
  8
0
 62
     7
 10
65.560900000000004
 20
165.9609999999999
 30
0.0
 11
65.560900000000004
 21
184.464
 31
0.0
  0
LINE
  5
118
  8
0
 62
     7
 10
71.961100000000002
 20
175.39599999999999
 30
0.0
 11
65.560900000000004
 21
175.39599999999999
 31
0.0
  0
LINE
  5
119
  8
0
 62
     7
 10
71.961100000000002
 20
174.81200000000001
 30
0.0
 11
65.560900000000004
 21
174.81200000000001
 31
0.0
  0
LINE
  5
11A
  8
0
  6
AIGENLINE001
 62
     7
 10
68.760800000000003
 20
205.25700000000001
 30
0.0
 11
68.760800000000003
 21
47.773400000000002
 31
0.0
  0
LINE
  5
11B
  8
0
  6
AIGENLINE001
 62
     7
 10
62.146099999999997
 20
213.76599999999991
 30
0.0
 11
75.456900000000005
 21
213.76599999999991
 31
0.0
  0
LINE
  5
11C
  8
0
 62
     7
 10
71.961100000000002
 20
230.166
 30
0.0
 11
71.961100000000002
 21
246.56599999999989
 31
0.0
  0
LINE
  5
11D
  8
0
 62
     7
 10
65.560900000000004
 20
230.166
 30
0.0
 11
65.560900000000004
 21
246.56599999999989
 31
0.0
  0
LINE
  5
11E
  8
0
 62
     7
 10
71.961100000000002
 20
216.99700000000001
 30
0.0
 11
71.961100000000002
 21
226.934
 31
0.0
  0
LINE
  5
11F
  8
0
 62
     7
 10
65.560900000000004
 20
216.99700000000001
 30
0.0
 11
65.560900000000004
 21
226.934
 31
0.0
  0
LINE
  5
120
  8
0
  6
AIGENLINE001
 62
     7
 10
68.760800000000003
 20
207.3179999999999
 30
0.0
 11
68.760800000000003
 21
255.935
 31
0.0
  0
LINE
  5
121
  8
0
 62
     7
 10
104.9549999999999
 20
207.02000000000001
 30
0.0
 11
107.166
 21
207.61199999999991
 31
0.0
  0
LINE
  5
122
  8
0
 62
     7
 10
107.166
 20
207.61199999999991
 30
0.0
 11
104.9549999999999
 21
208.20500000000001
 31
0.0
  0
LINE
  5
123
  8
0
 62
     7
 10
104.9549999999999
 20
208.20500000000001
 30
0.0
 11
104.9549999999999
 21
207.02000000000001
 31
0.0
  0
LINE
  5
124
  8
0
 62
     7
 10
101.776
 20
208.19
 30
0.0
 11
99.565799999999996
 21
207.5979999999999
 31
0.0
  0
LINE
  5
125
  8
0
 62
     7
 10
99.565799999999996
 20
207.5979999999999
 30
0.0
 11
101.776
 21
207.005
 31
0.0
  0
LINE
  5
126
  8
0
 62
     7
 10
101.776
 20
207.005
 30
0.0
 11
101.776
 21
208.19
 31
0.0
  0
LINE
  5
127
  8
0
 62
     7
 10
107.166
 20
207.6049999999999
 30
0.0
 11
99.565799999999996
 21
207.6049999999999
 31
0.0
  0
LINE
  5
128
  8
0
 62
     7
 10
99.843599999999995
 20
185.03599999999989
 30
0.0
 11
100.066
 21
184.464
 31
0.0
  0
LINE
  5
129
  8
0
 62
     7
 10
99.843599999999995
 20
185.03599999999989
 30
0.0
 11
99.843599999999995
 21
185.50699999999989
 31
0.0
  0
LINE
  5
12A
  8
0
 62
     7
 10
103.366
 20
185.03599999999989
 30
0.0
 11
99.843599999999995
 21
185.03599999999989
 31
0.0
  0
LINE
  5
12B
  8
0
 62
     7
 10
103.366
 20
184.464
 30
0.0
 11
100.066
 21
184.464
 31
0.0
  0
LINE
  5
12C
  8
0
 62
     7
 10
106.88799999999991
 20
185.03599999999989
 30
0.0
 11
106.6659999999999
 21
184.464
 31
0.0
  0
ARC
  5
12D
  8
0
 62
     7
 10
105.725025
 20
203.37940399999999
 30
0.0
 40
2.2682720000000001
 50
253.5616069999999
 51
269.99413700000002
  0
ARC
  5
12E
  8
0
 62
     7
 10
105.4889409999999
 20
202.43619200000001
 30
0.0
 40
1.297437999999999
 50
233.98508799999999
 51
251.77366699999999
  0
ARC
  5
12F
  8
0
 62
     7
 10
105.72456
 20
203.37940399999999
 30
0.0
 40
2.2682720000000001
 50
270.00588299999993
 51
286.43841299999991
  0
ARC
  5
130
  8
0
 62
     7
 10
105.96064299999991
 20
202.43619200000001
 30
0.0
 40
1.297437999999999
 50
288.2263529999999
 51
306.01493199999987
  0
ARC
  5
131
  8
0
 62
     7
 10
105.725025
 20
200.5416469999999
 30
0.0
 40
2.2682720000000001
 50
90.005863000000005
 51
106.43839299999991
  0
ARC
  5
132
  8
0
 62
     7
 10
105.4889409999999
 20
201.484859
 30
0.0
 40
1.297437999999999
 50
108.226333
 51
126.014912
  0
ARC
  5
133
  8
0
 62
     7
 10
105.72456
 20
200.5416469999999
 30
0.0
 40
2.2682720000000001
 50
73.561587000000003
 51
89.994117000000017
  0
ARC
  5
134
  8
0
 62
     7
 10
105.96064299999991
 20
201.484859
 30
0.0
 40
1.297437999999999
 50
53.985067999999998
 51
71.773646999999997
  0
LINE
  5
135
  8
0
 62
     7
 10
107.5949999999999
 20
203.0019999999999
 30
0.0
 11
108.0629999999999
 21
202.53399999999999
 31
0.0
  0
LINE
  5
136
  8
0
 62
     7
 10
108.0629999999999
 20
201.38699999999989
 30
0.0
 11
107.5949999999999
 21
200.91900000000001
 31
0.0
  0
LINE
  5
137
  8
0
 62
     7
 10
104.726
 20
201.38699999999989
 30
0.0
 11
104.726
 21
202.53399999999999
 31
0.0
  0
LINE
  5
138
  8
0
 62
     7
 10
106.7239999999999
 20
201.38699999999989
 30
0.0
 11
106.7239999999999
 21
202.53399999999999
 31
0.0
  0
LINE
  5
139
  8
0
 62
     7
 10
108.0629999999999
 20
201.38699999999989
 30
0.0
 11
108.0629999999999
 21
202.53399999999999
 31
0.0
  0
LINE
  5
13A
  8
0
 62
     7
 10
103.366
 20
203.0019999999999
 30
0.0
 11
107.5949999999999
 21
203.0019999999999
 31
0.0
  0
LINE
  5
13B
  8
0
 62
     7
 10
103.366
 20
202.53399999999999
 30
0.0
 11
104.726
 21
202.53399999999999
 31
0.0
  0
LINE
  5
13C
  8
0
 62
     7
 10
106.7239999999999
 20
202.53399999999999
 30
0.0
 11
108.0629999999999
 21
202.53399999999999
 31
0.0
  0
LINE
  5
13D
  8
0
 62
     7
 10
103.366
 20
201.38699999999989
 30
0.0
 11
104.726
 21
201.38699999999989
 31
0.0
  0
LINE
  5
13E
  8
0
 62
     7
 10
106.7239999999999
 20
201.38699999999989
 30
0.0
 11
108.0629999999999
 21
201.38699999999989
 31
0.0
  0
LINE
  5
13F
  8
0
 62
     7
 10
103.366
 20
200.91900000000001
 30
0.0
 11
107.5949999999999
 21
200.91900000000001
 31
0.0
  0
ARC
  5
140
  8
0
 62
     7
 10
101.006816
 20
203.37940399999999
 30
0.0
 40
2.2682720000000001
 50
270.00588299999993
 51
286.43841299999991
  0
ARC
  5
141
  8
0
 62
     7
 10
101.24290000000001
 20
202.43619200000001
 30
0.0
 40
1.297437999999999
 50
288.2263529999999
 51
306.01493199999987
  0
ARC
  5
142
  8
0
 62
     7
 10
101.0072819999999
 20
203.37963099999999
 30
0.0
 40
2.2684989999999998
 50
253.562434
 51
269.99412599999999
  0
ARC
  5
143
  8
0
 62
     7
 10
100.771629
 20
202.437681
 30
0.0
 40
1.298997999999999
 50
234.00218299999989
 51
251.774789
  0
ARC
  5
144
  8
0
 62
     7
 10
101.006816
 20
200.5416469999999
 30
0.0
 40
2.2682720000000001
 50
73.561587000000003
 51
89.994117000000017
  0
ARC
  5
145
  8
0
 62
     7
 10
101.24290000000001
 20
201.484859
 30
0.0
 40
1.297437999999999
 50
53.985067999999998
 51
71.773646999999997
  0
ARC
  5
146
  8
0
 62
     7
 10
101.0072819999999
 20
200.54142100000001
 30
0.0
 40
2.2684989999999998
 50
90.005874000000006
 51
106.437566
  0
ARC
  5
147
  8
0
 62
     7
 10
100.771629
 20
201.48337000000001
 30
0.0
 40
1.298997999999999
 50
108.225211
 51
125.9978169999999
  0
LINE
  5
148
  8
0
 62
     7
 10
99.136700000000005
 20
203.0019999999999
 30
0.0
 11
98.668700000000001
 21
202.53399999999999
 31
0.0
  0
LINE
  5
149
  8
0
 62
     7
 10
98.668700000000001
 20
201.38699999999989
 30
0.0
 11
99.136700000000005
 21
200.91900000000001
 31
0.0
  0
LINE
  5
14A
  8
0
 62
     7
 10
102.0059999999999
 20
201.38699999999989
 30
0.0
 11
102.0059999999999
 21
202.53399999999999
 31
0.0
  0
LINE
  5
14B
  8
0
 62
     7
 10
100.008
 20
201.38699999999989
 30
0.0
 11
100.008
 21
202.53399999999999
 31
0.0
  0
LINE
  5
14C
  8
0
 62
     7
 10
98.668700000000001
 20
201.38699999999989
 30
0.0
 11
98.668700000000001
 21
202.53399999999999
 31
0.0
  0
LINE
  5
14D
  8
0
 62
     7
 10
103.366
 20
203.0019999999999
 30
0.0
 11
99.136700000000005
 21
203.0019999999999
 31
0.0
  0
LINE
  5
14E
  8
0
 62
     7
 10
103.366
 20
202.53399999999999
 30
0.0
 11
102.0059999999999
 21
202.53399999999999
 31
0.0
  0
LINE
  5
14F
  8
0
 62
     7
 10
100.008
 20
202.53399999999999
 30
0.0
 11
98.668700000000001
 21
202.53399999999999
 31
0.0
  0
LINE
  5
150
  8
0
 62
     7
 10
103.366
 20
201.38699999999989
 30
0.0
 11
102.0059999999999
 21
201.38699999999989
 31
0.0
  0
LINE
  5
151
  8
0
 62
     7
 10
100.008
 20
201.38699999999989
 30
0.0
 11
98.668700000000001
 21
201.38699999999989
 31
0.0
  0
LINE
  5
152
  8
0
 62
     7
 10
103.366
 20
200.91900000000001
 30
0.0
 11
99.136700000000005
 21
200.91900000000001
 31
0.0
  0
ARC
  5
153
  8
0
 62
     7
 10
105.7250199999999
 20
187.9642659999999
 30
0.0
 40
2.265210999999999
 50
253.53889199999989
 51
269.9942529999999
  0
ARC
  5
154
  8
0
 62
     7
 10
105.48809900000001
 20
187.01940400000001
 30
0.0
 40
1.2925770000000001
 50
233.87451699999991
 51
251.742008
  0
ARC
  5
155
  8
0
 62
     7
 10
105.7245649999999
 20
187.9642659999999
 30
0.0
 40
2.265210999999999
 50
270.00576699999999
 51
286.46112799999992
  0
ARC
  5
156
  8
0
 62
     7
 10
105.96148599999999
 20
187.01940400000001
 30
0.0
 40
1.2925770000000001
 50
288.25801200000001
 51
306.12550199999993
  0
ARC
  5
157
  8
0
 62
     7
 10
105.725025
 20
185.13025999999999
 30
0.0
 40
2.2682720000000001
 50
90.005863000000005
 51
106.43839299999991
  0
ARC
  5
158
  8
0
 62
     7
 10
105.4889409999999
 20
186.07347200000001
 30
0.0
 40
1.297437999999999
 50
108.226333
 51
126.014912
  0
ARC
  5
159
  8
0
 62
     7
 10
105.72456
 20
185.13025999999999
 30
0.0
 40
2.2682720000000001
 50
73.561587000000003
 51
89.994117000000017
  0
ARC
  5
15A
  8
0
 62
     7
 10
105.96064299999991
 20
186.07347200000001
 30
0.0
 40
1.297437999999999
 50
53.985067999999998
 51
71.773646999999997
  0
LINE
  5
15B
  8
0
 62
     7
 10
107.5949999999999
 20
187.59
 30
0.0
 11
108.0629999999999
 21
187.12299999999991
 31
0.0
  0
LINE
  5
15C
  8
0
 62
     7
 10
108.0629999999999
 20
185.97499999999999
 30
0.0
 11
107.5949999999999
 21
185.50699999999989
 31
0.0
  0
LINE
  5
15D
  8
0
 62
     7
 10
104.726
 20
185.97499999999999
 30
0.0
 11
104.726
 21
187.12299999999991
 31
0.0
  0
LINE
  5
15E
  8
0
 62
     7
 10
106.7239999999999
 20
185.97499999999999
 30
0.0
 11
106.7239999999999
 21
187.12299999999991
 31
0.0
  0
LINE
  5
15F
  8
0
 62
     7
 10
106.88799999999991
 20
185.03599999999989
 30
0.0
 11
106.88799999999991
 21
185.50699999999989
 31
0.0
  0
LINE
  5
160
  8
0
 62
     7
 10
108.0629999999999
 20
185.97499999999999
 30
0.0
 11
108.0629999999999
 21
187.12299999999991
 31
0.0
  0
LINE
  5
161
  8
0
 62
     7
 10
103.366
 20
187.59
 30
0.0
 11
107.5949999999999
 21
187.59
 31
0.0
  0
LINE
  5
162
  8
0
 62
     7
 10
103.366
 20
187.12299999999991
 30
0.0
 11
104.726
 21
187.12299999999991
 31
0.0
  0
LINE
  5
163
  8
0
 62
     7
 10
106.7239999999999
 20
187.12299999999991
 30
0.0
 11
108.0629999999999
 21
187.12299999999991
 31
0.0
  0
LINE
  5
164
  8
0
 62
     7
 10
103.366
 20
185.97499999999999
 30
0.0
 11
104.726
 21
185.97499999999999
 31
0.0
  0
LINE
  5
165
  8
0
 62
     7
 10
106.7239999999999
 20
185.97499999999999
 30
0.0
 11
108.0629999999999
 21
185.97499999999999
 31
0.0
  0
LINE
  5
166
  8
0
 62
     7
 10
103.366
 20
185.03599999999989
 30
0.0
 11
106.88799999999991
 21
185.03599999999989
 31
0.0
  0
LINE
  5
167
  8
0
 62
     7
 10
103.366
 20
184.464
 30
0.0
 11
106.6659999999999
 21
184.464
 31
0.0
  0
LINE
  5
168
  8
0
 62
     7
 10
103.366
 20
185.50699999999989
 30
0.0
 11
107.5949999999999
 21
185.50699999999989
 31
0.0
  0
ARC
  5
169
  8
0
 62
     7
 10
101.006821
 20
187.9642659999999
 30
0.0
 40
2.265210999999999
 50
270.00576699999999
 51
286.46112799999992
  0
ARC
  5
16A
  8
0
 62
     7
 10
101.2437419999999
 20
187.01940400000001
 30
0.0
 40
1.2925770000000001
 50
288.25801200000001
 51
306.12550199999993
  0
ARC
  5
16B
  8
0
 62
     7
 10
101.007277
 20
187.96449299999989
 30
0.0
 40
2.265436999999999
 50
253.53971999999999
 51
269.99424199999987
  0
ARC
  5
16C
  8
0
 62
     7
 10
100.77078399999991
 20
187.020884
 30
0.0
 40
1.294127
 50
233.89164099999991
 51
251.74313399999991
  0
ARC
  5
16D
  8
0
 62
     7
 10
101.006816
 20
185.13025999999999
 30
0.0
 40
2.2682720000000001
 50
73.561587000000003
 51
89.994117000000017
  0
ARC
  5
16E
  8
0
 62
     7
 10
101.24290000000001
 20
186.07347200000001
 30
0.0
 40
1.297437999999999
 50
53.985067999999998
 51
71.773646999999997
  0
ARC
  5
16F
  8
0
 62
     7
 10
101.0072819999999
 20
185.13003299999991
 30
0.0
 40
2.2684989999999998
 50
90.005874000000006
 51
106.437566
  0
ARC
  5
170
  8
0
 62
     7
 10
100.771629
 20
186.07198199999999
 30
0.0
 40
1.298997999999999
 50
108.225211
 51
125.9978169999999
  0
LINE
  5
171
  8
0
 62
     7
 10
99.136700000000005
 20
187.59
 30
0.0
 11
98.668700000000001
 21
187.12299999999991
 31
0.0
  0
LINE
  5
172
  8
0
 62
     7
 10
99.565799999999996
 20
203.3549999999999
 30
0.0
 11
99.565799999999996
 21
208.32299999999989
 31
0.0
  0
LINE
  5
173
  8
0
 62
     7
 10
107.166
 20
203.3549999999999
 30
0.0
 11
107.166
 21
208.32299999999989
 31
0.0
  0
LINE
  5
174
  8
0
 62
     7
 10
106.566
 20
187.59
 30
0.0
 11
106.566
 21
200.91900000000001
 31
0.0
  0
LINE
  5
175
  8
0
 62
     7
 10
100.1659999999999
 20
187.59
 30
0.0
 11
100.1659999999999
 21
200.91900000000001
 31
0.0
  0
LINE
  5
176
  8
0
 62
     7
 10
106.566
 20
174.16
 30
0.0
 11
106.566
 21
184.464
 31
0.0
  0
LINE
  5
177
  8
0
 62
     7
 10
98.668700000000001
 20
185.97499999999999
 30
0.0
 11
99.136700000000005
 21
185.50699999999989
 31
0.0
  0
LINE
  5
178
  8
0
 62
     7
 10
102.0059999999999
 20
185.97499999999999
 30
0.0
 11
102.0059999999999
 21
187.12299999999991
 31
0.0
  0
LINE
  5
179
  8
0
 62
     7
 10
100.008
 20
185.97499999999999
 30
0.0
 11
100.008
 21
187.12299999999991
 31
0.0
  0
LINE
  5
17A
  8
0
 62
     7
 10
100.1659999999999
 20
174.16
 30
0.0
 11
100.1659999999999
 21
184.464
 31
0.0
  0
LINE
  5
17B
  8
0
 62
     7
 10
98.668700000000001
 20
185.97499999999999
 30
0.0
 11
98.668700000000001
 21
187.12299999999991
 31
0.0
  0
LINE
  5
17C
  8
0
 62
     7
 10
103.366
 20
187.59
 30
0.0
 11
99.136700000000005
 21
187.59
 31
0.0
  0
LINE
  5
17D
  8
0
 62
     7
 10
103.366
 20
187.12299999999991
 30
0.0
 11
102.0059999999999
 21
187.12299999999991
 31
0.0
  0
LINE
  5
17E
  8
0
 62
     7
 10
100.008
 20
187.12299999999991
 30
0.0
 11
98.668700000000001
 21
187.12299999999991
 31
0.0
  0
LINE
  5
17F
  8
0
 62
     7
 10
103.366
 20
185.97499999999999
 30
0.0
 11
102.0059999999999
 21
185.97499999999999
 31
0.0
  0
LINE
  5
180
  8
0
 62
     7
 10
100.008
 20
185.97499999999999
 30
0.0
 11
98.668700000000001
 21
185.97499999999999
 31
0.0
  0
LINE
  5
181
  8
0
 62
     7
 10
103.366
 20
185.50699999999989
 30
0.0
 11
99.136700000000005
 21
185.50699999999989
 31
0.0
  0
LINE
  5
182
  8
0
 62
     7
 10
116.2439999999999
 20
174.80500000000001
 30
0.0
 11
116.46599999999999
 21
174.23400000000001
 31
0.0
  0
LINE
  5
183
  8
0
 62
     7
 10
116.2439999999999
 20
174.80500000000001
 30
0.0
 11
116.2439999999999
 21
175.27799999999999
 31
0.0
  0
LINE
  5
184
  8
0
 62
     7
 10
119.76600000000001
 20
174.80500000000001
 30
0.0
 11
116.2439999999999
 21
174.80500000000001
 31
0.0
  0
LINE
  5
185
  8
0
 62
     7
 10
106.566
 20
175.39599999999999
 30
0.0
 11
100.1659999999999
 21
175.39599999999999
 31
0.0
  0
LINE
  5
186
  8
0
 62
     7
 10
106.566
 20
174.81200000000001
 30
0.0
 11
100.1659999999999
 21
174.81200000000001
 31
0.0
  0
LINE
  5
187
  8
0
 62
     7
 10
119.76600000000001
 20
174.23400000000001
 30
0.0
 11
116.46599999999999
 21
174.23400000000001
 31
0.0
  0
LINE
  5
188
  8
0
 62
     7
 10
123.2879999999999
 20
174.80500000000001
 30
0.0
 11
123.066
 21
174.23400000000001
 31
0.0
  0
ARC
  5
189
  8
0
 62
     7
 10
111.5655559999999
 20
174.16041200000001
 30
0.0
 40
11.400326
 50
270.00045299999999
 51
0.000423
  0
ARC
  5
18A
  8
0
 62
     7
 10
111.5658999999999
 20
174.16023599999991
 30
0.0
 40
11.400149000000001
 50
179.99867199999991
 51
269.99872099999988
  0
ARC
  5
18B
  8
0
 62
     7
 10
111.5659009999999
 20
174.16075599999999
 30
0.0
 40
5.0003299999999991
 50
269.99705899999992
 51
359.99702899999988
  0
ARC
  5
18C
  8
0
 62
     7
 10
111.5659009999999
 20
174.160237
 30
0.0
 40
4.9998120000000004
 50
179.99700899999999
 51
269.99705899999992
  0
ARC
  5
18D
  8
0
  6
AIGENLINE001
 62
     7
 10
111.5659009999999
 20
174.16075599999999
 30
0.0
 40
8.2001559999999998
 50
269.99821400000002
 51
359.99818499999998
  0
ARC
  5
18E
  8
0
  6
AIGENLINE001
 62
     7
 10
111.5655559999999
 20
174.16058100000001
 30
0.0
 40
8.1999809999999993
 50
180.00061199999999
 51
270.00062200000002
  0
LINE
  5
18F
  8
0
  6
AIGENLINE001
 62
     7
 10
119.76600000000001
 20
177.36000000000001
 30
0.0
 11
119.76600000000001
 21
174.16
 31
0.0
  0
LINE
  5
190
  8
0
  6
AIGENLINE001
 62
     7
 10
103.366
 20
203.9309999999999
 30
0.0
 11
103.366
 21
174.16
 31
0.0
  0
ARC
  5
191
  8
0
 62
     7
 10
122.1248139999999
 20
177.73660000000001
 30
0.0
 40
2.2669589999999991
 50
253.5558529999999
 51
269.99419699999999
  0
ARC
  5
192
  8
0
 62
     7
 10
121.889686
 20
176.7969709999999
 30
0.0
 40
1.2998350000000001
 50
234.009918
 51
251.77119099999999
  0
ARC
  5
193
  8
0
 62
     7
 10
122.12436
 20
177.7387939999999
 30
0.0
 40
2.2691529999999989
 50
270.00566499999991
 51
286.43616099999991
  0
ARC
  5
194
  8
0
 62
     7
 10
122.359831
 20
176.797009
 30
0.0
 40
1.2998620000000001
 50
288.22718900000001
 51
305.98894000000001
  0
ARC
  5
195
  8
0
 62
     7
 10
122.1248139999999
 20
174.90146899999991
 30
0.0
 40
2.2669589999999991
 50
90.005803000000014
 51
106.444147
  0
ARC
  5
196
  8
0
 62
     7
 10
121.889686
 20
175.8410979999999
 30
0.0
 40
1.2998350000000001
 50
108.228809
 51
125.9900819999999
  0
ARC
  5
197
  8
0
 62
     7
 10
122.12436
 20
174.89927599999999
 30
0.0
 40
2.2691529999999989
 50
73.563839000000002
 51
89.994335000000007
  0
ARC
  5
198
  8
0
 62
     7
 10
122.359831
 20
175.84105999999991
 30
0.0
 40
1.2998620000000001
 50
54.011060000000001
 51
71.772811000000004
  0
LINE
  5
199
  8
0
 62
     7
 10
123.995
 20
177.36000000000001
 30
0.0
 11
124.462
 21
176.893
 31
0.0
  0
LINE
  5
19A
  8
0
 62
     7
 10
124.462
 20
175.745
 30
0.0
 11
123.995
 21
175.27799999999999
 31
0.0
  0
LINE
  5
19B
  8
0
 62
     7
 10
121.126
 20
175.745
 30
0.0
 11
121.126
 21
176.893
 31
0.0
  0
LINE
  5
19C
  8
0
 62
     7
 10
123.1239999999999
 20
175.745
 30
0.0
 11
123.1239999999999
 21
176.893
 31
0.0
  0
LINE
  5
19D
  8
0
 62
     7
 10
123.2879999999999
 20
174.80500000000001
 30
0.0
 11
123.2879999999999
 21
175.27799999999999
 31
0.0
  0
LINE
  5
19E
  8
0
 62
     7
 10
124.462
 20
175.745
 30
0.0
 11
124.462
 21
176.893
 31
0.0
  0
LINE
  5
19F
  8
0
 62
     7
 10
119.76600000000001
 20
177.36000000000001
 30
0.0
 11
123.995
 21
177.36000000000001
 31
0.0
  0
LINE
  5
1A0
  8
0
 62
     7
 10
119.76600000000001
 20
176.893
 30
0.0
 11
121.126
 21
176.893
 31
0.0
  0
LINE
  5
1A1
  8
0
 62
     7
 10
123.1239999999999
 20
176.893
 30
0.0
 11
124.462
 21
176.893
 31
0.0
  0
LINE
  5
1A2
  8
0
 62
     7
 10
119.76600000000001
 20
175.745
 30
0.0
 11
121.126
 21
175.745
 31
0.0
  0
LINE
  5
1A3
  8
0
 62
     7
 10
123.1239999999999
 20
175.745
 30
0.0
 11
124.462
 21
175.745
 31
0.0
  0
LINE
  5
1A4
  8
0
 62
     7
 10
119.76600000000001
 20
174.80500000000001
 30
0.0
 11
123.2879999999999
 21
174.80500000000001
 31
0.0
  0
LINE
  5
1A5
  8
0
 62
     7
 10
119.76600000000001
 20
174.23400000000001
 30
0.0
 11
123.066
 21
174.23400000000001
 31
0.0
  0
LINE
  5
1A6
  8
0
 62
     7
 10
119.76600000000001
 20
175.27799999999999
 30
0.0
 11
123.995
 21
175.27799999999999
 31
0.0
  0
ARC
  5
1A7
  8
0
 62
     7
 10
117.40660800000001
 20
177.73765700000001
 30
0.0
 40
2.2680169999999991
 50
270.00587400000001
 51
286.44030600000002
  0
ARC
  5
1A8
  8
0
 62
     7
 10
117.6429759999999
 20
176.794218
 30
0.0
 40
1.29688
 50
288.22123799999991
 51
306.01731100000001
  0
ARC
  5
1A9
  8
0
 62
     7
 10
117.407072
 20
177.73765700000001
 30
0.0
 40
2.2680169999999991
 50
253.55971400000001
 51
269.994146
  0
ARC
  5
1AA
  8
0
 62
     7
 10
117.1707049999999
 20
176.794218
 30
0.0
 40
1.29688
 50
233.98270899999989
 51
251.77878199999989
  0
ARC
  5
1AB
  8
0
 62
     7
 10
117.40660800000001
 20
174.90041199999999
 30
0.0
 40
2.2680169999999991
 50
73.559693999999993
 51
89.994125999999994
  0
ARC
  5
1AC
  8
0
 62
     7
 10
117.6429759999999
 20
175.84385099999989
 30
0.0
 40
1.29688
 50
53.982689000000001
 51
71.778762
  0
ARC
  5
1AD
  8
0
 62
     7
 10
117.407072
 20
174.90041199999999
 30
0.0
 40
2.2680169999999991
 50
90.005853999999999
 51
106.4402859999999
  0
ARC
  5
1AE
  8
0
 62
     7
 10
117.1707049999999
 20
175.84385099999989
 30
0.0
 40
1.29688
 50
108.22121799999989
 51
126.017291
  0
LINE
  5
1AF
  8
0
 62
     7
 10
115.5359999999999
 20
177.36000000000001
 30
0.0
 11
115.0689999999999
 21
176.893
 31
0.0
  0
LINE
  5
1B0
  8
0
 62
     7
 10
122.96599999999999
 20
174.16
 30
0.0
 11
122.96599999999999
 21
174.23400000000001
 31
0.0
  0
LINE
  5
1B1
  8
0
 62
     7
 10
115.0689999999999
 20
175.745
 30
0.0
 11
115.5359999999999
 21
175.27799999999999
 31
0.0
  0
LINE
  5
1B2
  8
0
 62
     7
 10
118.40600000000001
 20
175.745
 30
0.0
 11
118.40600000000001
 21
176.893
 31
0.0
  0
LINE
  5
1B3
  8
0
 62
     7
 10
116.408
 20
175.745
 30
0.0
 11
116.408
 21
176.893
 31
0.0
  0
LINE
  5
1B4
  8
0
 62
     7
 10
116.566
 20
174.16
 30
0.0
 11
116.566
 21
174.23400000000001
 31
0.0
  0
LINE
  5
1B5
  8
0
 62
     7
 10
115.0689999999999
 20
175.745
 30
0.0
 11
115.0689999999999
 21
176.893
 31
0.0
  0
LINE
  5
1B6
  8
0
 62
     7
 10
119.76600000000001
 20
177.36000000000001
 30
0.0
 11
115.5359999999999
 21
177.36000000000001
 31
0.0
  0
LINE
  5
1B7
  8
0
 62
     7
 10
119.76600000000001
 20
176.893
 30
0.0
 11
118.40600000000001
 21
176.893
 31
0.0
  0
LINE
  5
1B8
  8
0
 62
     7
 10
116.408
 20
176.893
 30
0.0
 11
115.0689999999999
 21
176.893
 31
0.0
  0
LINE
  5
1B9
  8
0
 62
     7
 10
119.76600000000001
 20
175.745
 30
0.0
 11
118.40600000000001
 21
175.745
 31
0.0
  0
LINE
  5
1BA
  8
0
 62
     7
 10
116.408
 20
175.745
 30
0.0
 11
115.0689999999999
 21
175.745
 31
0.0
  0
LINE
  5
1BB
  8
0
 62
     7
 10
119.76600000000001
 20
175.27799999999999
 30
0.0
 11
115.5359999999999
 21
175.27799999999999
 31
0.0
  0
ARC
  5
1BC
  8
0
 62
     7
 10
127.96569599999999
 20
177.36023299999991
 30
0.0
 40
11.400152999999991
 50
89.999566999999999
 51
179.99953699999989
  0
ARC
  5
1BD
  8
0
 62
     7
 10
127.9656919999999
 20
177.36040499999999
 30
0.0
 40
11.399981
 50
359.99957699999999
 51
89.999546999999993
  0
ARC
  5
1BE
  8
0
 62
     7
 10
127.9656949999999
 20
177.36023399999999
 30
0.0
 40
5.000157999999999
 50
89.999013000000005
 51
179.99898300000001
  0
ARC
  5
1BF
  8
0
 62
     7
 10
127.9656929999999
 20
177.36040600000001
 30
0.0
 40
4.9999859999999989
 50
359.99902300000002
 51
89.998992999999999
  0
ARC
  5
1C0
  8
0
  6
AIGENLINE001
 62
     7
 10
127.9656949999999
 20
177.36023399999999
 30
0.0
 40
8.1999829999999996
 50
89.999397999999985
 51
179.999368
  0
ARC
  5
1C1
  8
0
  6
AIGENLINE001
 62
     7
 10
127.96586499999999
 20
177.36023399999999
 30
0.0
 40
8.1999829999999996
 50
0.000612
 51
90.000581999999994
  0
LINE
  5
1C2
  8
0
 62
     7
 10
119.76600000000001
 20
170.18199999999999
 30
0.0
 11
119.76600000000001
 21
152.614
 31
0.0
  0
LINE
  5
1C3
  8
0
 62
     7
 10
103.366
 20
170.59399999999999
 30
0.0
 11
103.366
 21
152.42099999999999
 31
0.0
  0
LINE
  5
1C4
  8
0
 62
     7
 10
65.560199999999995
 20
165.9609999999999
 30
0.0
 11
65.560199999999995
 21
63.959299999999992
 31
0.0
  0
LINE
  5
1C5
  8
0
 62
     7
 10
71.960599999999999
 20
165.9609999999999
 30
0.0
 11
71.960599999999999
 21
63.959299999999992
 31
0.0
  0
LINE
  5
1C6
  8
0
 62
     7
 10
65.560199999999995
 20
57.558999999999997
 30
0.0
 11
65.560199999999995
 21
50.559199999999997
 31
0.0
  0
LINE
  5
1C7
  8
0
 62
     7
 10
71.960599999999999
 20
57.558999999999997
 30
0.0
 11
71.960599999999999
 21
50.559199999999997
 31
0.0
  0
LINE
  5
1C8
  8
0
 62
     7
 10
75.763999999999996
 20
58.375399999999999
 30
0.0
 11
75.763999999999996
 21
60.233699999999992
 31
0.0
  0
ARC
  5
1C9
  8
0
 62
     7
 10
75.989946000000003
 20
64.863360999999983
 30
0.0
 40
3.0967839999999991
 50
216.63811499999991
 51
242.156194
  0
ARC
  5
1CA
  8
0
 62
     7
 10
73.640993000000009
 20
60.203285999999999
 30
0.0
 40
2.1232109999999991
 50
0.821887
 51
64.843508999999983
  0
LINE
  5
1CB
  8
0
 62
     7
 10
73.504999999999995
 20
63.015300000000003
 30
0.0
 11
72.780199999999994
 21
63.959299999999992
 31
0.0
  0
LINE
  5
1CC
  8
0
 62
     7
 10
75.763999999999996
 20
58.375399999999999
 30
0.0
 11
75.763999999999996
 21
60.233699999999992
 31
0.0
  0
ARC
  5
1CD
  8
0
 62
     7
 10
61.528956000000001
 20
64.866192999999996
 30
0.0
 40
3.100422
 50
297.85905000000002
 51
323.34667999999988
  0
ARC
  5
1CE
  8
0
 62
     7
 10
63.880623
 20
60.203293999999993
 30
0.0
 40
2.123324999999999
 50
115.16355900000001
 51
179.17837399999991
  0
LINE
  5
1CF
  8
0
 62
     7
 10
64.016300000000001
 20
63.015300000000003
 30
0.0
 11
64.740600000000001
 21
63.959299999999992
 31
0.0
  0
LINE
  5
1D0
  8
0
 62
     7
 10
61.7575
 20
58.375399999999999
 30
0.0
 11
61.7575
 21
60.233699999999992
 31
0.0
  0
LINE
  5
1D1
  8
0
 62
     7
 10
76.260400000000004
 20
58.375399999999999
 30
0.0
 11
76.260400000000004
 21
57.558999999999997
 31
0.0
  0
LINE
  5
1D2
  8
0
 62
     7
 10
61.26039999999999
 20
58.375399999999999
 30
0.0
 11
61.26039999999999
 21
57.558999999999997
 31
0.0
  0
LINE
  5
1D3
  8
0
 62
     7
 10
63.825299999999999
 20
62.0321
 30
0.0
 11
73.696100000000001
 21
62.0321
 31
0.0
  0
LINE
  5
1D4
  8
0
 62
     7
 10
64.740600000000001
 20
63.959299999999992
 30
0.0
 11
72.780199999999994
 21
63.959299999999992
 31
0.0
  0
LINE
  5
1D5
  8
0
 62
     7
 10
61.26039999999999
 20
58.375399999999999
 30
0.0
 11
76.260400000000004
 21
58.375399999999999
 31
0.0
  0
LINE
  5
1D6
  8
0
 62
     7
 10
65.560199999999995
 20
50.559199999999997
 30
0.0
 11
71.960599999999999
 21
50.559199999999997
 31
0.0
  0
LINE
  5
1D7
  8
0
 62
     7
 10
61.26039999999999
 20
57.558999999999997
 30
0.0
 11
76.260400000000004
 21
57.558999999999997
 31
0.0
  0
LINE
  5
1D8
  8
0
 62
     7
 10
132.96600000000001
 20
177.36000000000001
 30
0.0
 11
132.96600000000001
 21
63.959299999999992
 31
0.0
  0
LINE
  5
1D9
  8
0
 62
     7
 10
139.36600000000001
 20
177.36000000000001
 30
0.0
 11
139.36600000000001
 21
63.959299999999992
 31
0.0
  0
LINE
  5
1DA
  8
0
 62
     7
 10
128.66599999999991
 20
57.102800000000002
 30
0.0
 11
128.66599999999991
 21
39.237499999999997
 31
0.0
  0
LINE
  5
1DB
  8
0
 62
     7
 10
143.666
 20
57.102800000000002
 30
0.0
 11
143.666
 21
39.237499999999997
 31
0.0
  0
LINE
  5
1DC
  8
0
 62
     7
 10
130.87700000000001
 20
40.6355
 30
0.0
 11
128.66499999999991
 21
40.043300000000002
 31
0.0
  0
LINE
  5
1DD
  8
0
 62
     7
 10
128.66499999999991
 20
40.043300000000002
 30
0.0
 11
130.87700000000001
 21
39.45109999999999
 31
0.0
  0
LINE
  5
1DE
  8
0
 62
     7
 10
130.87700000000001
 20
39.45109999999999
 30
0.0
 11
130.87700000000001
 21
40.6355
 31
0.0
  0
LINE
  5
1DF
  8
0
 62
     7
 10
141.45500000000001
 20
39.465499999999999
 30
0.0
 11
143.666
 21
40.0578
 31
0.0
  0
LINE
  5
1E0
  8
0
 62
     7
 10
143.666
 20
40.0578
 30
0.0
 11
141.45500000000001
 21
40.649999999999999
 31
0.0
  0
LINE
  5
1E1
  8
0
 62
     7
 10
141.45500000000001
 20
40.649999999999999
 30
0.0
 11
141.45500000000001
 21
39.465499999999999
 31
0.0
  0
LINE
  5
1E2
  8
0
 62
     7
 10
128.66599999999991
 20
40.050499999999992
 30
0.0
 11
143.666
 21
40.050499999999992
 31
0.0
  0
LINE
  5
1E3
  8
0
 62
     7
 10
132.96600000000001
 20
50.022399999999998
 30
0.0
 11
132.96600000000001
 21
44.038899999999991
 31
0.0
  0
LINE
  5
1E4
  8
0
 62
     7
 10
139.36600000000001
 20
50.022399999999998
 30
0.0
 11
139.36600000000001
 21
44.038899999999991
 31
0.0
  0
LINE
  5
1E5
  8
0
 62
     7
 10
132.96600000000001
 20
57.558999999999997
 30
0.0
 11
132.96600000000001
 21
50.559199999999997
 31
0.0
  0
LINE
  5
1E6
  8
0
 62
     7
 10
139.36600000000001
 20
57.558999999999997
 30
0.0
 11
139.36600000000001
 21
50.559199999999997
 31
0.0
  0
LINE
  5
1E7
  8
0
  6
AIGENLINE001
 62
     7
 10
136.166
 20
177.36000000000001
 30
0.0
 11
136.166
 21
49.229999999999997
 31
0.0
  0
LINE
  5
1E8
  8
0
 62
     7
 10
121.9759999999999
 20
153.87
 30
0.0
 11
119.765
 21
153.27799999999991
 31
0.0
  0
LINE
  5
1E9
  8
0
 62
     7
 10
119.765
 20
153.27799999999991
 30
0.0
 11
121.9759999999999
 21
152.68600000000001
 31
0.0
  0
LINE
  5
1EA
  8
0
 62
     7
 10
121.9759999999999
 20
152.68600000000001
 30
0.0
 11
121.9759999999999
 21
153.87
 31
0.0
  0
LINE
  5
1EB
  8
0
 62
     7
 10
133.95500000000001
 20
152.70099999999991
 30
0.0
 11
136.166
 21
153.29300000000001
 31
0.0
  0
LINE
  5
1EC
  8
0
 62
     7
 10
136.166
 20
153.29300000000001
 30
0.0
 11
133.95500000000001
 21
153.88499999999999
 31
0.0
  0
LINE
  5
1ED
  8
0
 62
     7
 10
133.95500000000001
 20
153.88499999999999
 30
0.0
 11
133.95500000000001
 21
152.70099999999991
 31
0.0
  0
LINE
  5
1EE
  8
0
 62
     7
 10
119.76600000000001
 20
153.285
 30
0.0
 11
136.166
 21
153.285
 31
0.0
  0
LINE
  5
1EF
  8
0
 62
     7
 10
105.57599999999999
 20
153.87
 30
0.0
 11
103.3649999999999
 21
153.27799999999991
 31
0.0
  0
LINE
  5
1F0
  8
0
 62
     7
 10
103.3649999999999
 20
153.27799999999991
 30
0.0
 11
105.57599999999999
 21
152.68600000000001
 31
0.0
  0
LINE
  5
1F1
  8
0
 62
     7
 10
105.57599999999999
 20
152.68600000000001
 30
0.0
 11
105.57599999999999
 21
153.87
 31
0.0
  0
LINE
  5
1F2
  8
0
 62
     7
 10
117.55500000000001
 20
152.70099999999991
 30
0.0
 11
119.76600000000001
 21
153.29300000000001
 31
0.0
  0
LINE
  5
1F3
  8
0
 62
     7
 10
119.76600000000001
 20
153.29300000000001
 30
0.0
 11
117.55500000000001
 21
153.88499999999999
 31
0.0
  0
LINE
  5
1F4
  8
0
 62
     7
 10
117.55500000000001
 20
153.88499999999999
 30
0.0
 11
117.55500000000001
 21
152.70099999999991
 31
0.0
  0
LINE
  5
1F5
  8
0
 62
     7
 10
103.366
 20
153.285
 30
0.0
 11
119.76600000000001
 21
153.285
 31
0.0
  0
LINE
  5
1F6
  8
0
 62
     7
 10
130.86999999999989
 20
185.56
 30
0.0
 11
154.33000000000001
 21
185.56
 31
0.0
  0
LINE
  5
1F7
  8
0
 62
     7
 10
140.1329999999999
 20
50.559199999999997
 30
0.0
 11
154.6269999999999
 21
50.559199999999997
 31
0.0
  0
LINE
  5
1F8
  8
0
 62
     7
 10
115.45399999999989
 20
165.96000000000001
 30
0.0
 11
147.90199999999999
 21
165.96000000000001
 31
0.0
  0
LINE
  5
1F9
  8
0
 62
     7
 10
143.1689999999999
 20
58.375399999999999
 30
0.0
 11
143.1689999999999
 21
60.233699999999992
 31
0.0
  0
ARC
  5
1FA
  8
0
 62
     7
 10
143.39587399999999
 20
64.864610999999996
 30
0.0
 40
3.0981969999999999
 50
216.64748700000001
 51
242.15621200000001
  0
ARC
  5
1FB
  8
0
 62
     7
 10
141.04527300000001
 20
60.202841000000006
 30
0.0
 40
2.1240349999999988
 50
0.833575
 51
64.824451999999994
  0
LINE
  5
1FC
  8
0
 62
     7
 10
140.91
 20
63.015300000000003
 30
0.0
 11
140.185
 21
63.959299999999992
 31
0.0
  0
LINE
  5
1FD
  8
0
 62
     7
 10
143.1689999999999
 20
58.375399999999999
 30
0.0
 11
143.1689999999999
 21
60.233699999999992
 31
0.0
  0
ARC
  5
1FE
  8
0
 62
     7
 10
128.932624
 20
64.867781000000008
 30
0.0
 40
3.1026539999999998
 50
297.87430899999998
 51
323.34081499999991
  0
ARC
  5
1FF
  8
0
 62
     7
 10
131.28619299999991
 20
60.202824999999997
 30
0.0
 40
2.1238039999999998
 50
115.161297
 51
179.16589899999991
  0
LINE
  5
200
  8
0
 62
     7
 10
131.42199999999991
 20
63.015300000000003
 30
0.0
 11
132.14599999999999
 21
63.959299999999992
 31
0.0
  0
LINE
  5
201
  8
0
 62
     7
 10
129.1629999999999
 20
58.375399999999999
 30
0.0
 11
129.1629999999999
 21
60.233699999999992
 31
0.0
  0
LINE
  5
202
  8
0
 62
     7
 10
143.666
 20
58.375399999999999
 30
0.0
 11
143.666
 21
57.558999999999997
 31
0.0
  0
LINE
  5
203
  8
0
 62
     7
 10
128.66499999999991
 20
58.375399999999999
 30
0.0
 11
128.66499999999991
 21
57.558999999999997
 31
0.0
  0
LINE
  5
204
  8
0
 62
     7
 10
131.23099999999991
 20
62.0321
 30
0.0
 11
141.101
 21
62.0321
 31
0.0
  0
LINE
  5
205
  8
0
 62
     7
 10
132.14599999999999
 20
63.959299999999992
 30
0.0
 11
140.185
 21
63.959299999999992
 31
0.0
  0
LINE
  5
206
  8
0
 62
     7
 10
128.66499999999991
 20
58.375399999999999
 30
0.0
 11
143.666
 21
58.375399999999999
 31
0.0
  0
LINE
  5
207
  8
0
 62
     7
 10
152.90399999999991
 20
52.76959999999999
 30
0.0
 11
153.49600000000001
 21
50.559199999999997
 31
0.0
  0
LINE
  5
208
  8
0
 62
     7
 10
153.49600000000001
 20
50.559199999999997
 30
0.0
 11
154.08799999999999
 21
52.76959999999999
 31
0.0
  0
LINE
  5
209
  8
0
 62
     7
 10
154.08799999999999
 20
52.76959999999999
 30
0.0
 11
152.90399999999991
 21
52.76959999999999
 31
0.0
  0
LINE
  5
20A
  8
0
 62
     7
 10
154.0739999999999
 20
183.34999999999991
 30
0.0
 11
153.48099999999999
 21
185.56
 31
0.0
  0
LINE
  5
20B
  8
0
 62
     7
 10
153.48099999999999
 20
185.56
 30
0.0
 11
152.88900000000001
 21
183.34999999999991
 31
0.0
  0
LINE
  5
20C
  8
0
 62
     7
 10
152.88900000000001
 20
183.34999999999991
 30
0.0
 11
154.0739999999999
 21
183.34999999999991
 31
0.0
  0
LINE
  5
20D
  8
0
 62
     7
 10
153.489
 20
50.559199999999997
 30
0.0
 11
153.489
 21
185.56
 31
0.0
  0
LINE
  5
20E
  8
0
 62
     7
 10
146.63499999999999
 20
168.16999999999999
 30
0.0
 11
147.22699999999989
 21
165.96000000000001
 31
0.0
  0
LINE
  5
20F
  8
0
 62
     7
 10
147.22699999999989
 20
165.96000000000001
 30
0.0
 11
147.8189999999999
 21
168.16999999999999
 31
0.0
  0
LINE
  5
210
  8
0
 62
     7
 10
147.8189999999999
 20
168.16999999999999
 30
0.0
 11
146.63499999999999
 21
168.16999999999999
 31
0.0
  0
LINE
  5
211
  8
0
 62
     7
 10
147.80500000000001
 20
183.34999999999991
 30
0.0
 11
147.21299999999991
 21
185.56
 31
0.0
  0
LINE
  5
212
  8
0
 62
     7
 10
147.21299999999991
 20
185.56
 30
0.0
 11
146.62
 21
183.34999999999991
 31
0.0
  0
LINE
  5
213
  8
0
 62
     7
 10
146.62
 20
183.34999999999991
 30
0.0
 11
147.80500000000001
 21
183.34999999999991
 31
0.0
  0
LINE
  5
214
  8
0
 62
     7
 10
147.21999999999991
 20
165.96000000000001
 30
0.0
 11
147.21999999999991
 21
185.56
 31
0.0
  0
LINE
  5
215
  8
0
 62
     7
 10
135.17599999999999
 20
45.499000000000002
 30
0.0
 11
132.96600000000001
 21
44.906799999999997
 31
0.0
  0
LINE
  5
216
  8
0
 62
     7
 10
132.96600000000001
 20
44.906799999999997
 30
0.0
 11
135.17599999999999
 21
44.314500000000002
 31
0.0
  0
LINE
  5
217
  8
0
 62
     7
 10
135.17599999999999
 20
44.314500000000002
 30
0.0
 11
135.17599999999999
 21
45.499000000000002
 31
0.0
  0
LINE
  5
218
  8
0
 62
     7
 10
137.155
 20
44.328999999999994
 30
0.0
 11
139.36600000000001
 21
44.921199999999992
 31
0.0
  0
LINE
  5
219
  8
0
 62
     7
 10
139.36600000000001
 20
44.921199999999992
 30
0.0
 11
137.155
 21
45.51339999999999
 31
0.0
  0
LINE
  5
21A
  8
0
 62
     7
 10
137.155
 20
45.51339999999999
 30
0.0
 11
137.155
 21
44.328999999999994
 31
0.0
  0
LINE
  5
21B
  8
0
 62
     7
 10
132.96600000000001
 20
44.913999999999987
 30
0.0
 11
139.36600000000001
 21
44.913999999999987
 31
0.0
  0
LINE
  5
21C
  8
0
 62
     7
 10
132.96600000000001
 20
50.559199999999997
 30
0.0
 11
139.36600000000001
 21
50.559199999999997
 31
0.0
  0
LINE
  5
21D
  8
0
 62
     7
 10
128.66499999999991
 20
57.558999999999997
 30
0.0
 11
143.666
 21
57.558999999999997
 31
0.0
  0
LINE
  5
21E
  8
0
 62
     7
 10
127.804
 20
57.558999999999997
 30
0.0
 11
120.526
 21
57.558999999999997
 31
0.0
  0
LINE
  5
21F
  8
0
 62
     7
 10
131.42199999999991
 20
63.959299999999992
 30
0.0
 11
120.5869999999999
 21
63.959299999999992
 31
0.0
  0
LINE
  5
220
  8
0
 62
     7
 10
122.004
 20
61.748899999999999
 30
0.0
 11
121.411
 21
63.959299999999992
 31
0.0
  0
LINE
  5
221
  8
0
 62
     7
 10
121.411
 20
63.959299999999992
 30
0.0
 11
120.819
 21
61.748899999999999
 31
0.0
  0
LINE
  5
222
  8
0
 62
     7
 10
120.819
 20
61.748899999999999
 30
0.0
 11
122.004
 21
61.748899999999999
 31
0.0
  0
LINE
  5
223
  8
0
 62
     7
 10
120.8339999999999
 20
59.769300000000001
 30
0.0
 11
121.426
 21
57.558999999999997
 31
0.0
  0
LINE
  5
224
  8
0
 62
     7
 10
121.426
 20
57.558999999999997
 30
0.0
 11
122.0179999999999
 21
59.769300000000001
 31
0.0
  0
LINE
  5
225
  8
0
 62
     7
 10
122.0179999999999
 20
59.769300000000001
 30
0.0
 11
120.8339999999999
 21
59.769300000000001
 31
0.0
  0
LINE
  5
226
  8
0
 62
     7
 10
121.419
 20
63.959299999999992
 30
0.0
 11
121.419
 21
57.558999999999997
 31
0.0
  0
LINE
  5
227
  8
0
 62
     7
 10
107.861
 20
165.96000000000001
 30
0.0
 11
91.522599999999997
 21
165.96000000000001
 31
0.0
  0
LINE
  5
228
  8
0
 62
     7
 10
98.184100000000001
 20
201.96000000000001
 30
0.0
 11
91.584000000000003
 21
201.96000000000001
 31
0.0
  0
LINE
  5
229
  8
0
 62
     7
 10
93.013300000000001
 20
199.75
 30
0.0
 11
92.421099999999996
 21
201.96000000000001
 31
0.0
  0
LINE
  5
22A
  8
0
 62
     7
 10
92.421099999999996
 20
201.96000000000001
 30
0.0
 11
91.828699999999984
 21
199.75
 31
0.0
  0
LINE
  5
22B
  8
0
 62
     7
 10
91.828699999999984
 20
199.75
 30
0.0
 11
93.013300000000001
 21
199.75
 31
0.0
  0
LINE
  5
22C
  8
0
 62
     7
 10
91.843400000000003
 20
168.16999999999999
 30
0.0
 11
92.435599999999994
 21
165.96000000000001
 31
0.0
  0
LINE
  5
22D
  8
0
 62
     7
 10
92.435599999999994
 20
165.96000000000001
 30
0.0
 11
93.027999999999992
 21
168.16999999999999
 31
0.0
  0
LINE
  5
22E
  8
0
 62
     7
 10
93.027999999999992
 20
168.16999999999999
 30
0.0
 11
91.843400000000003
 21
168.16999999999999
 31
0.0
  0
LINE
  5
22F
  8
0
 62
     7
 10
92.428399999999996
 20
201.96000000000001
 30
0.0
 11
92.428399999999996
 21
165.96000000000001
 31
0.0
  0
LINE
  5
230
  8
_________2
 62
     7
 10
205.30099999999999
 20
127.411
 30
0.0
 11
183.55000000000001
 21
127.411
 31
0.0
  0
LINE
  5
231
  8
_________2
 62
     7
 10
100.2999999999999
 20
-4.0910799999999998
 30
0.0
 11
100.2999999999999
 21
-21.070999999999991
 31
0.0
  0
LINE
  5
232
  8
_________2
 62
     7
 10
100.2999999999999
 20
275.93099999999993
 30
0.0
 11
100.2999999999999
 21
258.911
 31
0.0
  0
LINE
  5
233
  8
_________2
 62
     7
 10
17.049499999999998
 20
127.411
 30
0.0
 11
-4.7008599999999987
 21
127.411
 31
0.0
  0
LINE
  5
234
  8
_________2
 62
     7
 10
76.741
 20
29.8047
 30
0.0
 11
74.554699999999997
 21
29.8047
 31
0.0
  0
LINE
  5
235
  8
_________2
 62
     7
 10
77.233699999999999
 20
29.8047
 30
0.0
 11
76.981499999999997
 21
29.8047
 31
0.0
  0
LINE
  5
236
  8
_________2
 62
     7
 10
77.726299999999995
 20
29.8047
 30
0.0
 11
80.651200000000003
 21
29.8047
 31
0.0
  0
LINE
  5
237
  8
_________2
 62
     7
 10
77.233699999999999
 20
29.8047
 30
0.0
 11
77.485200000000006
 21
29.8047
 31
0.0
  0
LINE
  5
238
  8
_________2
 62
     7
 10
70.836799999999997
 20
29.8047
 30
0.0
 11
68.650499999999994
 21
29.8047
 31
0.0
  0
LINE
  5
239
  8
_________2
 62
     7
 10
71.329400000000007
 20
29.8047
 30
0.0
 11
71.077200000000005
 21
29.8047
 31
0.0
  0
LINE
  5
23A
  8
_________2
 62
     7
 10
71.329400000000007
 20
30.2974
 30
0.0
 11
71.329400000000007
 21
32.484400000000001
 31
0.0
  0
LINE
  5
23B
  8
_________2
 62
     7
 10
71.329400000000007
 20
29.8047
 30
0.0
 11
71.329400000000007
 21
30.057300000000001
 31
0.0
  0
LINE
  5
23C
  8
_________2
 62
     7
 10
71.822100000000006
 20
29.8047
 30
0.0
 11
74.009
 21
29.8047
 31
0.0
  0
LINE
  5
23D
  8
_________2
 62
     7
 10
71.329400000000007
 20
29.8047
 30
0.0
 11
71.581599999999995
 21
29.8047
 31
0.0
  0
LINE
  5
23E
  8
_________2
 62
     7
 10
71.329400000000007
 20
29.312799999999999
 30
0.0
 11
71.329400000000007
 21
27.126200000000001
 31
0.0
  0
LINE
  5
23F
  8
_________2
 62
     7
 10
71.329400000000007
 20
29.8047
 30
0.0
 11
71.329400000000007
 21
29.5532
 31
0.0
  0
LINE
  5
240
  8
_________2
 62
     7
 10
75.040499999999994
 20
28.5852
 30
0.0
 11
80.218500000000006
 21
27.720400000000001
 31
0.0
  0
LINE
  5
241
  8
_________2
 62
     7
 10
75.040499999999994
 20
31.024699999999999
 30
0.0
 11
80.218500000000006
 21
31.8901
 31
0.0
  0
LINE
  5
242
  8
_________2
 62
     7
 10
80.218500000000006
 20
27.720400000000001
 30
0.0
 11
80.218500000000006
 21
31.8901
 31
0.0
  0
LINE
  5
243
  8
_________2
 62
     7
 10
75.040499999999994
 20
28.5852
 30
0.0
 11
75.040499999999994
 21
31.024699999999999
 31
0.0
  0
ARC
  5
244
  8
_________2
 62
     7
 10
71.282178999999999
 20
29.757850000000001
 30
0.0
 40
1.2676899999999991
 50
2.1199219999999999
 51
87.863884999999996
  0
ARC
  5
245
  8
_________2
 62
     7
 10
71.375985
 20
29.758545999999999
 30
0.0
 40
1.2669680000000001
 50
92.105782999999988
 51
177.91037
  0
ARC
  5
246
  8
_________2
 62
     7
 10
71.376357999999996
 20
29.851671
 30
0.0
 40
1.2673680000000001
 50
182.12203600000001
 51
267.877993
  0
ARC
  5
247
  8
_________2
 62
     7
 10
71.282522999999983
 20
29.851649999999999
 30
0.0
 40
1.267347
 50
272.12114300000002
 51
357.87886700000001
  0
ARC
  5
248
  8
_________2
 62
     7
 10
71.249061999999995
 20
29.724731999999989
 30
0.0
 40
2.1668310000000002
 50
2.1161439999999989
 51
87.874379000000005
  0
ARC
  5
249
  8
_________2
 62
     7
 10
71.409081999999998
 20
29.72544899999999
 30
0.0
 40
2.1660879999999998
 50
92.107349999999997
 51
177.90208699999999
  0
ARC
  5
24A
  8
_________2
 62
     7
 10
71.408771999999999
 20
29.884799999999998
 30
0.0
 40
2.165807
 50
182.1183979999999
 51
267.90056900000002
  0
ARC
  5
24B
  8
_________2
 62
     7
 10
71.249459000000002
 20
29.885429999999989
 30
0.0
 40
2.1664590000000001
 50
272.11546800000002
 51
357.86560400000002
  0
TEXT
  5
24C
  8
_________2
 62
     7
 10
104.604
 20
1.6794899999999999
 30
0.0
 40
3.0923400000000001
  1
図番
 41
0.5
  0
LINE
  5
24D
  8
_________2
 62
     7
 10
103.55
 20
5.9087199999999989
 30
0.0
 11
183.55099999999999
 21
5.9087199999999989
 31
0.0
  0
TEXT
  5
24E
  8
_________2
 62
     7
 10
104.604
 20
11.679299999999991
 30
0.0
 40
3.0923400000000001
  1
品番
 41
0.5
  0
TEXT
  5
24F
  8
_________2
 62
     7
 10
104.604
 20
31.8184
 30
0.0
 40
3.0923400000000001
  1
名称
 41
0.5
  0
TEXT
  5
250
  8
_________2
 62
     7
 10
91.845058333333341
 20
26.822299999999998
 30
0.0
 40
3.6545800000000002
  1
mm
 41
0.5
 72
     1
 11
93.367800000000003
 21
26.822299999999998
 31
0.0
  0
TEXT
  5
251
  8
_________2
 62
     7
 10
85.643199999999993
 20
31.8184
 30
0.0
 40
3.0923400000000001
  1
単位
 41
0.5
  0
TEXT
  5
252
  8
_________2
 62
     7
 10
85.643199999999993
 20
19.410799999999991
 30
0.0
 40
3.0923400000000001
  1
尺度
 41
0.5
  0
TEXT
  5
253
  8
_________2
 62
     7
 10
90.548758666666686
 20
13.218199999999991
 30
0.0
 40
3.6545800000000002
  1
1 ： 5
 41
0.5
 72
     1
 11
93.959699999999998
 21
13.218199999999991
 31
0.0
  0
TEXT
  5
254
  8
_________2
 62
     7
 10
138.13841249999999
 20
9.1082000000000001
 30
0.0
 40
3.9357000000000002
  1
CET540
 41
0.5
 72
     1
 11
143.55000000000001
 21
9.1082000000000001
 31
0.0
  0
TEXT
  5
255
  8
_________2
 62
     7
 10
138.13841249999999
 20
-0.8926299999999999
 30
0.0
 40
3.9357000000000002
  1
CET540
 41
0.5
 72
     1
 11
143.55000000000001
 21
-0.8926299999999999
 31
0.0
  0
TEXT
  5
256
  8
_________2
 62
     7
 10
24.5868
 20
0.707627
 30
0.0
 40
3.9357000000000002
  1
ヨーロッパ製洗面器用
 41
0.5
  0
TEXT
  5
257
  8
_________2
 62
     7
 10
109.179
 20
24.226099999999999
 30
0.0
 40
3.9357000000000002
  1
Sトラップ（32mm）
 41
0.5
  0
TEXT
  5
258
  8
_________2
 62
     7
 10
39.364390666666658
 20
13.603400000000001
 30
0.0
 40
3.6545800000000002
  1
高橋
 41
0.5
 72
     1
 11
41.313499999999998
 21
13.603400000000001
 31
0.0
  0
TEXT
  5
259
  8
_________2
 62
     7
 10
20.789690666666662
 20
13.603400000000001
 30
0.0
 40
3.6545800000000002
  1
石原
 41
0.5
 72
     1
 11
22.738800000000001
 21
13.603400000000001
 31
0.0
  0
TEXT
  5
25A
  8
_________2
 62
     7
 10
67.7851
 20
13.218199999999991
 30
0.0
 40
3.6545800000000002
  1
07.10.30
 41
0.5
  0
TEXT
  5
25B
  8
_________2
 62
     7
 10
66.593100000000007
 20
19.410799999999991
 30
0.0
 40
3.0923400000000001
  1
日付
 41
0.5
  0
TEXT
  5
25C
  8
_________2
 62
     7
 10
29.639399999999998
 20
19.410799999999991
 30
0.0
 40
3.0923400000000001
  1
検図
 41
0.5
  0
TEXT
  5
25D
  8
_________2
 62
     7
 10
18.021100000000001
 20
5.21143
 30
0.0
 40
3.0923400000000001
  1
備考
 41
0.5
  0
TEXT
  5
25E
  8
_________2
 62
     7
 10
18.021100000000001
 20
19.410799999999991
 30
0.0
 40
3.0923400000000001
  1
製図
 41
0.5
  0
TEXT
  5
25F
  8
_________2
 62
     7
 10
23.788465333333338
 20
27.936800000000002
 30
0.0
 40
4.4979399999999989
  1
セラトレーディング株式会社
 41
0.5
 72
     1
 11
41.180500000000002
 21
27.936800000000002
 31
0.0
  0
LINE
  5
260
  8
_________2
 62
     7
 10
183.55099999999999
 20
-4.0910799999999998
 30
0.0
 11
17.049499999999998
 21
-4.0910799999999998
 31
0.0
  0
LINE
  5
261
  8
_________2
 62
     7
 10
17.049499999999998
 20
-4.0910799999999998
 30
0.0
 11
17.049499999999998
 21
258.911
 31
0.0
  0
LINE
  5
262
  8
_________2
 62
     7
 10
17.049499999999998
 20
258.911
 30
0.0
 11
183.55099999999999
 21
258.911
 31
0.0
  0
LINE
  5
263
  8
_________2
 62
     7
 10
183.55099999999999
 20
258.911
 30
0.0
 11
183.55099999999999
 21
-4.0910799999999998
 31
0.0
  0
LINE
  5
264
  8
_________2
 62
     7
 10
65.549199999999999
 20
9.4092999999999982
 30
0.0
 11
65.549199999999999
 21
35.909100000000002
 31
0.0
  0
LINE
  5
265
  8
_________2
 62
     7
 10
84.549700000000016
 20
9.4092999999999982
 30
0.0
 11
84.549700000000016
 21
35.909100000000002
 31
0.0
  0
LINE
  5
266
  8
_________2
 62
     7
 10
103.55
 20
-4.0910799999999998
 30
0.0
 11
103.55
 21
35.909100000000002
 31
0.0
  0
LINE
  5
267
  8
_________2
 62
     7
 10
28.549299999999992
 20
9.4092999999999982
 30
0.0
 11
28.549299999999992
 21
23.409199999999998
 31
0.0
  0
LINE
  5
268
  8
_________2
 62
     7
 10
17.049499999999998
 20
9.4092999999999982
 30
0.0
 11
103.55
 21
9.4092999999999982
 31
0.0
  0
LINE
  5
269
  8
_________2
 62
     7
 10
17.049499999999998
 20
23.409199999999998
 30
0.0
 11
103.55
 21
23.409199999999998
 31
0.0
  0
LINE
  5
26A
  8
_________2
 62
     7
 10
103.55
 20
15.9085
 30
0.0
 11
183.55099999999999
 21
15.9085
 31
0.0
  0
LINE
  5
26B
  8
_________2
 62
     7
 10
17.049499999999998
 20
35.909100000000002
 30
0.0
 11
183.55099999999999
 21
35.909100000000002
 31
0.0
  0
ENDSEC
  0
EOF
