  0
SECTION
  2
HEADER
  9
$ACADVER
  1
AC1009
  9
$INSBASE
 10
0.0
 20
0.0
 30
0.0
  9
$EXTMIN
 10
-4.7008599999999987
 20
-21.071400000000001
 30
0.0
  9
$EXTMAX
 10
205.30099999999999
 20
275.93099999999993
 30
0.0
  9
$LIMMIN
 10
0.0
 20
0.0
  9
$LIMMAX
 10
12.0
 20
9.0
  9
$ORTHOMODE
 70
     0
  9
$REGENMODE
 70
     1
  9
$FILLMODE
 70
     1
  9
$QTEXTMODE
 70
     0
  9
$MIRRTEXT
 70
     1
  9
$DRAGMODE
 70
     2
  9
$LTSCALE
 40
1.0
  9
$OSMODE
 70
    37
  9
$ATTMODE
 70
     1
  9
$TEXTSIZE
 40
0.0
  9
$TRACEWID
 40
0.05
  9
$TEXTSTYLE
  7
STANDARD
  9
$CLAYER
  8
0
  9
$CELTYPE
  6
CONTINUOUS
  9
$CECOLOR
 62
   256
  9
$DIMSCALE
 40
1.0
  9
$DIMASZ
 40
0.18
  9
$DIMEXO
 40
0.0625
  9
$DIMDLI
 40
0.38
  9
$DIMRND
 40
0.0
  9
$DIMDLE
 40
0.0
  9
$DIMEXE
 40
0.18
  9
$DIMTP
 40
0.0
  9
$DIMTM
 40
0.0
  9
$DIMTXT
 40
0.18
  9
$DIMCEN
 40
0.09
  9
$DIMTSZ
 40
0.0
  9
$DIMTOL
 70
     0
  9
$DIMLIM
 70
     0
  9
$DIMTIH
 70
     1
  9
$DIMTOH
 70
     1
  9
$DIMSE1
 70
     0
  9
$DIMSE2
 70
     0
  9
$DIMTAD
 70
     0
  9
$DIMZIN
 70
     0
  9
$DIMBLK
  1

  9
$DIMASO
 70
     1
  9
$DIMSHO
 70
     1
  9
$DIMPOST
  1

  9
$DIMAPOST
  1

  9
$DIMALT
 70
     0
  9
$DIMALTD
 70
     2
  9
$DIMALTF
 40
25.399999999999999
  9
$DIMLFAC
 40
1.0
  9
$DIMTOFL
 70
     0
  9
$DIMTVP
 40
0.0
  9
$DIMTIX
 70
     0
  9
$DIMSOXD
 70
     0
  9
$DIMSAH
 70
     0
  9
$DIMBLK1
  1

  9
$DIMBLK2
  1

  9
$DIMSTYLE
  2
STANDARD
  9
$DIMCLRD
 70
     0
  9
$DIMCLRE
 70
     0
  9
$DIMCLRT
 70
     0
  9
$DIMTFAC
 40
1.0
  9
$DIMGAP
 40
0.09
  9
$LUNITS
 70
     2
  9
$LUPREC
 70
     4
  9
$SKETCHINC
 40
0.1
  9
$FILLETRAD
 40
0.0
  9
$AUNITS
 70
     0
  9
$AUPREC
 70
     0
  9
$MENU
  1
.
  9
$ELEVATION
 40
0.0
  9
$PELEVATION
 40
0.0
  9
$THICKNESS
 40
0.0
  9
$LIMCHECK
 70
     0
  9
$BLIPMODE
 70
     0
  9
$CHAMFERA
 40
0.0
  9
$CHAMFERB
 40
0.0
  9
$SKPOLY
 70
     0
  9
$TDCREATE
 40
2444972.375
  9
$TDUPDATE
 40
2454818.2805137732
  9
$TDINDWG
 40
0.0021586921
  9
$TDUSRTIMER
 40
0.0021586921
  9
$USRTIMER
 70
     1
  9
$ANGBASE
 50
0.0
  9
$ANGDIR
 70
     0
  9
$PDMODE
 70
     0
  9
$PDSIZE
 40
0.0
  9
$PLINEWID
 40
0.0
  9
$COORDS
 70
     1
  9
$SPLFRAME
 70
     0
  9
$SPLINETYPE
 70
     6
  9
$SPLINESEGS
 70
     8
  9
$ATTDIA
 70
     0
  9
$ATTREQ
 70
     1
  9
$HANDLING
 70
     1
  9
$HANDSEED
  5
129
  9
$SURFTAB1
 70
     6
  9
$SURFTAB2
 70
     6
  9
$SURFTYPE
 70
     6
  9
$SURFU
 70
     6
  9
$SURFV
 70
     6
  9
$UCSNAME
  2

  9
$UCSORG
 10
0.0
 20
0.0
 30
0.0
  9
$UCSXDIR
 10
1.0
 20
0.0
 30
0.0
  9
$UCSYDIR
 10
0.0
 20
1.0
 30
0.0
  9
$PUCSNAME
  2

  9
$PUCSORG
 10
0.0
 20
0.0
 30
0.0
  9
$PUCSXDIR
 10
1.0
 20
0.0
 30
0.0
  9
$PUCSYDIR
 10
0.0
 20
1.0
 30
0.0
  9
$USERI1
 70
     0
  9
$USERI2
 70
     0
  9
$USERI3
 70
     0
  9
$USERI4
 70
     0
  9
$USERI5
 70
     0
  9
$USERR1
 40
0.0
  9
$USERR2
 40
0.0
  9
$USERR3
 40
0.0
  9
$USERR4
 40
0.0
  9
$USERR5
 40
0.0
  9
$WORLDVIEW
 70
     1
  9
$SHADEDGE
 70
     3
  9
$SHADEDIF
 70
    70
  9
$TILEMODE
 70
     1
  9
$MAXACTVP
 70
    48
  9
$PLIMCHECK
 70
     0
  9
$PEXTMIN
 10
1.0000000000000000E+020
 20
1.0000000000000000E+020
 30
1.0000000000000000E+020
  9
$PEXTMAX
 10
-1.0000000000000000E+020
 20
-1.0000000000000000E+020
 30
-1.0000000000000000E+020
  9
$PLIMMIN
 10
0.0
 20
0.0
  9
$PLIMMAX
 10
12.0
 20
9.0
  9
$UNITMODE
 70
     0
  9
$VISRETAIN
 70
     1
  9
$PLINEGEN
 70
     0
  9
$PSLTSCALE
 70
     1
  0
ENDSEC
  0
SECTION
  2
TABLES
  0
TABLE
  2
VPORT
 70
     2
  0
VPORT
  2
*ACTIVE
 70
     0
 10
0.0
 20
0.0
 11
1.0
 21
1.0
 12
195.35155167095331
 22
127.4297999999999
 13
0.0
 23
0.0
 14
1.0
 24
1.0
 15
0.0
 25
0.0
 16
0.0
 26
0.0
 36
1.0
 17
0.0
 27
0.0
 37
0.0
 40
299.3410015748031
 41
2.2894736842105261
 42
50.0
 43
0.0
 44
0.0
 50
0.0
 51
0.0
 71
     0
 72
   100
 73
     1
 74
     1
 75
     0
 76
     0
 77
     0
 78
     0
  0
ENDTAB
  0
TABLE
  2
LTYPE
 70
     2
  0
LTYPE
  2
CONTINUOUS
 70
     0
  3
Solid line
 72
    65
 73
     0
 40
0.0
  0
LTYPE
  2
AIGENLINE001
 70
     0
  3
generate AI->DXF Converter
 72
    65
 73
     4
 40
5.8561449999999988
 49
3.5278
 49
-0.776115
 49
0.776115
 49
-0.776115
  0
ENDTAB
  0
TABLE
  2
LAYER
 70
     2
  0
LAYER
  2
0
 70
     0
 62
     7
  6
CONTINUOUS
  0
LAYER
  2
_________2
 70
     0
 62
     7
  6
CONTINUOUS
  0
ENDTAB
  0
TABLE
  2
STYLE
 70
     1
  0
STYLE
  2
STANDARD
 70
     0
 40
0.0
 41
0.0
 50
0.0
 71
     0
 42
0.0
  3
TXT
  4
EXTFONT.SHX
  0
ENDTAB
  0
TABLE
  2
VIEW
 70
     0
  0
ENDTAB
  0
TABLE
  2
UCS
 70
     0
  0
ENDTAB
  0
TABLE
  2
APPID
 70
     1
  0
APPID
  2
ACAD
 70
     0
  0
ENDTAB
  0
TABLE
  2
DIMSTYLE
 70
     1
  0
DIMSTYLE
  2
STANDARD
 70
     0
  3

  4

  5

  6

  7

 40
1.0
 41
0.18
 42
0.0625
 43
0.38
 44
0.18
 45
0.0
 46
0.0
 47
0.0
 48
0.0
140
0.18
141
0.09
142
0.0
143
25.399999999999999
144
1.0
145
0.0
146
1.0
147
0.09
 71
     0
 72
     0
 73
     1
 74
     1
 75
     0
 76
     0
 77
     0
 78
     0
170
     0
171
     2
172
     0
173
     0
174
     0
175
     0
176
     0
177
     0
178
     0
  0
ENDTAB
  0
ENDSEC
  0
SECTION
  2
BLOCKS
  0
BLOCK
  8
0
  2
$MODEL_SPACE
 70
     0
 10
0.0
 20
0.0
 30
0.0
  3
$MODEL_SPACE
  1

  0
ENDBLK
  5
1A
  8
0
  0
BLOCK
 67
     1
  8
0
  2
$PAPER_SPACE
 70
     0
 10
0.0
 20
0.0
 30
0.0
  3
$PAPER_SPACE
  1

  0
ENDBLK
  5
17
 67
     1
  8
0
  0
ENDSEC
  0
SECTION
  2
ENTITIES
  0
TEXT
  5
22
  8
0
 62
     7
 10
94.010400000000004
 20
121.282135
 30
0.0
 40
3.0923400000000001
  1
300
 50
90.0
 41
0.5
 72
     1
 11
94.010400000000004
 21
123.086
 31
0.0
  0
TEXT
  5
23
  8
0
 62
     7
 10
66.266800000000003
 20
180.32261
 30
0.0
 40
3.0923400000000001
  1
9
 50
90.0
 41
0.5
 72
     1
 11
66.266800000000003
 21
180.83799999999991
 31
0.0
  0
TEXT
  5
24
  8
0
 62
     7
 10
121.5109149999999
 20
205.03399999999999
 30
0.0
 40
3.0923400000000001
  1
11
 41
0.5
 72
     1
 11
122.28399999999991
 21
205.03399999999999
 31
0.0
  0
TEXT
  5
25
  8
0
 62
     7
 10
74.845220000000012
 20
212.1329999999999
 30
0.0
 40
3.0923400000000001
  1
21
 41
0.5
 72
     1
 11
75.876000000000005
 21
212.1329999999999
 31
0.0
  0
TEXT
  5
26
  8
0
 62
     7
 10
74.529300000000006
 20
243.5559999999999
 30
0.0
 40
3.0923400000000001
  1
%%c6.2
 41
0.5
  0
TEXT
  5
27
  8
0
 62
     7
 10
70.532200000000003
 20
95.849400000000017
 30
0.0
 40
3.0923400000000001
  1
%%c4
 41
0.5
  0
TEXT
  5
28
  8
0
 62
     7
 10
74.845220000000012
 20
204.73099999999991
 30
0.0
 40
3.0923400000000001
  1
12
 41
0.5
 72
     1
 11
75.876000000000005
 21
204.73099999999991
 31
0.0
  0
LINE
  5
29
  8
0
 62
     7
 10
74.529300000000006
 20
242.29400000000001
 30
0.0
 11
81.738499999999988
 21
242.29400000000001
 31
0.0
  0
LINE
  5
2A
  8
0
 62
     7
 10
75.413300000000007
 20
236.80699999999999
 30
0.0
 11
74.268500000000003
 21
234.82400000000001
 31
0.0
  0
LINE
  5
2B
  8
0
 62
     7
 10
74.268500000000003
 20
234.82400000000001
 30
0.0
 11
76.251499999999993
 21
235.9679999999999
 31
0.0
  0
LINE
  5
2C
  8
0
 62
     7
 10
76.251499999999993
 20
235.9679999999999
 30
0.0
 11
75.413300000000007
 21
236.80699999999999
 31
0.0
  0
LINE
  5
2D
  8
0
 62
     7
 10
70.931899999999985
 20
230.649
 30
0.0
 11
72.076700000000002
 21
232.63199999999989
 31
0.0
  0
LINE
  5
2E
  8
0
 62
     7
 10
72.076700000000002
 20
232.63199999999989
 30
0.0
 11
70.093699999999998
 21
231.48699999999991
 31
0.0
  0
LINE
  5
2F
  8
0
 62
     7
 10
70.093699999999998
 20
231.48699999999991
 30
0.0
 11
70.931899999999985
 21
230.649
 31
0.0
  0
LINE
  5
30
  8
0
 62
     7
 10
69.000200000000007
 20
229.55499999999989
 30
0.0
 11
81.738499999999988
 21
242.29400000000001
 31
0.0
  0
LINE
  5
31
  8
0
 62
     7
 10
82.384500000000003
 20
95.103800000000007
 30
0.0
 11
80.172700000000006
 21
94.511300000000006
 31
0.0
  0
LINE
  5
32
  8
0
 62
     7
 10
80.172700000000006
 20
94.511300000000006
 30
0.0
 11
82.384500000000003
 21
93.918700000000001
 31
0.0
  0
LINE
  5
33
  8
0
 62
     7
 10
82.384500000000003
 20
93.918700000000001
 30
0.0
 11
82.384500000000003
 21
95.103800000000007
 31
0.0
  0
LINE
  5
34
  8
0
 62
     7
 10
75.960700000000003
 20
93.933200000000014
 30
0.0
 11
78.172499999999999
 21
94.525699999999986
 31
0.0
  0
LINE
  5
35
  8
0
 62
     7
 10
78.172499999999999
 20
94.525699999999986
 30
0.0
 11
75.960700000000003
 21
95.118300000000005
 31
0.0
  0
LINE
  5
36
  8
0
 62
     7
 10
75.960700000000003
 20
95.118300000000005
 30
0.0
 11
75.960700000000003
 21
93.933200000000014
 31
0.0
  0
LINE
  5
37
  8
0
 62
     7
 10
70.532200000000003
 20
94.511300000000006
 30
0.0
 11
83.736699999999999
 21
94.511300000000006
 31
0.0
  0
LINE
  5
38
  8
0
 62
     7
 10
95.492400000000004
 20
195.875
 30
0.0
 11
94.899900000000002
 21
198.08699999999999
 31
0.0
  0
LINE
  5
39
  8
0
 62
     7
 10
94.899900000000002
 20
198.08699999999999
 30
0.0
 11
94.307299999999998
 21
195.875
 31
0.0
  0
LINE
  5
3A
  8
0
 62
     7
 10
94.307299999999998
 20
195.875
 30
0.0
 11
95.492400000000004
 21
195.875
 31
0.0
  0
LINE
  5
3B
  8
0
 62
     7
 10
94.321799999999996
 20
50.2973
 30
0.0
 11
94.914400000000001
 21
48.085599999999992
 31
0.0
  0
LINE
  5
3C
  8
0
 62
     7
 10
94.914400000000001
 20
48.085599999999992
 30
0.0
 11
95.506900000000016
 21
50.2973
 31
0.0
  0
LINE
  5
3D
  8
0
 62
     7
 10
95.506900000000016
 20
50.2973
 30
0.0
 11
94.321799999999996
 21
50.2973
 31
0.0
  0
LINE
  5
3E
  8
0
 62
     7
 10
94.899900000000002
 20
198.08699999999999
 30
0.0
 11
94.899900000000002
 21
48.086300000000001
 31
0.0
  0
LINE
  5
3F
  8
0
 62
     7
 10
80.872699999999995
 20
48.086300000000001
 30
0.0
 11
95.599900000000005
 21
48.086300000000001
 31
0.0
  0
LINE
  5
40
  8
0
 62
     7
 10
80.872699999999995
 20
198.08699999999999
 30
0.0
 11
95.599900000000005
 21
198.08699999999999
 31
0.0
  0
LINE
  5
41
  8
0
 62
     7
 10
125.01899999999991
 20
204.24199999999999
 30
0.0
 11
125.01899999999991
 21
183.78700000000001
 31
0.0
  0
LINE
  5
42
  8
0
 62
     7
 10
119.51899999999991
 20
204.24199999999999
 30
0.0
 11
119.51899999999991
 21
183.78700000000001
 31
0.0
  0
LINE
  5
43
  8
0
 62
     7
 10
121.73
 20
204.13399999999999
 30
0.0
 11
119.51899999999991
 21
203.542
 31
0.0
  0
LINE
  5
44
  8
0
 62
     7
 10
119.51899999999991
 20
203.542
 30
0.0
 11
121.73
 21
202.94900000000001
 31
0.0
  0
LINE
  5
45
  8
0
 62
     7
 10
121.73
 20
202.94900000000001
 30
0.0
 11
121.73
 21
204.13399999999999
 31
0.0
  0
LINE
  5
46
  8
0
 62
     7
 10
122.8069999999999
 20
202.964
 30
0.0
 11
125.01899999999991
 21
203.5559999999999
 31
0.0
  0
LINE
  5
47
  8
0
 62
     7
 10
125.01899999999991
 20
203.5559999999999
 30
0.0
 11
122.8069999999999
 21
204.149
 31
0.0
  0
LINE
  5
48
  8
0
 62
     7
 10
122.8069999999999
 20
204.149
 30
0.0
 11
122.8069999999999
 21
202.964
 31
0.0
  0
LINE
  5
49
  8
0
 62
     7
 10
119.51899999999991
 20
203.542
 30
0.0
 11
125.01899999999991
 21
203.542
 31
0.0
  0
LINE
  5
4A
  8
0
  6
AIGENLINE001
 62
     7
 10
73.172600000000003
 20
224.2109999999999
 30
0.0
 11
73.172600000000003
 21
237.84099999999989
 31
0.0
  0
ARC
  5
4B
  8
0
 62
     7
 10
73.172567999999998
 20
233.72760699999989
 30
0.0
 40
1.5499590000000001
 50
0.00001
 51
89.999980000000008
  0
ARC
  5
4C
  8
0
 62
     7
 10
73.172567999999998
 20
233.72760699999989
 30
0.0
 40
1.5499590000000001
 50
90.0
 51
179.99996999999991
  0
ARC
  5
4D
  8
0
 62
     7
 10
73.172567999999998
 20
233.72760699999989
 30
0.0
 40
1.5499579999999991
 50
179.99996999999991
 51
270.00002000000001
  0
ARC
  5
4E
  8
0
 62
     7
 10
73.172567999999998
 20
233.727608
 30
0.0
 40
1.5499590000000001
 50
270.00002000000001
 51
359.99998999999991
  0
LINE
  5
4F
  8
0
  6
AIGENLINE001
 62
     7
 10
79.172600000000003
 20
224.2109999999999
 30
0.0
 11
79.172600000000003
 21
237.84099999999989
 31
0.0
  0
LINE
  5
50
  8
0
  6
AIGENLINE001
 62
     7
 10
83.051100000000005
 20
233.72799999999989
 30
0.0
 11
69.162800000000004
 21
233.72799999999989
 31
0.0
  0
ARC
  5
51
  8
0
 62
     7
 10
79.134680000000003
 20
233.689345
 30
0.0
 40
1.0387269999999991
 50
2.110990999999999
 51
87.908738999999997
  0
ARC
  5
52
  8
0
 62
     7
 10
79.211200000000005
 20
233.68863399999989
 30
0.0
 40
1.0394639999999991
 50
92.128997999999996
 51
177.85123200000001
  0
ARC
  5
53
  8
0
 62
     7
 10
79.172584000000001
 20
233.72760699999989
 30
0.0
 40
1.000116999999999
 50
179.99996999999991
 51
270.00002000000001
  0
ARC
  5
54
  8
0
 62
     7
 10
79.172584000000001
 20
233.727608
 30
0.0
 40
1.0001180000000001
 50
270.00002000000001
 51
359.99998999999991
  0
ARC
  5
55
  8
0
 62
     7
 10
79.172584000000001
 20
233.72760699999989
 30
0.0
 40
1.5499590000000001
 50
0.00001
 51
89.999980000000008
  0
ARC
  5
56
  8
0
 62
     7
 10
79.172584999999984
 20
233.72760699999989
 30
0.0
 40
1.5499590000000001
 50
90.0
 51
179.99996999999991
  0
ARC
  5
57
  8
0
 62
     7
 10
79.172584000000001
 20
233.72760699999989
 30
0.0
 40
1.5499579999999991
 50
179.99996999999991
 51
270.00002000000001
  0
ARC
  5
58
  8
0
 62
     7
 10
79.172584000000001
 20
233.727608
 30
0.0
 40
1.5499590000000001
 50
270.00002000000001
 51
359.99998999999991
  0
LINE
  5
59
  8
0
 62
     7
 10
74.172700000000006
 20
227.72799999999989
 30
0.0
 11
74.172700000000006
 21
230.97699999999989
 31
0.0
  0
LINE
  5
5A
  8
0
 62
     7
 10
72.172499999999985
 20
227.72799999999989
 30
0.0
 11
72.172499999999985
 21
230.97699999999989
 31
0.0
  0
LINE
  5
5B
  8
0
 62
     7
 10
74.672600000000003
 20
227.72799999999989
 30
0.0
 11
74.672600000000003
 21
230.97699999999989
 31
0.0
  0
LINE
  5
5C
  8
0
 62
     7
 10
71.672600000000003
 20
227.72799999999989
 30
0.0
 11
71.672600000000003
 21
230.97699999999989
 31
0.0
  0
LINE
  5
5D
  8
0
 62
     7
 10
75.797700000000006
 20
227.72799999999989
 30
0.0
 11
75.797700000000006
 21
227.2699999999999
 31
0.0
  0
ARC
  5
5E
  8
0
 62
     7
 10
74.255024000000006
 20
227.27007999999989
 30
0.0
 40
1.5427239999999991
 50
270.00002000000001
 51
359.99998999999991
  0
LINE
  5
5F
  8
0
 62
     7
 10
70.547700000000006
 20
227.72799999999989
 30
0.0
 11
70.547700000000006
 21
227.2699999999999
 31
0.0
  0
LINE
  5
60
  8
0
 62
     7
 10
74.254999999999995
 20
225.727
 30
0.0
 11
72.090100000000007
 21
225.727
 31
0.0
  0
ARC
  5
61
  8
0
 62
     7
 10
72.090112000000005
 20
227.27007900000001
 30
0.0
 40
1.5427230000000001
 50
179.99996999999991
 51
270.00002000000001
  0
LINE
  5
62
  8
0
 62
     7
 10
75.797700000000006
 20
227.72799999999989
 30
0.0
 11
70.547700000000006
 21
227.72799999999989
 31
0.0
  0
LINE
  5
63
  8
0
 62
     7
 10
70.922600000000003
 20
230.97699999999989
 30
0.0
 11
70.922600000000003
 21
236.477
 31
0.0
  0
LINE
  5
64
  8
0
 62
     7
 10
81.422600000000003
 20
230.97699999999989
 30
0.0
 11
81.422600000000003
 21
236.477
 31
0.0
  0
LINE
  5
65
  8
0
 62
     7
 10
81.422600000000003
 20
236.477
 30
0.0
 11
70.922600000000003
 21
236.477
 31
0.0
  0
LINE
  5
66
  8
0
 62
     7
 10
81.422600000000003
 20
230.97699999999989
 30
0.0
 11
70.922600000000003
 21
230.97699999999989
 31
0.0
  0
LINE
  5
67
  8
0
 62
     7
 10
80.172700000000006
 20
227.72799999999989
 30
0.0
 11
80.172700000000006
 21
230.97699999999989
 31
0.0
  0
LINE
  5
68
  8
0
 62
     7
 10
78.172499999999999
 20
227.72799999999989
 30
0.0
 11
78.172499999999999
 21
230.97699999999989
 31
0.0
  0
LINE
  5
69
  8
0
 62
     7
 10
80.672600000000003
 20
227.72799999999989
 30
0.0
 11
80.672600000000003
 21
230.97699999999989
 31
0.0
  0
LINE
  5
6A
  8
0
 62
     7
 10
77.672600000000003
 20
227.72799999999989
 30
0.0
 11
77.672600000000003
 21
230.97699999999989
 31
0.0
  0
LINE
  5
6B
  8
0
 62
     7
 10
81.797799999999995
 20
227.72799999999989
 30
0.0
 11
81.797799999999995
 21
227.2699999999999
 31
0.0
  0
ARC
  5
6C
  8
0
 62
     7
 10
80.255040000000008
 20
227.27007999999989
 30
0.0
 40
1.5427239999999991
 50
270.00002000000001
 51
359.99998999999991
  0
LINE
  5
6D
  8
0
 62
     7
 10
76.547700000000006
 20
227.72799999999989
 30
0.0
 11
76.547700000000006
 21
227.2699999999999
 31
0.0
  0
LINE
  5
6E
  8
0
 62
     7
 10
80.254999999999995
 20
225.727
 30
0.0
 11
78.090100000000007
 21
225.727
 31
0.0
  0
ARC
  5
6F
  8
0
 62
     7
 10
78.149404000000004
 20
227.3289979999999
 30
0.0
 40
1.6027379999999991
 50
182.10674099999989
 51
267.880492
  0
LINE
  5
70
  8
0
 62
     7
 10
81.797799999999995
 20
227.72799999999989
 30
0.0
 11
76.547700000000006
 21
227.72799999999989
 31
0.0
  0
LINE
  5
71
  8
0
  6
AIGENLINE001
 62
     7
 10
122.26899999999991
 20
46.593800000000002
 30
0.0
 11
122.26899999999991
 21
199.90299999999991
 31
0.0
  0
LINE
  5
72
  8
0
 62
     7
 10
123.26899999999991
 20
183.08699999999999
 30
0.0
 11
123.26899999999991
 21
198.08699999999999
 31
0.0
  0
LINE
  5
73
  8
0
 62
     7
 10
123.26899999999991
 20
48.086300000000001
 30
0.0
 11
123.26899999999991
 21
178.58699999999999
 31
0.0
  0
LINE
  5
74
  8
0
 62
     7
 10
121.26900000000001
 20
48.086300000000001
 30
0.0
 11
123.26899999999991
 21
48.086300000000001
 31
0.0
  0
LINE
  5
75
  8
0
 62
     7
 10
121.26900000000001
 20
183.08699999999999
 30
0.0
 11
121.26900000000001
 21
198.08699999999999
 31
0.0
  0
LINE
  5
76
  8
0
 62
     7
 10
121.26900000000001
 20
48.086300000000001
 30
0.0
 11
121.26900000000001
 21
178.58699999999999
 31
0.0
  0
LINE
  5
77
  8
0
 62
     7
 10
121.26900000000001
 20
198.08699999999999
 30
0.0
 11
123.26899999999991
 21
198.08699999999999
 31
0.0
  0
LINE
  5
78
  8
0
 62
     7
 10
119.51899999999991
 20
178.58699999999999
 30
0.0
 11
125.01899999999991
 21
178.58699999999999
 31
0.0
  0
LINE
  5
79
  8
0
 62
     7
 10
119.51899999999991
 20
183.08699999999999
 30
0.0
 11
125.01899999999991
 21
183.08699999999999
 31
0.0
  0
LINE
  5
7A
  8
0
 62
     7
 10
125.01899999999991
 20
178.58699999999999
 30
0.0
 11
125.01899999999991
 21
183.08699999999999
 31
0.0
  0
LINE
  5
7B
  8
0
 62
     7
 10
119.51899999999991
 20
178.58699999999999
 30
0.0
 11
119.51899999999991
 21
183.08699999999999
 31
0.0
  0
LINE
  5
7C
  8
0
 62
     7
 10
73.134
 20
211.749
 30
0.0
 11
70.922200000000004
 21
211.15599999999989
 31
0.0
  0
LINE
  5
7D
  8
0
 62
     7
 10
70.922200000000004
 20
211.15599999999989
 30
0.0
 11
73.134
 21
210.56399999999999
 31
0.0
  0
LINE
  5
7E
  8
0
 62
     7
 10
73.134
 20
210.56399999999999
 30
0.0
 11
73.134
 21
211.749
 31
0.0
  0
LINE
  5
7F
  8
0
 62
     7
 10
79.211200000000005
 20
210.578
 30
0.0
 11
81.422899999999998
 21
211.17099999999991
 31
0.0
  0
LINE
  5
80
  8
0
 62
     7
 10
81.422899999999998
 20
211.17099999999991
 30
0.0
 11
79.211200000000005
 21
211.76400000000001
 31
0.0
  0
LINE
  5
81
  8
0
 62
     7
 10
79.211200000000005
 20
211.76400000000001
 30
0.0
 11
79.211200000000005
 21
210.578
 31
0.0
  0
LINE
  5
82
  8
0
 62
     7
 10
70.922600000000003
 20
211.15599999999989
 30
0.0
 11
81.422600000000003
 21
211.15599999999989
 31
0.0
  0
LINE
  5
83
  8
0
 62
     7
 10
81.422600000000003
 20
183.78700000000001
 30
0.0
 11
81.422600000000003
 21
211.85599999999991
 31
0.0
  0
LINE
  5
84
  8
0
 62
     7
 10
70.922600000000003
 20
183.78700000000001
 30
0.0
 11
70.922600000000003
 21
211.85599999999991
 31
0.0
  0
LINE
  5
85
  8
0
 62
     7
 10
75.384
 20
204.15299999999991
 30
0.0
 11
73.172200000000004
 21
203.56
 31
0.0
  0
LINE
  5
86
  8
0
 62
     7
 10
73.172200000000004
 20
203.56
 30
0.0
 11
75.384
 21
202.96700000000001
 31
0.0
  0
LINE
  5
87
  8
0
 62
     7
 10
75.384
 20
202.96700000000001
 30
0.0
 11
75.384
 21
204.15299999999991
 31
0.0
  0
LINE
  5
88
  8
0
 62
     7
 10
76.961200000000005
 20
202.98199999999991
 30
0.0
 11
79.172899999999998
 21
203.5749999999999
 31
0.0
  0
LINE
  5
89
  8
0
 62
     7
 10
79.172899999999998
 20
203.5749999999999
 30
0.0
 11
76.961200000000005
 21
204.16699999999989
 31
0.0
  0
LINE
  5
8A
  8
0
 62
     7
 10
76.961200000000005
 20
204.16699999999989
 30
0.0
 11
76.961200000000005
 21
202.98199999999991
 31
0.0
  0
LINE
  5
8B
  8
0
 62
     7
 10
73.172600000000003
 20
203.56
 30
0.0
 11
79.172600000000003
 21
203.56
 31
0.0
  0
LINE
  5
8C
  8
0
 62
     7
 10
73.172600000000003
 20
185.35400000000001
 30
0.0
 11
73.172600000000003
 21
204.25999999999991
 31
0.0
  0
LINE
  5
8D
  8
0
 62
     7
 10
79.172600000000003
 20
200.60299999999989
 30
0.0
 11
79.172600000000003
 21
204.25999999999991
 31
0.0
  0
LINE
  5
8E
  8
0
  6
AIGENLINE001
 62
     7
 10
83.039400000000001
 20
180.83699999999999
 30
0.0
 11
69.015000000000001
 21
180.83699999999999
 31
0.0
  0
LINE
  5
8F
  8
0
 62
     7
 10
66.377399999999994
 20
178.58699999999999
 30
0.0
 11
70.222499999999997
 21
178.58699999999999
 31
0.0
  0
LINE
  5
90
  8
0
 62
     7
 10
66.377399999999994
 20
183.08699999999999
 30
0.0
 11
70.222499999999997
 21
183.08699999999999
 31
0.0
  0
LINE
  5
91
  8
0
 62
     7
 10
67.670000000000002
 20
176.37499999999989
 30
0.0
 11
67.077500000000001
 21
178.58699999999999
 31
0.0
  0
LINE
  5
92
  8
0
 62
     7
 10
67.077500000000001
 20
178.58699999999999
 30
0.0
 11
66.484899999999996
 21
176.37499999999989
 31
0.0
  0
LINE
  5
93
  8
0
 62
     7
 10
66.484899999999996
 20
176.37499999999989
 30
0.0
 11
67.670000000000002
 21
176.37499999999989
 31
0.0
  0
LINE
  5
94
  8
0
 62
     7
 10
66.499399999999994
 20
185.29900000000001
 30
0.0
 11
67.091899999999995
 21
183.08699999999999
 31
0.0
  0
LINE
  5
95
  8
0
 62
     7
 10
67.091899999999995
 20
183.08699999999999
 30
0.0
 11
67.6845
 21
185.29900000000001
 31
0.0
  0
LINE
  5
96
  8
0
 62
     7
 10
67.6845
 20
185.29900000000001
 30
0.0
 11
66.499399999999994
 21
185.29900000000001
 31
0.0
  0
LINE
  5
97
  8
0
 62
     7
 10
67.077500000000001
 20
186.898
 30
0.0
 11
67.077500000000001
 21
175.059
 31
0.0
  0
LINE
  5
98
  8
0
  6
AIGENLINE001
 62
     7
 10
79.172600000000003
 20
46.593800000000002
 30
0.0
 11
79.172600000000003
 21
199.90299999999991
 31
0.0
  0
LINE
  5
99
  8
0
 62
     7
 10
80.172700000000006
 20
183.2639999999999
 30
0.0
 11
80.172700000000006
 21
198.08699999999999
 31
0.0
  0
LINE
  5
9A
  8
0
 62
     7
 10
80.172700000000006
 20
48.086300000000001
 30
0.0
 11
80.172700000000006
 21
178.41
 31
0.0
  0
LINE
  5
9B
  8
0
 62
     7
 10
78.172499999999999
 20
48.086300000000001
 30
0.0
 11
80.172700000000006
 21
48.086300000000001
 31
0.0
  0
LINE
  5
9C
  8
0
 62
     7
 10
78.172499999999999
 20
183.2639999999999
 30
0.0
 11
78.172499999999999
 21
198.08699999999999
 31
0.0
  0
LINE
  5
9D
  8
0
 62
     7
 10
78.172499999999999
 20
48.086300000000001
 30
0.0
 11
78.172499999999999
 21
178.41
 31
0.0
  0
LINE
  5
9E
  8
0
 62
     7
 10
78.172499999999999
 20
198.08699999999999
 30
0.0
 11
80.172700000000006
 21
198.08699999999999
 31
0.0
  0
LINE
  5
9F
  8
0
  6
AIGENLINE001
 62
     7
 10
73.172600000000003
 20
177.14199999999991
 30
0.0
 11
73.172600000000003
 21
184.654
 31
0.0
  0
LINE
  5
A0
  8
0
 62
     7
 10
72.775300000000001
 20
182.21199999999999
 30
0.0
 11
73.569800000000001
 21
182.21199999999999
 31
0.0
  0
LINE
  5
A1
  8
0
 62
     7
 10
72.775300000000001
 20
179.46199999999999
 30
0.0
 11
73.569800000000001
 21
179.46199999999999
 31
0.0
  0
LINE
  5
A2
  8
0
 62
     7
 10
72.775300000000001
 20
181.23400000000001
 30
0.0
 11
72.775300000000001
 21
182.21199999999999
 31
0.0
  0
LINE
  5
A3
  8
0
 62
     7
 10
72.775300000000001
 20
179.46199999999999
 30
0.0
 11
72.775300000000001
 21
180.44
 31
0.0
  0
LINE
  5
A4
  8
0
 62
     7
 10
73.569800000000001
 20
181.23400000000001
 30
0.0
 11
73.569800000000001
 21
182.21199999999999
 31
0.0
  0
LINE
  5
A5
  8
0
 62
     7
 10
73.569800000000001
 20
179.46199999999999
 30
0.0
 11
73.569800000000001
 21
180.44
 31
0.0
  0
LINE
  5
A6
  8
0
 62
     7
 10
74.547499999999999
 20
181.23400000000001
 30
0.0
 11
74.547499999999999
 21
180.44
 31
0.0
  0
LINE
  5
A7
  8
0
 62
     7
 10
71.797600000000003
 20
181.23400000000001
 30
0.0
 11
71.797600000000003
 21
180.44
 31
0.0
  0
LINE
  5
A8
  8
0
 62
     7
 10
73.569800000000001
 20
181.23400000000001
 30
0.0
 11
74.547499999999999
 21
181.23400000000001
 31
0.0
  0
LINE
  5
A9
  8
0
 62
     7
 10
71.797600000000003
 20
181.23400000000001
 30
0.0
 11
72.775300000000001
 21
181.23400000000001
 31
0.0
  0
LINE
  5
AA
  8
0
 62
     7
 10
73.569800000000001
 20
180.44
 30
0.0
 11
74.547499999999999
 21
180.44
 31
0.0
  0
LINE
  5
AB
  8
0
 62
     7
 10
71.797600000000003
 20
180.44
 30
0.0
 11
72.775300000000001
 21
180.44
 31
0.0
  0
ARC
  5
AC
  8
0
 62
     7
 10
73.172740000000005
 20
180.83661599999999
 30
0.0
 40
2.6250079999999998
 50
0.00377
 51
90.003739999999979
  0
ARC
  5
AD
  8
0
 62
     7
 10
73.172568999999996
 20
180.8367889999999
 30
0.0
 40
2.624835
 50
90.0
 51
179.99996999999991
  0
ARC
  5
AE
  8
0
 62
     7
 10
73.172740000000005
 20
180.83661599999999
 30
0.0
 40
2.6250070000000001
 50
179.99620999999999
 51
269.99626000000001
  0
ARC
  5
AF
  8
0
 62
     7
 10
73.172567999999998
 20
180.83679000000001
 30
0.0
 40
2.625179999999999
 50
270.00002000000001
 51
359.99998999999991
  0
LINE
  5
B0
  8
0
 62
     7
 10
78.775400000000005
 20
182.21199999999999
 30
0.0
 11
79.569800000000001
 21
182.21199999999999
 31
0.0
  0
LINE
  5
B1
  8
0
 62
     7
 10
78.775400000000005
 20
179.46199999999999
 30
0.0
 11
79.569800000000001
 21
179.46199999999999
 31
0.0
  0
LINE
  5
B2
  8
0
 62
     7
 10
78.775400000000005
 20
181.23400000000001
 30
0.0
 11
78.775400000000005
 21
182.21199999999999
 31
0.0
  0
LINE
  5
B3
  8
0
 62
     7
 10
78.775400000000005
 20
179.46199999999999
 30
0.0
 11
78.775400000000005
 21
180.44
 31
0.0
  0
LINE
  5
B4
  8
0
 62
     7
 10
79.569800000000001
 20
181.23400000000001
 30
0.0
 11
79.569800000000001
 21
182.21199999999999
 31
0.0
  0
LINE
  5
B5
  8
0
 62
     7
 10
79.569800000000001
 20
179.46199999999999
 30
0.0
 11
79.569800000000001
 21
180.44
 31
0.0
  0
LINE
  5
B6
  8
0
 62
     7
 10
80.547499999999999
 20
181.23400000000001
 30
0.0
 11
80.547499999999999
 21
180.44
 31
0.0
  0
LINE
  5
B7
  8
0
 62
     7
 10
77.797600000000003
 20
181.23400000000001
 30
0.0
 11
77.797600000000003
 21
180.44
 31
0.0
  0
LINE
  5
B8
  8
0
 62
     7
 10
79.569800000000001
 20
181.23400000000001
 30
0.0
 11
80.547499999999999
 21
181.23400000000001
 31
0.0
  0
LINE
  5
B9
  8
0
 62
     7
 10
77.797600000000003
 20
181.23400000000001
 30
0.0
 11
78.775400000000005
 21
181.23400000000001
 31
0.0
  0
LINE
  5
BA
  8
0
 62
     7
 10
79.569800000000001
 20
180.44
 30
0.0
 11
80.547499999999999
 21
180.44
 31
0.0
  0
LINE
  5
BB
  8
0
 62
     7
 10
77.797600000000003
 20
180.44
 30
0.0
 11
78.775400000000005
 21
180.44
 31
0.0
  0
ARC
  5
BC
  8
0
 62
     7
 10
79.172756000000007
 20
180.83661599999999
 30
0.0
 40
2.6250079999999998
 50
0.00377
 51
90.003739999999979
  0
ARC
  5
BD
  8
0
 62
     7
 10
79.172584999999984
 20
180.8367889999999
 30
0.0
 40
2.624835
 50
90.0
 51
179.99996999999991
  0
ARC
  5
BE
  8
0
 62
     7
 10
79.172756000000007
 20
180.83661599999999
 30
0.0
 40
2.6250070000000001
 50
179.99620999999999
 51
269.99626000000001
  0
ARC
  5
BF
  8
0
 62
     7
 10
79.172584000000001
 20
180.83679000000001
 30
0.0
 40
2.625179999999999
 50
270.00002000000001
 51
359.99998999999991
  0
LINE
  5
C0
  8
0
 62
     7
 10
116.26900000000001
 20
179.83699999999999
 30
0.0
 11
119.51899999999991
 21
179.83699999999999
 31
0.0
  0
LINE
  5
C1
  8
0
 62
     7
 10
116.26900000000001
 20
181.83699999999999
 30
0.0
 11
119.51899999999991
 21
181.83699999999999
 31
0.0
  0
LINE
  5
C2
  8
0
 62
     7
 10
116.26900000000001
 20
179.33699999999999
 30
0.0
 11
119.51899999999991
 21
179.33699999999999
 31
0.0
  0
LINE
  5
C3
  8
0
 62
     7
 10
116.26900000000001
 20
182.33699999999999
 30
0.0
 11
119.51899999999991
 21
182.33699999999999
 31
0.0
  0
LINE
  5
C4
  8
0
 62
     7
 10
116.26900000000001
 20
178.21199999999999
 30
0.0
 11
115.81100000000001
 21
178.21199999999999
 31
0.0
  0
ARC
  5
C5
  8
0
 62
     7
 10
115.81140600000001
 20
179.754333
 30
0.0
 40
1.5427230000000001
 50
179.99996999999991
 51
270.00002000000001
  0
LINE
  5
C6
  8
0
 62
     7
 10
116.26900000000001
 20
183.46199999999999
 30
0.0
 11
115.81100000000001
 21
183.46199999999999
 31
0.0
  0
LINE
  5
C7
  8
0
 62
     7
 10
114.26899999999991
 20
179.75399999999999
 30
0.0
 11
114.26899999999991
 21
181.91900000000001
 31
0.0
  0
ARC
  5
C8
  8
0
 62
     7
 10
115.870717
 20
181.859576
 30
0.0
 40
1.603145
 50
92.120217000000011
 51
177.86695700000001
  0
LINE
  5
C9
  8
0
 62
     7
 10
116.26900000000001
 20
178.21199999999999
 30
0.0
 11
116.26900000000001
 21
183.46199999999999
 31
0.0
  0
LINE
  5
CA
  8
0
 62
     7
 10
81.422600000000003
 20
182.18899999999999
 30
0.0
 11
81.422600000000003
 21
183.08699999999999
 31
0.0
  0
LINE
  5
CB
  8
0
 62
     7
 10
81.422600000000003
 20
178.58699999999999
 30
0.0
 11
81.422600000000003
 21
179.48500000000001
 31
0.0
  0
LINE
  5
CC
  8
0
 62
     7
 10
70.922600000000003
 20
182.18899999999999
 30
0.0
 11
70.922600000000003
 21
183.08699999999999
 31
0.0
  0
LINE
  5
CD
  8
0
 62
     7
 10
70.922600000000003
 20
178.58699999999999
 30
0.0
 11
70.922600000000003
 21
179.48500000000001
 31
0.0
  0
LINE
  5
CE
  8
0
 62
     7
 10
80.5244
 20
178.58699999999999
 30
0.0
 11
81.422600000000003
 21
178.58699999999999
 31
0.0
  0
LINE
  5
CF
  8
0
 62
     7
 10
74.525099999999995
 20
178.58699999999999
 30
0.0
 11
77.820700000000002
 21
178.58699999999999
 31
0.0
  0
LINE
  5
D0
  8
0
 62
     7
 10
70.922600000000003
 20
178.58699999999999
 30
0.0
 11
71.820400000000006
 21
178.58699999999999
 31
0.0
  0
LINE
  5
D1
  8
0
 62
     7
 10
80.524799999999999
 20
183.08699999999999
 30
0.0
 11
81.422600000000003
 21
183.08699999999999
 31
0.0
  0
LINE
  5
D2
  8
0
 62
     7
 10
74.5244
 20
183.08699999999999
 30
0.0
 11
77.819999999999993
 21
183.08699999999999
 31
0.0
  0
LINE
  5
D3
  8
0
 62
     7
 10
70.922600000000003
 20
183.08699999999999
 30
0.0
 11
71.820700000000002
 21
183.08699999999999
 31
0.0
  0
LINE
  5
D4
  8
_________2
 62
     7
 10
205.30099999999999
 20
127.411
 30
0.0
 11
183.55099999999999
 21
127.411
 31
0.0
  0
LINE
  5
D5
  8
_________2
 62
     7
 10
100.2999999999999
 20
-4.0910799999999998
 30
0.0
 11
100.2999999999999
 21
-21.071400000000001
 31
0.0
  0
LINE
  5
D6
  8
_________2
 62
     7
 10
100.2999999999999
 20
275.93099999999993
 30
0.0
 11
100.2999999999999
 21
258.911
 31
0.0
  0
LINE
  5
D7
  8
_________2
 62
     7
 10
17.049499999999998
 20
127.411
 30
0.0
 11
-4.7008599999999987
 21
127.411
 31
0.0
  0
LINE
  5
D8
  8
_________2
 62
     7
 10
76.741
 20
29.8047
 30
0.0
 11
74.554699999999997
 21
29.8047
 31
0.0
  0
LINE
  5
D9
  8
_________2
 62
     7
 10
77.233699999999999
 20
29.8047
 30
0.0
 11
76.981499999999997
 21
29.8047
 31
0.0
  0
LINE
  5
DA
  8
_________2
 62
     7
 10
77.726299999999995
 20
29.8047
 30
0.0
 11
80.651200000000003
 21
29.8047
 31
0.0
  0
LINE
  5
DB
  8
_________2
 62
     7
 10
77.233699999999999
 20
29.8047
 30
0.0
 11
77.485900000000001
 21
29.8047
 31
0.0
  0
LINE
  5
DC
  8
_________2
 62
     7
 10
70.837500000000006
 20
29.8047
 30
0.0
 11
68.650499999999994
 21
29.8047
 31
0.0
  0
LINE
  5
DD
  8
_________2
 62
     7
 10
71.329400000000007
 20
29.8047
 30
0.0
 11
71.0779
 21
29.8047
 31
0.0
  0
LINE
  5
DE
  8
_________2
 62
     7
 10
71.329400000000007
 20
30.2974
 30
0.0
 11
71.329400000000007
 21
32.484400000000001
 31
0.0
  0
LINE
  5
DF
  8
_________2
 62
     7
 10
71.329400000000007
 20
29.8047
 30
0.0
 11
71.329400000000007
 21
30.056899999999992
 31
0.0
  0
LINE
  5
E0
  8
_________2
 62
     7
 10
71.822100000000006
 20
29.8047
 30
0.0
 11
74.009
 21
29.8047
 31
0.0
  0
LINE
  5
E1
  8
_________2
 62
     7
 10
71.329400000000007
 20
29.8047
 30
0.0
 11
71.581599999999995
 21
29.8047
 31
0.0
  0
LINE
  5
E2
  8
_________2
 62
     7
 10
71.329400000000007
 20
29.312799999999999
 30
0.0
 11
71.329400000000007
 21
27.125800000000002
 31
0.0
  0
LINE
  5
E3
  8
_________2
 62
     7
 10
71.329400000000007
 20
29.8047
 30
0.0
 11
71.329400000000007
 21
29.5532
 31
0.0
  0
LINE
  5
E4
  8
_________2
 62
     7
 10
75.040499999999994
 20
28.5852
 30
0.0
 11
80.218500000000006
 21
27.720400000000001
 31
0.0
  0
LINE
  5
E5
  8
_________2
 62
     7
 10
75.040499999999994
 20
31.0243
 30
0.0
 11
80.218500000000006
 21
31.889700000000001
 31
0.0
  0
LINE
  5
E6
  8
_________2
 62
     7
 10
80.218500000000006
 20
27.720400000000001
 30
0.0
 11
80.218500000000006
 21
31.889700000000001
 31
0.0
  0
LINE
  5
E7
  8
_________2
 62
     7
 10
75.040499999999994
 20
28.5852
 30
0.0
 11
75.040499999999994
 21
31.0243
 31
0.0
  0
ARC
  5
E8
  8
_________2
 62
     7
 10
71.283190000000005
 20
29.757787
 30
0.0
 40
1.2673709999999989
 50
2.1232950000000002
 51
87.909056000000007
  0
ARC
  5
E9
  8
_________2
 62
     7
 10
71.375959999999992
 20
29.758213000000001
 30
0.0
 40
1.2669559999999991
 50
92.104701000000006
 51
177.8952689999999
  0
ARC
  5
EA
  8
_________2
 62
     7
 10
71.376357999999996
 20
29.851671
 30
0.0
 40
1.2673680000000001
 50
182.12203600000001
 51
267.877993
  0
ARC
  5
EB
  8
_________2
 62
     7
 10
71.282541000000009
 20
29.852347999999999
 30
0.0
 40
1.2680439999999991
 50
272.11916400000001
 51
357.84848499999993
  0
ARC
  5
EC
  8
_________2
 62
     7
 10
71.329430000000002
 20
29.804742999999998
 30
0.0
 40
2.0849849999999992
 50
0.00001
 51
89.999980000000008
  0
ARC
  5
ED
  8
_________2
 62
     7
 10
71.409075999999999
 20
29.725812999999992
 30
0.0
 40
2.165379999999999
 50
92.107876000000005
 51
177.91103200000001
  0
ARC
  5
EE
  8
_________2
 62
     7
 10
71.409439000000006
 20
29.884751999999999
 30
0.0
 40
2.1657829999999998
 50
182.117133
 51
267.88289700000001
  0
ARC
  5
EF
  8
_________2
 62
     7
 10
71.249459000000002
 20
29.885429999999989
 30
0.0
 40
2.1664590000000001
 50
272.11546800000002
 51
357.86560400000002
  0
TEXT
  5
F0
  8
_________2
 62
     7
 10
104.605
 20
1.6794899999999999
 30
0.0
 40
3.0923400000000001
  1
図番
 41
0.5
  0
LINE
  5
F1
  8
_________2
 62
     7
 10
103.55
 20
5.9087199999999989
 30
0.0
 11
183.55099999999999
 21
5.9087199999999989
 31
0.0
  0
TEXT
  5
F2
  8
_________2
 62
     7
 10
104.605
 20
11.679299999999991
 30
0.0
 40
3.0923400000000001
  1
品番
 41
0.5
  0
TEXT
  5
F3
  8
_________2
 62
     7
 10
104.605
 20
31.818100000000001
 30
0.0
 40
3.0923400000000001
  1
名称
 41
0.5
  0
TEXT
  5
F4
  8
_________2
 62
     7
 10
91.845058333333341
 20
26.821999999999989
 30
0.0
 40
3.6545800000000002
  1
mm
 41
0.5
 72
     1
 11
93.367800000000003
 21
26.821999999999989
 31
0.0
  0
TEXT
  5
F5
  8
_________2
 62
     7
 10
85.643199999999993
 20
31.818100000000001
 30
0.0
 40
3.0923400000000001
  1
単位
 41
0.5
  0
TEXT
  5
F6
  8
_________2
 62
     7
 10
85.643199999999993
 20
19.410799999999991
 30
0.0
 40
3.0923400000000001
  1
尺度
 41
0.5
  0
TEXT
  5
F7
  8
_________2
 62
     7
 10
90.548758666666686
 20
13.2179
 30
0.0
 40
3.6545800000000002
  1
1 ： 2
 41
0.5
 72
     1
 11
93.959699999999998
 21
13.2179
 31
0.0
  0
TEXT
  5
F8
  8
_________2
 62
     7
 10
138.13841249999999
 20
9.1078600000000005
 30
0.0
 40
3.9357000000000002
  1
CET570
 41
0.5
 72
     1
 11
143.55000000000001
 21
9.1078600000000005
 31
0.0
  0
TEXT
  5
F9
  8
_________2
 62
     7
 10
138.13841249999999
 20
-0.8926299999999999
 30
0.0
 40
3.9357000000000002
  1
CET570
 41
0.5
 72
     1
 11
143.55000000000001
 21
-0.8926299999999999
 31
0.0
  0
TEXT
  5
FA
  8
_________2
 62
     7
 10
109.179
 20
24.2257
 30
0.0
 40
3.9357000000000002
  1
延長連結金具
 41
0.5
  0
TEXT
  5
FB
  8
_________2
 62
     7
 10
39.364390666666658
 20
13.603
 30
0.0
 40
3.6545800000000002
  1
高橋
 41
0.5
 72
     1
 11
41.313499999999998
 21
13.603
 31
0.0
  0
TEXT
  5
FC
  8
_________2
 62
     7
 10
20.79039066666666
 20
13.603
 30
0.0
 40
3.6545800000000002
  1
石原
 41
0.5
 72
     1
 11
22.7395
 21
13.603
 31
0.0
  0
TEXT
  5
FD
  8
_________2
 62
     7
 10
67.785799999999995
 20
13.2179
 30
0.0
 40
3.6545800000000002
  1
08.11.21
 41
0.5
  0
TEXT
  5
FE
  8
_________2
 62
     7
 10
66.593100000000007
 20
19.410799999999991
 30
0.0
 40
3.0923400000000001
  1
日付
 41
0.5
  0
TEXT
  5
FF
  8
_________2
 62
     7
 10
29.639399999999998
 20
19.410799999999991
 30
0.0
 40
3.0923400000000001
  1
検図
 41
0.5
  0
TEXT
  5
100
  8
_________2
 62
     7
 10
18.021100000000001
 20
5.21143
 30
0.0
 40
3.0923400000000001
  1
備考
 41
0.5
  0
TEXT
  5
101
  8
_________2
 62
     7
 10
18.021100000000001
 20
19.410799999999991
 30
0.0
 40
3.0923400000000001
  1
製図
 41
0.5
  0
TEXT
  5
102
  8
_________2
 62
     7
 10
23.788465333333338
 20
27.936800000000002
 30
0.0
 40
4.4979399999999989
  1
セラトレーディング株式会社
 41
0.5
 72
     1
 11
41.180500000000002
 21
27.936800000000002
 31
0.0
  0
LINE
  5
103
  8
_________2
 62
     7
 10
183.55099999999999
 20
-4.0910799999999998
 30
0.0
 11
17.049499999999998
 21
-4.0910799999999998
 31
0.0
  0
LINE
  5
104
  8
_________2
 62
     7
 10
17.049499999999998
 20
-4.0910799999999998
 30
0.0
 11
17.049499999999998
 21
258.911
 31
0.0
  0
LINE
  5
105
  8
_________2
 62
     7
 10
17.049499999999998
 20
258.911
 30
0.0
 11
183.55099999999999
 21
258.911
 31
0.0
  0
LINE
  5
106
  8
_________2
 62
     7
 10
183.55099999999999
 20
258.911
 30
0.0
 11
183.55099999999999
 21
-4.0910799999999998
 31
0.0
  0
LINE
  5
107
  8
_________2
 62
     7
 10
65.549899999999994
 20
9.4089600000000004
 30
0.0
 11
65.549899999999994
 21
35.908799999999999
 31
0.0
  0
LINE
  5
108
  8
_________2
 62
     7
 10
84.549700000000016
 20
9.4089600000000004
 30
0.0
 11
84.549700000000016
 21
35.908799999999999
 31
0.0
  0
LINE
  5
109
  8
_________2
 62
     7
 10
103.55
 20
-4.0910799999999998
 30
0.0
 11
103.55
 21
35.908799999999999
 31
0.0
  0
LINE
  5
10A
  8
_________2
 62
     7
 10
28.549299999999992
 20
9.4089600000000004
 30
0.0
 11
28.549299999999992
 21
23.409199999999998
 31
0.0
  0
LINE
  5
10B
  8
_________2
 62
     7
 10
17.049499999999998
 20
9.4089600000000004
 30
0.0
 11
103.55
 21
9.4089600000000004
 31
0.0
  0
LINE
  5
10C
  8
_________2
 62
     7
 10
17.049499999999998
 20
23.409199999999998
 30
0.0
 11
103.55
 21
23.409199999999998
 31
0.0
  0
LINE
  5
10D
  8
_________2
 62
     7
 10
103.55
 20
15.9085
 30
0.0
 11
183.55099999999999
 21
15.9085
 31
0.0
  0
LINE
  5
10E
  8
_________2
 62
     7
 10
17.049499999999998
 20
35.908799999999999
 30
0.0
 11
183.55099999999999
 21
35.908799999999999
 31
0.0
  0
ENDSEC
  0
EOF
