  0
SECTION
  2
HEADER
  9
$ACADVER
  1
AC1009
  9
$INSBASE
 10
0.0
 20
0.0
 30
0.0
  9
$EXTMIN
 10
-4.70052
 20
-21.071400000000001
 30
0.0
  9
$EXTMAX
 10
205.30099999999999
 20
275.93099999999993
 30
0.0
  9
$LIMMIN
 10
0.0
 20
0.0
  9
$LIMMAX
 10
12.0
 20
9.0
  9
$ORTHOMODE
 70
     0
  9
$REGENMODE
 70
     1
  9
$FILLMODE
 70
     1
  9
$QTEXTMODE
 70
     0
  9
$MIRRTEXT
 70
     1
  9
$DRAGMODE
 70
     2
  9
$LTSCALE
 40
1.0
  9
$OSMODE
 70
    37
  9
$ATTMODE
 70
     1
  9
$TEXTSIZE
 40
0.0
  9
$TRACEWID
 40
0.05
  9
$TEXTSTYLE
  7
STANDARD
  9
$CLAYER
  8
0
  9
$CELTYPE
  6
CONTINUOUS
  9
$CECOLOR
 62
   256
  9
$DIMSCALE
 40
1.0
  9
$DIMASZ
 40
0.18
  9
$DIMEXO
 40
0.0625
  9
$DIMDLI
 40
0.38
  9
$DIMRND
 40
0.0
  9
$DIMDLE
 40
0.0
  9
$DIMEXE
 40
0.18
  9
$DIMTP
 40
0.0
  9
$DIMTM
 40
0.0
  9
$DIMTXT
 40
0.18
  9
$DIMCEN
 40
0.09
  9
$DIMTSZ
 40
0.0
  9
$DIMTOL
 70
     0
  9
$DIMLIM
 70
     0
  9
$DIMTIH
 70
     1
  9
$DIMTOH
 70
     1
  9
$DIMSE1
 70
     0
  9
$DIMSE2
 70
     0
  9
$DIMTAD
 70
     0
  9
$DIMZIN
 70
     0
  9
$DIMBLK
  1

  9
$DIMASO
 70
     1
  9
$DIMSHO
 70
     1
  9
$DIMPOST
  1

  9
$DIMAPOST
  1

  9
$DIMALT
 70
     0
  9
$DIMALTD
 70
     2
  9
$DIMALTF
 40
25.399999999999999
  9
$DIMLFAC
 40
1.0
  9
$DIMTOFL
 70
     0
  9
$DIMTVP
 40
0.0
  9
$DIMTIX
 70
     0
  9
$DIMSOXD
 70
     0
  9
$DIMSAH
 70
     0
  9
$DIMBLK1
  1

  9
$DIMBLK2
  1

  9
$DIMSTYLE
  2
STANDARD
  9
$DIMCLRD
 70
     0
  9
$DIMCLRE
 70
     0
  9
$DIMCLRT
 70
     0
  9
$DIMTFAC
 40
1.0
  9
$DIMGAP
 40
0.09
  9
$LUNITS
 70
     2
  9
$LUPREC
 70
     4
  9
$SKETCHINC
 40
0.1
  9
$FILLETRAD
 40
0.0
  9
$AUNITS
 70
     0
  9
$AUPREC
 70
     0
  9
$MENU
  1
.
  9
$ELEVATION
 40
0.0
  9
$PELEVATION
 40
0.0
  9
$THICKNESS
 40
0.0
  9
$LIMCHECK
 70
     0
  9
$BLIPMODE
 70
     0
  9
$CHAMFERA
 40
0.0
  9
$CHAMFERB
 40
0.0
  9
$SKPOLY
 70
     0
  9
$TDCREATE
 40
2444972.375
  9
$TDUPDATE
 40
2456675.246296146
  9
$TDINDWG
 40
0.0000064352
  9
$TDUSRTIMER
 40
0.0000064352
  9
$USRTIMER
 70
     1
  9
$ANGBASE
 50
0.0
  9
$ANGDIR
 70
     0
  9
$PDMODE
 70
     0
  9
$PDSIZE
 40
0.0
  9
$PLINEWID
 40
0.0
  9
$COORDS
 70
     1
  9
$SPLFRAME
 70
     0
  9
$SPLINETYPE
 70
     6
  9
$SPLINESEGS
 70
     8
  9
$ATTDIA
 70
     0
  9
$ATTREQ
 70
     1
  9
$HANDLING
 70
     1
  9
$HANDSEED
  5
262
  9
$SURFTAB1
 70
     6
  9
$SURFTAB2
 70
     6
  9
$SURFTYPE
 70
     6
  9
$SURFU
 70
     6
  9
$SURFV
 70
     6
  9
$UCSNAME
  2

  9
$UCSORG
 10
0.0
 20
0.0
 30
0.0
  9
$UCSXDIR
 10
1.0
 20
0.0
 30
0.0
  9
$UCSYDIR
 10
0.0
 20
1.0
 30
0.0
  9
$PUCSNAME
  2

  9
$PUCSORG
 10
0.0
 20
0.0
 30
0.0
  9
$PUCSXDIR
 10
1.0
 20
0.0
 30
0.0
  9
$PUCSYDIR
 10
0.0
 20
1.0
 30
0.0
  9
$USERI1
 70
     0
  9
$USERI2
 70
     0
  9
$USERI3
 70
     0
  9
$USERI4
 70
     0
  9
$USERI5
 70
     0
  9
$USERR1
 40
0.0
  9
$USERR2
 40
0.0
  9
$USERR3
 40
0.0
  9
$USERR4
 40
0.0
  9
$USERR5
 40
0.0
  9
$WORLDVIEW
 70
     1
  9
$SHADEDGE
 70
     3
  9
$SHADEDIF
 70
    70
  9
$TILEMODE
 70
     1
  9
$MAXACTVP
 70
    48
  9
$PLIMCHECK
 70
     0
  9
$PEXTMIN
 10
1.0000000000000000E+020
 20
1.0000000000000000E+020
 30
1.0000000000000000E+020
  9
$PEXTMAX
 10
-1.0000000000000000E+020
 20
-1.0000000000000000E+020
 30
-1.0000000000000000E+020
  9
$PLIMMIN
 10
0.0
 20
0.0
  9
$PLIMMAX
 10
12.0
 20
9.0
  9
$UNITMODE
 70
     0
  9
$VISRETAIN
 70
     1
  9
$PLINEGEN
 70
     0
  9
$PSLTSCALE
 70
     1
  0
ENDSEC
  0
SECTION
  2
TABLES
  0
TABLE
  2
VPORT
 70
     2
  0
VPORT
  2
*ACTIVE
 70
     0
 10
0.0
 20
0.0
 11
1.0
 21
1.0
 12
202.00678374696719
 22
127.4298
 13
0.0
 23
0.0
 14
1.0
 24
1.0
 15
0.0
 25
0.0
 16
0.0
 26
0.0
 36
1.0
 17
0.0
 27
0.0
 37
0.0
 40
299.45358899587342
 41
2.2894736842105261
 42
50.0
 43
0.0
 44
0.0
 50
0.0
 51
0.0
 71
     0
 72
   100
 73
     1
 74
     1
 75
     0
 76
     0
 77
     0
 78
     0
  0
ENDTAB
  0
TABLE
  2
LTYPE
 70
     4
  0
LTYPE
  2
CONTINUOUS
 70
     0
  3
Solid line
 72
    65
 73
     0
 40
0.0
  0
LTYPE
  2
AIGENLINE001
 70
     0
  3
generate AI->DXF Converter
 72
    65
 73
     5
 40
5.8561449999999988
 49
3.5278
 49
-0.776115
 49
0.776115
 49
-0.776115
 49
0.0
  0
LTYPE
  2
AIGENLINE002
 70
     0
  3
generate AI->DXF Converter
 72
    65
 73
     6
 40
7.4083750000000004
 49
3.5278
 49
-0.776115
 49
0.776115
 49
-0.776115
 49
0.776115
 49
-0.776115
  0
LTYPE
  2
AIGENLINE003
 70
     0
  3
generate AI->DXF Converter
 72
    65
 73
     4
 40
5.8561449999999988
 49
3.5278
 49
-0.776115
 49
0.776115
 49
-0.776115
  0
ENDTAB
  0
TABLE
  2
LAYER
 70
     2
  0
LAYER
  2
0
 70
     0
 62
     7
  6
CONTINUOUS
  0
LAYER
  2
_________2
 70
     0
 62
     7
  6
CONTINUOUS
  0
ENDTAB
  0
TABLE
  2
STYLE
 70
     1
  0
STYLE
  2
STANDARD
 70
     0
 40
0.0
 41
0.0
 50
0.0
 71
     0
 42
0.0
  3
TXT
  4
EXTFONT.SHX
  0
ENDTAB
  0
TABLE
  2
VIEW
 70
     0
  0
ENDTAB
  0
TABLE
  2
UCS
 70
     0
  0
ENDTAB
  0
TABLE
  2
APPID
 70
     1
  0
APPID
  2
ACAD
 70
     0
  0
ENDTAB
  0
TABLE
  2
DIMSTYLE
 70
     1
  0
DIMSTYLE
  2
STANDARD
 70
     0
  3

  4

  5

  6

  7

 40
1.0
 41
0.18
 42
0.0625
 43
0.38
 44
0.18
 45
0.0
 46
0.0
 47
0.0
 48
0.0
140
0.18
141
0.09
142
0.0
143
25.399999999999999
144
1.0
145
0.0
146
1.0
147
0.09
 71
     0
 72
     0
 73
     1
 74
     1
 75
     0
 76
     0
 77
     0
 78
     0
170
     0
171
     2
172
     0
173
     0
174
     0
175
     0
176
     0
177
     0
178
     0
  0
ENDTAB
  0
ENDSEC
  0
SECTION
  2
BLOCKS
  0
BLOCK
  8
0
  2
$MODEL_SPACE
 70
     0
 10
0.0
 20
0.0
 30
0.0
  3
$MODEL_SPACE
  1

  0
ENDBLK
  5
1A
  8
0
  0
BLOCK
 67
     1
  8
0
  2
$PAPER_SPACE
 70
     0
 10
0.0
 20
0.0
 30
0.0
  3
$PAPER_SPACE
  1

  0
ENDBLK
  5
17
 67
     1
  8
0
  0
ENDSEC
  0
SECTION
  2
ENTITIES
  0
TEXT
  5
24
  8
0
 62
     7
 10
44.865341999999998
 20
43.375100000000003
 30
0.0
 40
3.0923400000000001
  1
水栓金具取付穴
 41
0.5
 72
     1
 11
51.153100000000002
 21
43.375100000000003
 31
0.0
  0
TEXT
  5
25
  8
0
 62
     7
 10
144.24992299999991
 20
43.045400000000001
 30
0.0
 40
3.0923400000000001
  1
※差込み接続不可
 41
0.5
 72
     1
 11
151.61999999999989
 21
43.045400000000001
 31
0.0
  0
TEXT
  5
26
  8
0
 62
     7
 10
163.49600000000001
 20
76.283500000000004
 30
0.0
 40
3.0923400000000001
  1
※
 41
0.5
  0
TEXT
  5
27
  8
0
 62
     7
 10
135.21100000000001
 20
78.106999999999999
 30
0.0
 40
3.0923400000000001
  1
G1/2
 41
0.5
  0
TEXT
  5
28
  8
0
 62
     7
 10
162.68635499999991
 20
66.616200000000006
 30
0.0
 40
3.0923400000000001
  1
%%c12.7
 41
0.5
 72
     1
 11
165.5209999999999
 21
66.616200000000006
 31
0.0
  0
TEXT
  5
29
  8
0
 62
     7
 10
117.3064539999999
 20
185.965
 30
0.0
 40
3.0923400000000001
  1
開
 41
0.5
 72
     1
 11
118.02799999999991
 21
185.965
 31
0.0
  0
TEXT
  5
2A
  8
0
 62
     7
 10
107.329454
 20
156.01900000000001
 30
0.0
 40
3.0923400000000001
  1
閉
 41
0.5
 72
     1
 11
108.051
 21
156.01900000000001
 31
0.0
  0
TEXT
  5
2B
  8
0
 62
     7
 10
132.0315249999999
 20
197.13800000000001
 30
0.0
 40
3.0923400000000001
  1
86
 41
0.5
 72
     1
 11
133.31999999999991
 21
197.13800000000001
 31
0.0
  0
TEXT
  5
2C
  8
0
 62
     7
 10
77.678399999999996
 20
86.199592499999994
 30
0.0
 40
3.0923400000000001
  1
60.5
 50
90.0
 41
0.5
 72
     1
 11
77.678399999999996
 21
88.390000000000001
 31
0.0
  0
TEXT
  5
2D
  8
0
 62
     7
 10
97.921282500000004
 20
114.928
 30
0.0
 40
3.0923400000000001
  1
40%%d
 41
0.5
 72
     1
 11
99.596299999999999
 21
114.928
 31
0.0
  0
TEXT
  5
2E
  8
0
 62
     7
 10
61.90547999999999
 20
50.571899999999999
 30
0.0
 40
3.0923400000000001
  1
%%c25
 41
0.5
 72
     2
 11
66.028599999999983
 21
50.571899999999999
 31
0.0
  0
TEXT
  5
2F
  8
0
 62
     7
 10
125.8479824999999
 20
120.006
 30
0.0
 40
3.0923400000000001
  1
105
 41
0.5
 72
     1
 11
127.523
 21
120.006
 31
0.0
  0
TEXT
  5
30
  8
0
 62
     7
 10
115.535
 20
112.8375249999999
 30
0.0
 40
3.0923400000000001
  1
38
 50
90.0
 41
0.5
 72
     1
 11
115.535
 21
114.126
 31
0.0
  0
TEXT
  5
31
  8
0
 62
     7
 10
90.492699999999985
 20
114.337525
 30
0.0
 40
3.0923400000000001
  1
44
 50
90.0
 41
0.5
 72
     1
 11
90.492699999999985
 21
115.626
 31
0.0
  0
TEXT
  5
32
  8
0
 62
     7
 10
77.678399999999996
 20
131.60235499999999
 30
0.0
 40
3.0923400000000001
  1
126.5
 50
90.0
 41
0.5
 72
     1
 11
77.678399999999996
 21
134.43700000000001
 31
0.0
  0
TEXT
  5
33
  8
0
 62
     7
 10
48.194259999999993
 20
113.361
 30
0.0
 40
3.0923400000000001
  1
%%c43.5
 41
0.5
 72
     1
 11
51.286599999999993
 21
113.361
 31
0.0
  0
TEXT
  5
34
  8
0
 62
     7
 10
48.134360000000001
 20
174.5749999999999
 30
0.0
 40
3.0923400000000001
  1
%%c38.5
 41
0.5
 72
     1
 11
51.226700000000001
 21
174.5749999999999
 31
0.0
  0
TEXT
  5
35
  8
0
 62
     7
 10
69.374300000000005
 20
92.767700000000005
 30
0.0
 40
3.0923400000000001
  1
max.30 
 50
90.0
 41
0.5
  0
ARC
  5
36
  8
0
 62
     7
 10
155.96056799999991
 20
157.50070500000001
 30
0.0
 40
40.081389000000001
 50
142.13545400000001
 51
179.87430599999999
  0
ARC
  5
37
  8
0
 62
     7
 10
55.061841999999999
 20
196.5819009999999
 30
0.0
 40
1.092883
 50
329.73783899999989
 51
359.87019299999997
  0
ARC
  5
38
  8
0
 62
     7
 10
54.599627000000012
 20
196.81264499999989
 30
0.0
 40
1.6087480000000001
 50
316.17312099999992
 51
330.93589800000001
  0
ARC
  5
39
  8
0
 62
     7
 10
53.969574000000001
 20
197.38090399999999
 30
0.0
 40
2.456941
 50
304.09499799999992
 51
316.78733199999988
  0
ARC
  5
3A
  8
0
 62
     7
 10
53.154240000000001
 20
198.506326
 30
0.0
 40
3.8462179999999999
 50
294.16721200000001
 51
304.75510400000002
  0
ARC
  5
3B
  8
0
 62
     7
 10
52.325059000000003
 20
200.22437600000001
 30
0.0
 40
5.7534010000000002
 50
286.15471700000001
 51
294.69637999999992
  0
ARC
  5
3C
  8
0
 62
     7
 10
51.659540999999997
 20
202.37324299999989
 30
0.0
 40
8.0026929999999972
 50
274.73375800000002
 51
286.45080899999999
  0
ARC
  5
3D
  8
0
 62
     7
 10
51.43063699999999
 20
204.13584899999989
 30
0.0
 40
9.7785270000000004
 50
269.96449699999999
 51
275.21811500000001
  0
ARC
  5
3E
  8
0
 62
     7
 10
51.426258000000011
 20
202.8091719999999
 30
0.0
 40
8.451848
 50
252.43182300000001
 51
269.98861299999987
  0
ARC
  5
3F
  8
0
 62
     7
 10
50.77654299999999
 20
200.5364129999999
 30
0.0
 40
6.0893480000000002
 50
241.253829
 51
251.805161
  0
ARC
  5
40
  8
0
 62
     7
 10
49.735903
 20
198.55974199999989
 30
0.0
 40
3.855998
 50
230.1580109999999
 51
240.68545599999999
  0
ARC
  5
41
  8
0
 62
     7
 10
48.748159999999999
 20
197.33885799999999
 30
0.0
 40
2.2858900000000002
 50
217.09656299999989
 51
229.561846
  0
ARC
  5
42
  8
0
 62
     7
 10
47.963005000000003
 20
196.72785300000001
 30
0.0
 40
1.2911749999999991
 50
195.55786000000001
 51
216.485252
  0
ARC
  5
43
  8
0
 62
     7
 10
47.540838000000001
 20
196.583155
 30
0.0
 40
0.8460719999999998
 50
180.25264999999999
 51
193.7855879999999
  0
ARC
  5
44
  8
0
 62
     7
 10
53.68095799999999
 20
194.0898399999999
 30
0.0
 40
2.4737669999999992
 50
336.06811499999998
 51
359.9195279999999
  0
ARC
  5
45
  8
0
 62
     7
 10
52.925693000000003
 20
194.37154099999989
 30
0.0
 40
3.278737
 50
320.89300099999991
 51
336.92251299999992
  0
ARC
  5
46
  8
0
 62
     7
 10
52.141311999999999
 20
194.95881199999999
 30
0.0
 40
4.2580049999999998
 50
304.65798799999988
 51
321.41860400000002
  0
ARC
  5
47
  8
0
 62
     7
 10
51.478357000000003
 20
195.85487000000001
 30
0.0
 40
5.3721940000000004
 50
269.426421
 51
305.03931999999998
  0
ARC
  5
48
  8
0
 62
     7
 10
51.435786999999991
 20
196.063603
 30
0.0
 40
5.5806690000000003
 50
235.64567999999991
 51
269.88490999999988
  0
ARC
  5
49
  8
0
 62
     7
 10
50.876818
 20
195.12795600000001
 30
0.0
 40
4.4932939999999997
 50
216.51658099999989
 51
234.79730499999991
  0
ARC
  5
4A
  8
0
 62
     7
 10
49.927883000000001
 20
194.36688000000001
 30
0.0
 40
3.278103999999999
 50
196.8710209999999
 51
215.69512099999989
  0
ARC
  5
4B
  8
0
 62
     7
 10
49.196366999999988
 20
194.10238299999989
 30
0.0
 40
2.5016430000000001
 50
180.366885
 51
195.9362219999999
  0
ARC
  5
4C
  8
0
 62
     7
 10
53.68095799999999
 20
188.233485
 30
0.0
 40
2.4737669999999992
 50
336.06811499999998
 51
359.9195279999999
  0
ARC
  5
4D
  8
0
 62
     7
 10
52.925693000000003
 20
188.515186
 30
0.0
 40
3.278737
 50
320.89300099999991
 51
336.92251299999992
  0
ARC
  5
4E
  8
0
 62
     7
 10
52.141311999999999
 20
189.10245699999999
 30
0.0
 40
4.2580049999999998
 50
304.65798799999988
 51
321.41860400000002
  0
ARC
  5
4F
  8
0
 62
     7
 10
51.478357000000003
 20
189.998515
 30
0.0
 40
5.3721940000000004
 50
269.426421
 51
305.03931999999998
  0
ARC
  5
50
  8
0
 62
     7
 10
51.435786999999991
 20
190.20724799999991
 30
0.0
 40
5.5806690000000003
 50
235.64567999999991
 51
269.88490999999988
  0
ARC
  5
51
  8
0
 62
     7
 10
50.876818
 20
189.271601
 30
0.0
 40
4.4932939999999997
 50
216.51658099999989
 51
234.79730499999991
  0
ARC
  5
52
  8
0
 62
     7
 10
49.927883000000001
 20
188.510525
 30
0.0
 40
3.278103999999999
 50
196.8710209999999
 51
215.69512099999989
  0
ARC
  5
53
  8
0
 62
     7
 10
49.196366999999988
 20
188.24602899999999
 30
0.0
 40
2.5016430000000001
 50
180.366885
 51
195.9362219999999
  0
LINE
  5
54
  8
0
 62
     7
 10
46.694400000000002
 20
232.34899999999999
 30
0.0
 11
46.694400000000002
 21
188.2299999999999
 31
0.0
  0
LINE
  5
55
  8
0
 62
     7
 10
56.154699999999998
 20
188.2299999999999
 30
0.0
 11
56.154699999999998
 21
232.34899999999999
 31
0.0
  0
ARC
  5
56
  8
0
 62
     7
 10
103.36632299999989
 20
126.85476199999999
 30
0.0
 40
8.0097320000000014
 50
196.52539899999991
 51
268.76237500000002
  0
LINE
  5
57
  8
0
 62
     7
 10
48.8566
 20
198.53999999999999
 30
0.0
 11
48.8566
 21
231.45400000000001
 31
0.0
  0
LINE
  5
58
  8
0
 62
     7
 10
53.992600000000003
 20
198.53999999999999
 30
0.0
 11
53.992600000000003
 21
231.45400000000001
 31
0.0
  0
ARC
  5
59
  8
0
 62
     7
 10
51.424489000000001
 20
240.7302399999999
 30
0.0
 40
9.6252289999999991
 50
270.00053300000002
 51
0.000503
  0
ARC
  5
5A
  8
0
 62
     7
 10
51.424661
 20
240.73023699999999
 30
0.0
 40
9.6252250000000004
 50
179.999458
 51
269.99950699999988
  0
ARC
  5
5B
  8
0
 62
     7
 10
51.424492000000001
 20
240.73023699999999
 30
0.0
 40
9.6250559999999972
 50
89.999487000000002
 51
179.999458
  0
ARC
  5
5C
  8
0
 62
     7
 10
51.424661
 20
240.73023699999999
 30
0.0
 40
9.6250559999999972
 50
0.000523
 51
90.000493000000006
  0
LINE
  5
5D
  8
0
  6
AIGENLINE001
 62
     7
 10
111.551
 20
137.196
 30
0.0
 11
155.6939999999999
 21
137.196
 31
0.0
  0
LINE
  5
5E
  8
0
 62
     7
 10
160.2889999999999
 20
101.021
 30
0.0
 11
160.2889999999999
 21
89.625399999999999
 31
0.0
  0
LINE
  5
5F
  8
0
 62
     7
 10
160.2889999999999
 20
101.021
 30
0.0
 11
160.83000000000001
 21
101.562
 31
0.0
  0
LINE
  5
60
  8
0
 62
     7
 10
151.0989999999999
 20
101.021
 30
0.0
 11
150.55899999999991
 21
101.562
 31
0.0
  0
LINE
  5
61
  8
0
 62
     7
 10
151.0989999999999
 20
89.625399999999999
 30
0.0
 11
151.0989999999999
 21
101.021
 31
0.0
  0
LINE
  5
62
  8
0
 62
     7
 10
160.83000000000001
 20
101.021
 30
0.0
 11
150.55899999999991
 21
101.021
 31
0.0
  0
LINE
  5
63
  8
0
 62
     7
 10
148.92599999999999
 20
80.674299999999988
 30
0.0
 11
150.55899999999991
 21
82.277699999999996
 31
0.0
  0
LINE
  5
64
  8
0
 62
     7
 10
150.55899999999991
 20
82.277699999999996
 30
0.0
 11
148.34299999999999
 21
81.704699999999988
 31
0.0
  0
LINE
  5
65
  8
0
 62
     7
 10
148.34299999999999
 20
81.704699999999988
 30
0.0
 11
148.92599999999999
 21
80.674299999999988
 31
0.0
  0
LINE
  5
66
  8
0
 62
     7
 10
150.55899999999991
 20
82.277699999999996
 30
0.0
 11
141.947
 21
77.406999999999996
 31
0.0
  0
LINE
  5
67
  8
0
 62
     7
 10
141.947
 20
77.406999999999996
 30
0.0
 11
135.21100000000001
 21
77.406999999999996
 31
0.0
  0
LINE
  5
68
  8
0
 62
     7
 10
161.13599999999991
 20
65.844099999999997
 30
0.0
 11
158.92500000000001
 21
65.251900000000006
 31
0.0
  0
LINE
  5
69
  8
0
 62
     7
 10
158.92500000000001
 20
65.251900000000006
 30
0.0
 11
161.13599999999991
 21
64.659300000000002
 31
0.0
  0
LINE
  5
6A
  8
0
 62
     7
 10
161.13599999999991
 20
64.659300000000002
 30
0.0
 11
161.13599999999991
 21
65.844099999999997
 31
0.0
  0
LINE
  5
6B
  8
0
 62
     7
 10
150.239
 20
64.674199999999999
 30
0.0
 11
152.4499999999999
 21
65.266400000000004
 31
0.0
  0
LINE
  5
6C
  8
0
 62
     7
 10
152.4499999999999
 20
65.266400000000004
 30
0.0
 11
150.239
 21
65.858599999999996
 31
0.0
  0
LINE
  5
6D
  8
0
 62
     7
 10
150.239
 20
65.858599999999996
 30
0.0
 11
150.239
 21
64.674199999999999
 31
0.0
  0
LINE
  5
6E
  8
0
 62
     7
 10
60.009500000000003
 20
49.871899999999997
 30
0.0
 11
66.028599999999983
 21
49.871899999999997
 31
0.0
  0
LINE
  5
6F
  8
0
 62
     7
 10
148.018
 20
65.259100000000004
 30
0.0
 11
169.39500000000001
 21
65.259100000000004
 31
0.0
  0
LINE
  5
70
  8
0
 62
     7
 10
115.65000000000001
 20
106.837
 30
0.0
 11
116.242
 21
104.62599999999991
 31
0.0
  0
LINE
  5
71
  8
0
 62
     7
 10
116.242
 20
104.62599999999991
 30
0.0
 11
116.83499999999989
 21
106.837
 31
0.0
  0
LINE
  5
72
  8
0
 62
     7
 10
116.83499999999989
 20
106.837
 30
0.0
 11
115.65000000000001
 21
106.837
 31
0.0
  0
LINE
  5
73
  8
0
 62
     7
 10
116.81999999999989
 20
121.4159999999999
 30
0.0
 11
116.22799999999989
 21
123.626
 31
0.0
  0
LINE
  5
74
  8
0
 62
     7
 10
116.22799999999989
 20
123.626
 30
0.0
 11
115.63499999999991
 21
121.4159999999999
 31
0.0
  0
LINE
  5
75
  8
0
 62
     7
 10
115.63499999999991
 20
121.4159999999999
 30
0.0
 11
116.81999999999989
 21
121.4159999999999
 31
0.0
  0
LINE
  5
76
  8
0
 62
     7
 10
116.2349999999999
 20
104.65299999999991
 30
0.0
 11
116.2349999999999
 21
123.5989999999999
 31
0.0
  0
LINE
  5
77
  8
0
 62
     7
 10
90.771799999999999
 20
106.852
 30
0.0
 11
91.364000000000004
 21
104.64100000000001
 31
0.0
  0
LINE
  5
78
  8
0
 62
     7
 10
91.364000000000004
 20
104.64100000000001
 30
0.0
 11
91.956400000000002
 21
106.852
 31
0.0
  0
LINE
  5
79
  8
0
 62
     7
 10
91.956400000000002
 20
106.852
 30
0.0
 11
90.771799999999999
 21
106.852
 31
0.0
  0
LINE
  5
7A
  8
0
 62
     7
 10
91.941699999999983
 20
124.374
 30
0.0
 11
91.349500000000006
 21
126.584
 31
0.0
  0
LINE
  5
7B
  8
0
 62
     7
 10
91.349500000000006
 20
126.584
 30
0.0
 11
90.757099999999994
 21
124.374
 31
0.0
  0
LINE
  5
7C
  8
0
 62
     7
 10
90.757099999999994
 20
124.374
 30
0.0
 11
91.941699999999983
 21
124.374
 31
0.0
  0
LINE
  5
7D
  8
0
 62
     7
 10
91.356800000000007
 20
104.66799999999991
 30
0.0
 11
91.356800000000007
 21
126.557
 31
0.0
  0
LINE
  5
7E
  8
0
 62
     7
 10
96.419899999999984
 20
121.822
 30
0.0
 11
98.401899999999983
 21
120.6779999999999
 31
0.0
  0
LINE
  5
7F
  8
0
 62
     7
 10
98.401899999999983
 20
120.6779999999999
 30
0.0
 11
97.257600000000011
 21
122.6599999999999
 31
0.0
  0
LINE
  5
80
  8
0
 62
     7
 10
97.257600000000011
 20
122.6599999999999
 30
0.0
 11
96.419899999999984
 21
121.822
 31
0.0
  0
LINE
  5
81
  8
0
 62
     7
 10
115.392
 20
159.8249999999999
 30
0.0
 11
115.87899999999991
 21
157.589
 31
0.0
  0
LINE
  5
82
  8
0
 62
     7
 10
115.87899999999991
 20
157.589
 30
0.0
 11
116.57599999999999
 21
159.76900000000001
 31
0.0
  0
LINE
  5
83
  8
0
 62
     7
 10
116.57599999999999
 20
159.76900000000001
 30
0.0
 11
115.392
 21
159.8249999999999
 31
0.0
  0
LINE
  5
84
  8
0
 62
     7
 10
123.4909999999999
 20
179.9679999999999
 30
0.0
 11
124.3179999999999
 21
182.10300000000001
 31
0.0
  0
LINE
  5
85
  8
0
 62
     7
 10
124.3179999999999
 20
182.10300000000001
 30
0.0
 11
122.5349999999999
 21
180.66800000000001
 31
0.0
  0
LINE
  5
86
  8
0
 62
     7
 10
122.5349999999999
 20
180.66800000000001
 30
0.0
 11
123.4909999999999
 21
179.9679999999999
 31
0.0
  0
LINE
  5
87
  8
0
 62
     7
 10
105.404
 20
119.43899999999999
 30
0.0
 11
103.193
 21
118.84699999999999
 31
0.0
  0
LINE
  5
88
  8
0
 62
     7
 10
103.193
 20
118.84699999999999
 30
0.0
 11
105.404
 21
118.2549999999999
 31
0.0
  0
LINE
  5
89
  8
0
 62
     7
 10
105.404
 20
118.2549999999999
 30
0.0
 11
105.404
 21
119.43899999999999
 31
0.0
  0
LINE
  5
8A
  8
0
 62
     7
 10
153.28200000000001
 20
118.26900000000001
 30
0.0
 11
155.49199999999999
 21
118.861
 31
0.0
  0
LINE
  5
8B
  8
0
 62
     7
 10
155.49199999999999
 20
118.861
 30
0.0
 11
153.28200000000001
 21
119.45399999999989
 31
0.0
  0
LINE
  5
8C
  8
0
 62
     7
 10
153.28200000000001
 20
119.45399999999989
 30
0.0
 11
153.28200000000001
 21
118.26900000000001
 31
0.0
  0
LINE
  5
8D
  8
0
 62
     7
 10
103.221
 20
118.8539999999999
 30
0.0
 11
155.465
 21
118.8539999999999
 31
0.0
  0
LINE
  5
8E
  8
0
 62
     7
 10
153.43299999999991
 20
195.62200000000001
 30
0.0
 11
155.64400000000001
 21
196.214
 31
0.0
  0
LINE
  5
8F
  8
0
 62
     7
 10
155.64400000000001
 20
196.214
 30
0.0
 11
153.43299999999991
 21
196.8059999999999
 31
0.0
  0
LINE
  5
90
  8
0
 62
     7
 10
153.43299999999991
 20
196.8059999999999
 30
0.0
 11
153.43299999999991
 21
195.62200000000001
 31
0.0
  0
LINE
  5
91
  8
0
 62
     7
 10
115.0
 20
196.791
 30
0.0
 11
112.79000000000001
 21
196.19900000000001
 31
0.0
  0
LINE
  5
92
  8
0
 62
     7
 10
112.79000000000001
 20
196.19900000000001
 30
0.0
 11
115.0
 21
195.607
 31
0.0
  0
LINE
  5
93
  8
0
 62
     7
 10
115.0
 20
195.607
 30
0.0
 11
115.0
 21
196.791
 31
0.0
  0
LINE
  5
94
  8
0
  6
AIGENLINE001
 62
     7
 10
155.6939999999999
 20
157.589
 30
0.0
 11
120.54300000000001
 21
185.05199999999999
 31
0.0
  0
ARC
  5
95
  8
0
  6
AIGENLINE002
 62
     7
 10
125.2565499999999
 20
181.33125999999999
 30
0.0
 40
4.4682810000000002
 50
151.94631599999991
 51
177.07770600000001
  0
ARC
  5
96
  8
0
  6
AIGENLINE002
 62
     7
 10
125.29183999999989
 20
181.28859800000001
 30
0.0
 40
4.5195369999999997
 50
107.19160100000001
 51
151.6794219999999
  0
LINE
  5
97
  8
0
  6
AIGENLINE002
 62
     7
 10
149.672
 20
165.5149999999999
 30
0.0
 11
123.9559999999999
 21
185.60599999999999
 31
0.0
  0
LINE
  5
98
  8
0
  6
AIGENLINE002
 62
     7
 10
123.9559999999999
 20
185.60599999999999
 30
0.0
 11
120.794
 21
181.559
 31
0.0
  0
LINE
  5
99
  8
0
  6
AIGENLINE002
 62
     7
 10
120.794
 20
181.559
 30
0.0
 11
126.9529999999999
 21
176.74700000000001
 31
0.0
  0
ARC
  5
9A
  8
0
  6
AIGENLINE002
 62
     7
 10
127.352254
 20
172.02845300000001
 30
0.0
 40
4.7355059999999991
 50
54.193377000000012
 51
94.837406999999999
  0
ARC
  5
9B
  8
0
  6
AIGENLINE002
 62
     7
 10
127.3107769999999
 20
172.0480639999999
 30
0.0
 40
4.7440809999999987
 50
9.2275399999999994
 51
53.648542000000013
  0
LINE
  5
9C
  8
0
  6
AIGENLINE002
 62
     7
 10
131.99299999999999
 20
172.809
 30
0.0
 11
146.50999999999991
 21
161.4679999999999
 31
0.0
  0
LINE
  5
9D
  8
0
  6
AIGENLINE001
 62
     7
 10
155.6939999999999
 20
157.589
 30
0.0
 11
111.155
 21
157.589
 31
0.0
  0
LINE
  5
9E
  8
0
 62
     7
 10
155.613
 20
196.2059999999999
 30
0.0
 11
112.81699999999999
 21
196.2059999999999
 31
0.0
  0
LINE
  5
9F
  8
0
  6
AIGENLINE002
 62
     7
 10
158.9129999999999
 20
63.616799999999991
 30
0.0
 11
158.9129999999999
 21
74.375600000000006
 31
0.0
  0
LINE
  5
A0
  8
0
  6
AIGENLINE002
 62
     7
 10
152.5629999999999
 20
74.375600000000006
 30
0.0
 11
152.5629999999999
 21
63.616799999999991
 31
0.0
  0
LINE
  5
A1
  8
0
 62
     7
 10
90.649500000000003
 20
126.626
 30
0.0
 11
103.193
 21
126.626
 31
0.0
  0
LINE
  5
A2
  8
0
 62
     7
 10
103.193
 20
126.536
 30
0.0
 11
103.193
 21
117.5989999999999
 31
0.0
  0
LINE
  5
A3
  8
0
 62
     7
 10
116.928
 20
123.626
 30
0.0
 11
108.23099999999999
 21
123.626
 31
0.0
  0
LINE
  5
A4
  8
0
 62
     7
 10
143.9799999999999
 20
104.62599999999991
 30
0.0
 11
90.663899999999998
 21
104.62599999999991
 31
0.0
  0
LINE
  5
A5
  8
0
 62
     7
 10
155.6939999999999
 20
171.97999999999999
 30
0.0
 11
155.6939999999999
 21
197.649
 31
0.0
  0
LINE
  5
A6
  8
0
  6
AIGENLINE003
 62
     7
 10
64.375799999999998
 20
240.7299999999999
 30
0.0
 11
38.32
 21
240.7299999999999
 31
0.0
  0
ARC
  5
A7
  8
0
 62
     7
 10
51.425834000000002
 20
202.195933
 30
0.0
 40
4.466810999999999
 50
279.93221999999997
 51
305.07324399999987
  0
ARC
  5
A8
  8
0
 62
     7
 10
51.436609999999988
 20
202.2529759999999
 30
0.0
 40
4.5211879999999987
 50
235.20431600000001
 51
279.67301499999991
  0
LINE
  5
A9
  8
0
 62
     7
 10
48.8566
 20
198.53999999999999
 30
0.0
 11
53.992600000000003
 21
198.53999999999999
 31
0.0
  0
LINE
  5
AA
  8
0
  6
AIGENLINE003
 62
     7
 10
155.6939999999999
 20
72.033600000000007
 30
0.0
 11
155.6939999999999
 21
171.10599999999991
 31
0.0
  0
LINE
  5
AB
  8
0
 62
     7
 10
112.782
 20
160.66800000000001
 30
0.0
 11
112.782
 21
197.2759999999999
 31
0.0
  0
LINE
  5
AC
  8
0
 62
     7
 10
160.83500000000001
 20
100.661
 30
0.0
 11
160.83500000000001
 21
89.626099999999994
 31
0.0
  0
LINE
  5
AD
  8
0
 62
     7
 10
160.83000000000001
 20
101.021
 30
0.0
 11
150.55899999999991
 21
101.021
 31
0.0
  0
LINE
  5
AE
  8
0
 62
     7
 10
161.0089999999999
 20
84.131100000000004
 30
0.0
 11
150.37700000000001
 21
84.131100000000004
 31
0.0
  0
LINE
  5
AF
  8
0
 62
     7
 10
165.31899999999999
 20
163.01099999999991
 30
0.0
 11
146.0689999999999
 21
163.01099999999991
 31
0.0
  0
ARC
  5
B0
  8
0
 62
     7
 10
117.1621639999999
 20
157.560135
 30
0.0
 40
4.4703839999999992
 50
189.95095299999991
 51
215.07328799999999
  0
ARC
  5
B1
  8
0
 62
     7
 10
117.21536399999989
 20
157.5470489999999
 30
0.0
 40
4.5205760000000001
 50
145.19497499999991
 51
189.671075
  0
LINE
  5
B2
  8
0
 62
     7
 10
146.0689999999999
 20
160.12700000000001
 30
0.0
 11
113.50399999999991
 21
160.12700000000001
 31
0.0
  0
LINE
  5
B3
  8
0
 62
     7
 10
113.50399999999991
 20
160.12700000000001
 30
0.0
 11
113.50399999999991
 21
154.99100000000001
 31
0.0
  0
LINE
  5
B4
  8
0
 62
     7
 10
113.50399999999991
 20
154.99100000000001
 30
0.0
 11
121.3189999999999
 21
154.99100000000001
 31
0.0
  0
ARC
  5
B5
  8
0
 62
     7
 10
124.53860899999999
 20
151.51943600000001
 30
0.0
 40
4.7349030000000001
 50
92.189546999999976
 51
132.839662
  0
ARC
  5
B6
  8
0
 62
     7
 10
124.4946969999999
 20
151.50924499999999
 30
0.0
 40
4.7436150000000001
 50
47.227908999999997
 51
91.654831999999999
  0
LINE
  5
B7
  8
0
 62
     7
 10
127.71599999999999
 20
154.99100000000001
 30
0.0
 11
146.0689999999999
 21
154.99100000000001
 31
0.0
  0
LINE
  5
B8
  8
0
 62
     7
 10
105.4459999999999
 20
137.24100000000001
 30
0.0
 11
112.654
 21
131.20599999999999
 31
0.0
  0
ARC
  5
B9
  8
0
 62
     7
 10
155.257565
 20
77.394215000000003
 30
0.0
 40
2.5972520000000001
 50
338.62271600000003
 51
21.377283999999989
  0
ARC
  5
BA
  8
0
 62
     7
 10
155.56042999999991
 20
77.689971999999997
 30
0.0
 40
2.213576999999999
 50
17.102160000000001
 51
61.629001000000002
  0
ARC
  5
BB
  8
0
 62
     7
 10
155.50343599999999
 20
77.581413999999995
 30
0.0
 40
2.3361800000000001
 50
61.664240000000007
 51
64.619501999999997
  0
ARC
  5
BC
  8
0
 62
     7
 10
155.692871
 20
77.9268
 30
0.0
 40
1.943068999999999
 50
65.300927000000001
 51
109.6357449999999
  0
ARC
  5
BD
  8
0
 62
     7
 10
155.553594
 20
78.288045999999994
 30
0.0
 40
1.5560590000000001
 50
109.275429
 51
115.5353639999999
  0
ARC
  5
BE
  8
0
 62
     7
 10
155.83276399999991
 20
77.685378999999998
 30
0.0
 40
2.2202120000000001
 50
115.33175799999999
 51
159.7282679999999
  0
ARC
  5
BF
  8
0
 62
     7
 10
156.3029019999999
 20
77.524814000000006
 30
0.0
 40
2.7168890000000001
 50
159.98703999999989
 51
162.51912300000001
  0
ARC
  5
C0
  8
0
 62
     7
 10
156.12739500000001
 20
77.394215000000003
 30
0.0
 40
2.594781999999999
 50
158.6013429999999
 51
201.39865699999999
  0
ARC
  5
C1
  8
0
 62
     7
 10
155.832041
 20
77.102443000000008
 30
0.0
 40
2.219393999999999
 50
197.16363899999999
 51
241.56756200000001
  0
ARC
  5
C2
  8
0
 62
     7
 10
155.52260200000001
 20
76.510922999999991
 30
0.0
 40
1.551922
 50
241.21602599999991
 51
245.65389799999991
  0
ARC
  5
C3
  8
0
 62
     7
 10
155.69370699999999
 20
76.852812999999983
 30
0.0
 40
1.934002999999999
 50
245.211128
 51
289.72082199999988
  0
ARC
  5
C4
  8
0
 62
     7
 10
155.83294199999989
 20
76.514623
 30
0.0
 40
1.5687580000000001
 50
289.10170799999997
 51
295.35754900000001
  0
ARC
  5
C5
  8
0
 62
     7
 10
155.55934500000001
 20
77.099624000000006
 30
0.0
 40
2.2145700000000001
 50
295.2721939999999
 51
339.78787199999999
  0
ARC
  5
C6
  8
0
 62
     7
 10
155.50642300000001
 20
77.125282999999996
 30
0.0
 40
2.2731059999999998
 50
339.64179999999999
 51
342.65188699999987
  0
LINE
  5
C7
  8
0
 62
     7
 10
162.001
 20
76.989099999999993
 30
0.0
 11
162.001
 21
77.438999999999993
 31
0.0
  0
LINE
  5
C8
  8
0
 62
     7
 10
162.001
 20
77.438999999999993
 30
0.0
 11
162.001
 21
77.889600000000002
 31
0.0
  0
LINE
  5
C9
  8
0
 62
     7
 10
162.001
 20
77.889600000000002
 30
0.0
 11
161.81999999999991
 21
78.791600000000003
 31
0.0
  0
ARC
  5
CA
  8
0
 62
     7
 10
159.610567
 20
77.914781000000005
 30
0.0
 40
2.3769619999999989
 50
21.64552299999999
 51
42.227269
  0
ARC
  5
CB
  8
0
 62
     7
 10
160.23736199999999
 20
78.553193999999991
 30
0.0
 40
1.4846619999999999
 50
40.240046
 51
62.653995999999992
  0
LINE
  5
CC
  8
0
 62
     7
 10
160.9189999999999
 20
79.871899999999997
 30
0.0
 11
160.37899999999999
 21
79.871899999999997
 31
0.0
  0
ARC
  5
CD
  8
0
 62
     7
 10
161.06085999999999
 20
78.557915000000008
 30
0.0
 40
1.480329999999999
 50
117.4194379999999
 51
139.857336
  0
ARC
  5
CE
  8
0
 62
     7
 10
160.62035700000001
 20
78.715007
 30
0.0
 40
1.055121999999999
 50
130.92090300000001
 51
175.23914999999991
  0
ARC
  5
CF
  8
0
 62
     7
 10
159.50167699999989
 20
78.801244999999994
 30
0.0
 40
0.067211
 50
351.71015699999992
 51
1.137175
  0
ARC
  5
D0
  8
0
 62
     7
 10
161.9013149999999
 20
77.599466000000007
 30
0.0
 40
2.6200320000000001
 50
152.9356939999999
 51
173.64168900000001
  0
LINE
  5
D1
  8
0
 62
     7
 10
159.297
 20
77.889600000000002
 30
0.0
 11
159.297
 21
76.989099999999993
 31
0.0
  0
ARC
  5
D2
  8
0
 62
     7
 10
161.87600699999999
 20
77.272532999999996
 30
0.0
 40
2.5941419999999988
 50
186.27330000000001
 51
207.17344299999991
  0
ARC
  5
D3
  8
0
 62
     7
 10
160.6173949999999
 20
76.161681000000002
 30
0.0
 40
1.051806
 50
184.0264949999999
 51
228.43741900000001
  0
ARC
  5
D4
  8
0
 62
     7
 10
160.03223799999989
 20
75.508131999999989
 30
0.0
 40
0.174636
 50
229.8299319999999
 51
233.85564299999999
  0
ARC
  5
D5
  8
0
 62
     7
 10
161.0449219999999
 20
76.296586000000005
 30
0.0
 40
1.452132999999999
 50
219.79765900000001
 51
242.71175299999999
  0
LINE
  5
D6
  8
0
 62
     7
 10
160.37899999999999
 20
75.006100000000004
 30
0.0
 11
160.9189999999999
 21
75.006100000000004
 31
0.0
  0
ARC
  5
D7
  8
0
 62
     7
 10
160.23141499999991
 20
76.328583999999992
 30
0.0
 40
1.4907520000000001
 50
297.48236500000002
 51
319.83726300000001
  0
ARC
  5
D8
  8
0
 62
     7
 10
159.6068459999999
 20
76.96691899999999
 30
0.0
 40
2.3812759999999988
 50
317.79157500000002
 51
338.33563299999997
  0
LINE
  5
D9
  8
0
 62
     7
 10
161.81999999999991
 20
76.087800000000001
 30
0.0
 11
162.001
 21
76.989099999999993
 31
0.0
  0
ARC
  5
DA
  8
0
 62
     7
 10
150.57421599999989
 20
77.439222000000001
 30
0.0
 40
1.1862950000000001
 50
157.68676199999999
 51
202.04879700000001
  0
ARC
  5
DB
  8
0
 62
     7
 10
149.46017099999989
 20
76.984818999999987
 30
0.0
 40
0.017113
 50
14.379381
 51
32.017795
  0
LINE
  5
DC
  8
0
 62
     7
 10
149.477
 20
76.989099999999993
 30
0.0
 11
149.65700000000001
 21
76.087800000000001
 31
0.0
  0
LINE
  5
DD
  8
0
 62
     7
 10
149.65700000000001
 20
76.087800000000001
 30
0.0
 11
150.01699999999991
 21
75.367099999999994
 31
0.0
  0
ARC
  5
DE
  8
0
 62
     7
 10
149.33222000000001
 20
74.050780000000003
 30
0.0
 40
1.4837670000000001
 50
40.077311999999999
 51
62.51764
  0
LINE
  5
DF
  8
0
 62
     7
 10
150.46799999999999
 20
75.006100000000004
 30
0.0
 11
151.0079999999999
 21
75.006100000000004
 31
0.0
  0
LINE
  5
E0
  8
0
 62
     7
 10
151.0079999999999
 20
75.006100000000004
 30
0.0
 11
151.54899999999989
 21
75.367099999999994
 31
0.0
  0
LINE
  5
E1
  8
0
 62
     7
 10
151.54899999999989
 20
75.367099999999994
 30
0.0
 11
151.90999999999991
 21
76.087800000000001
 31
0.0
  0
LINE
  5
E2
  8
0
 62
     7
 10
151.90999999999991
 20
76.087800000000001
 30
0.0
 11
152.09
 21
76.989099999999993
 31
0.0
  0
LINE
  5
E3
  8
0
 62
     7
 10
152.09
 20
76.989099999999993
 30
0.0
 11
152.09
 21
77.889600000000002
 31
0.0
  0
LINE
  5
E4
  8
0
 62
     7
 10
152.09
 20
77.889600000000002
 30
0.0
 11
151.90999999999991
 21
78.791600000000003
 31
0.0
  0
LINE
  5
E5
  8
0
 62
     7
 10
151.90999999999991
 20
78.791600000000003
 30
0.0
 11
151.54899999999989
 21
79.512299999999996
 31
0.0
  0
LINE
  5
E6
  8
0
 62
     7
 10
151.54899999999989
 20
79.512299999999996
 30
0.0
 11
151.0079999999999
 21
79.871899999999997
 31
0.0
  0
LINE
  5
E7
  8
0
 62
     7
 10
151.0079999999999
 20
79.871899999999997
 30
0.0
 11
150.46799999999999
 21
79.871899999999997
 31
0.0
  0
ARC
  5
E8
  8
0
 62
     7
 10
149.328655
 20
80.836731
 30
0.0
 40
1.4926250000000001
 50
297.45976699999989
 51
319.73153899999988
  0
LINE
  5
E9
  8
0
 62
     7
 10
150.01699999999991
 20
79.512299999999996
 30
0.0
 11
149.65700000000001
 21
78.791600000000003
 31
0.0
  0
LINE
  5
EA
  8
0
 62
     7
 10
149.65700000000001
 20
78.791600000000003
 30
0.0
 11
149.477
 21
77.889600000000002
 31
0.0
  0
LINE
  5
EB
  8
0
 62
     7
 10
160.37899999999999
 20
84.220699999999994
 30
0.0
 11
160.37899999999999
 21
80.413499999999985
 31
0.0
  0
LINE
  5
EC
  8
0
 62
     7
 10
160.83000000000001
 20
84.131100000000004
 30
0.0
 11
160.83000000000001
 21
80.413499999999985
 31
0.0
  0
LINE
  5
ED
  8
0
 62
     7
 10
151.0079999999999
 20
80.413499999999985
 30
0.0
 11
151.0079999999999
 21
84.220699999999994
 31
0.0
  0
LINE
  5
EE
  8
0
 62
     7
 10
150.55899999999991
 20
80.413499999999985
 30
0.0
 11
150.55899999999991
 21
84.131100000000004
 31
0.0
  0
ARC
  5
EF
  8
0
 62
     7
 10
154.87312800000001
 20
77.379193999999998
 30
0.0
 40
5.5733719999999991
 50
147.01413400000001
 51
191.446192
  0
ARC
  5
F0
  8
0
 62
     7
 10
154.8472919999999
 20
77.417361999999997
 30
0.0
 40
5.5557869999999996
 50
191.884863
 51
213.19526599999989
  0
LINE
  5
F1
  8
0
 62
     7
 10
150.19799999999989
 20
74.375600000000006
 30
0.0
 11
161.28
 21
74.375600000000006
 31
0.0
  0
ARC
  5
F2
  8
0
 62
     7
 10
155.98923600000001
 20
77.403840000000002
 30
0.0
 40
6.0964510000000001
 50
330.21668999999991
 51
14.651740999999999
  0
ARC
  5
F3
  8
0
 62
     7
 10
156.056183
 20
77.393349000000001
 30
0.0
 40
6.0343970000000002
 50
14.908894
 51
30.032546
  0
LINE
  5
F4
  8
0
 62
     7
 10
161.28
 20
80.413499999999985
 30
0.0
 11
150.19799999999989
 21
80.413499999999985
 31
0.0
  0
LINE
  5
F5
  8
0
 62
     7
 10
160.83000000000001
 20
89.626099999999994
 30
0.0
 11
160.83000000000001
 21
103.72499999999999
 31
0.0
  0
LINE
  5
F6
  8
0
 62
     7
 10
150.55899999999991
 20
89.626099999999994
 30
0.0
 11
150.55899999999991
 21
103.72499999999999
 31
0.0
  0
ARC
  5
F7
  8
0
 62
     7
 10
150.47190900000001
 20
86.193042000000005
 30
0.0
 40
2.0444450000000001
 50
307.97365600000001
 51
322.30010299999992
  0
ARC
  5
F8
  8
0
 62
     7
 10
150.41305
 20
86.284299000000004
 30
0.0
 40
2.152620999999999
 50
263.47754300000003
 51
307.71409599999993
  0
ARC
  5
F9
  8
0
 62
     7
 10
150.439052
 20
86.274882000000005
 30
0.0
 40
2.1463879999999991
 50
218.36076
 51
262.75934899999999
  0
LINE
  5
FA
  8
0
 62
     7
 10
148.756
 20
84.942800000000005
 30
0.0
 11
148.756
 21
87.285499999999999
 31
0.0
  0
LINE
  5
FB
  8
0
 62
     7
 10
148.756
 20
87.285499999999999
 30
0.0
 11
162.72200000000001
 21
87.285499999999999
 31
0.0
  0
LINE
  5
FC
  8
0
 62
     7
 10
162.72200000000001
 20
87.285499999999999
 30
0.0
 11
162.72200000000001
 21
84.942800000000005
 31
0.0
  0
ARC
  5
FD
  8
0
 62
     7
 10
160.99750999999989
 20
86.350680000000025
 30
0.0
 40
2.226078999999999
 50
309.42085900000001
 51
320.76939700000003
  0
ARC
  5
FE
  8
0
 62
     7
 10
160.99822
 20
86.381014000000008
 30
0.0
 40
2.2491490000000001
 50
264.70123399999989
 51
308.91616499999992
  0
ARC
  5
FF
  8
0
 62
     7
 10
161.02524600000001
 20
86.370566999999994
 30
0.0
 40
2.241414999999999
 50
219.56764100000001
 51
263.98866099999998
  0
LINE
  5
100
  8
0
 62
     7
 10
152.09
 20
87.285499999999999
 30
0.0
 11
152.09
 21
84.942800000000005
 31
0.0
  0
ARC
  5
101
  8
0
 62
     7
 10
155.7002479999999
 20
92.654624999999996
 30
0.0
 40
8.5152450000000002
 50
244.91070199999999
 51
289.34920199999999
  0
ARC
  5
102
  8
0
 62
     7
 10
155.691181
 20
92.524749000000014
 30
0.0
 40
8.3958669999999991
 50
289.70124299999998
 51
295.437298
  0
LINE
  5
103
  8
0
 62
     7
 10
159.297
 20
84.942800000000005
 30
0.0
 11
159.297
 21
87.285499999999999
 31
0.0
  0
LINE
  5
104
  8
0
 62
     7
 10
145.602
 20
88.185400000000001
 30
0.0
 11
145.602
 21
87.644800000000004
 31
0.0
  0
LINE
  5
105
  8
0
 62
     7
 10
145.602
 20
87.644800000000004
 30
0.0
 11
165.87599999999989
 21
87.644800000000004
 31
0.0
  0
LINE
  5
106
  8
0
 62
     7
 10
165.87599999999989
 20
87.644800000000004
 30
0.0
 11
165.87599999999989
 21
88.185400000000001
 31
0.0
  0
LINE
  5
107
  8
0
 62
     7
 10
165.87599999999989
 20
88.185400000000001
 30
0.0
 11
145.602
 21
88.185400000000001
 31
0.0
  0
LINE
  5
108
  8
0
 62
     7
 10
146.23400000000001
 20
89.626099999999994
 30
0.0
 11
146.23400000000001
 21
88.365899999999996
 31
0.0
  0
LINE
  5
109
  8
0
 62
     7
 10
146.23400000000001
 20
88.365899999999996
 30
0.0
 11
165.244
 21
88.365899999999996
 31
0.0
  0
LINE
  5
10A
  8
0
 62
     7
 10
165.244
 20
88.365899999999996
 30
0.0
 11
165.244
 21
89.626099999999994
 31
0.0
  0
LINE
  5
10B
  8
0
 62
     7
 10
165.244
 20
89.626099999999994
 30
0.0
 11
146.23400000000001
 21
89.626099999999994
 31
0.0
  0
LINE
  5
10C
  8
0
 62
     7
 10
146.23400000000001
 20
104.62599999999991
 30
0.0
 11
146.23400000000001
 21
103.72499999999999
 31
0.0
  0
LINE
  5
10D
  8
0
 62
     7
 10
146.23400000000001
 20
103.72499999999999
 30
0.0
 11
165.244
 21
103.72499999999999
 31
0.0
  0
LINE
  5
10E
  8
0
 62
     7
 10
165.244
 20
103.72499999999999
 30
0.0
 11
165.244
 21
104.62599999999991
 31
0.0
  0
LINE
  5
10F
  8
0
 62
     7
 10
166.614
 20
107.0589999999999
 30
0.0
 11
144.864
 21
107.0589999999999
 31
0.0
  0
LINE
  5
110
  8
0
 62
     7
 10
146.0689999999999
 20
132.46600000000001
 30
0.0
 11
146.0689999999999
 21
108.04899999999989
 31
0.0
  0
ARC
  5
111
  8
0
 62
     7
 10
145.68747500000001
 20
108.00910500000001
 30
0.0
 40
0.38343
 50
0.073065
 51
5.9525090000000001
  0
ARC
  5
112
  8
0
 62
     7
 10
145.5522489999999
 20
107.99847199999989
 30
0.0
 40
0.518775
 50
335.43292400000001
 51
1.2284539999999999
  0
ARC
  5
113
  8
0
 62
     7
 10
145.11413200000001
 20
108.168769
 30
0.0
 40
0.9884109999999999
 50
323.07405899999992
 51
337.01389799999998
  0
ARC
  5
114
  8
0
 62
     7
 10
144.19889499999999
 20
108.8219969999999
 30
0.0
 40
2.112690999999999
 50
315.68497600000001
 51
323.82419700000003
  0
ARC
  5
115
  8
0
 62
     7
 10
145.02928199999999
 20
108.008262
 30
0.0
 40
0.9500669999999999
 50
271.94250299999999
 51
315.81307500000003
  0
LINE
  5
116
  8
0
 62
     7
 10
145.06100000000001
 20
107.0589999999999
 30
0.0
 11
144.864
 21
107.0589999999999
 31
0.0
  0
LINE
  5
117
  8
0
 62
     7
 10
144.864
 20
107.0589999999999
 30
0.0
 11
144.864
 21
104.62599999999991
 31
0.0
  0
LINE
  5
118
  8
0
 62
     7
 10
144.864
 20
104.62599999999991
 30
0.0
 11
166.614
 21
104.62599999999991
 31
0.0
  0
LINE
  5
119
  8
0
 62
     7
 10
166.614
 20
104.62599999999991
 30
0.0
 11
166.614
 21
107.0589999999999
 31
0.0
  0
LINE
  5
11A
  8
0
 62
     7
 10
166.614
 20
107.0589999999999
 30
0.0
 11
166.416
 21
107.0589999999999
 31
0.0
  0
ARC
  5
11B
  8
0
 62
     7
 10
166.352655
 20
107.839536
 30
0.0
 40
0.7833359999999999
 50
265.38364999999999
 51
274.61637000000002
  0
ARC
  5
11C
  8
0
 62
     7
 10
166.38007999999991
 20
108.344718
 30
0.0
 40
1.2891549999999989
 50
233.84133099999991
 51
265.97579399999989
  0
ARC
  5
11D
  8
0
 62
     7
 10
166.00202699999991
 20
107.7792639999999
 30
0.0
 40
0.610216
 50
221.66281599999991
 51
231.17404099999999
  0
ARC
  5
11E
  8
0
 62
     7
 10
166.25612699999991
 20
107.9886029999999
 30
0.0
 40
0.9392879999999998
 50
176.32130900000001
 51
220.89901599999999
  0
LINE
  5
11F
  8
0
 62
     7
 10
165.31899999999999
 20
108.04899999999989
 30
0.0
 11
165.31899999999999
 21
140.5979999999999
 31
0.0
  0
LINE
  5
120
  8
0
 62
     7
 10
165.31899999999999
 20
140.5979999999999
 30
0.0
 11
165.31899999999999
 21
167.87599999999989
 31
0.0
  0
LINE
  5
121
  8
0
 62
     7
 10
165.31899999999999
 20
167.87599999999989
 30
0.0
 11
146.0689999999999
 21
167.87599999999989
 31
0.0
  0
LINE
  5
122
  8
0
 62
     7
 10
146.0689999999999
 20
167.87599999999989
 30
0.0
 11
146.0689999999999
 21
141.92699999999999
 31
0.0
  0
LINE
  5
123
  8
0
 62
     7
 10
97.692000000000007
 20
119.818
 30
0.0
 11
102.16500000000001
 21
125.42699999999989
 31
0.0
  0
LINE
  5
124
  8
0
  6
AIGENLINE001
 62
     7
 10
102.16500000000001
 20
125.42699999999989
 30
0.0
 11
111.551
 21
137.196
 31
0.0
  0
ARC
  5
125
  8
0
 62
     7
 10
139.96006800000001
 20
136.87275600000001
 30
0.0
 40
7.5320869999999989
 50
324.196978
 51
353.379141
  0
ARC
  5
126
  8
0
 62
     7
 10
138.87533099999999
 20
137.0708689999999
 30
0.0
 40
8.6327289999999994
 50
352.90310599999992
 51
9.3592870000000001
  0
ARC
  5
127
  8
0
 62
     7
 10
136.68872899999991
 20
136.761988
 30
0.0
 40
10.840574
 50
9.0906500000000001
 51
16.371058999999988
  0
ARC
  5
128
  8
0
 62
     7
 10
139.8209019999999
 20
137.630278
 30
0.0
 40
7.590819999999999
 50
16.746486999999991
 51
30.964677999999999
  0
ARC
  5
129
  8
0
 62
     7
 10
140.913353
 20
138.201269
 30
0.0
 40
6.3606920000000002
 50
31.617405000000002
 51
35.852975999999998
  0
LINE
  5
12A
  8
0
 62
     7
 10
146.0689999999999
 20
141.92699999999999
 30
0.0
 11
109.321
 21
141.92699999999999
 31
0.0
  0
LINE
  5
12B
  8
0
 62
     7
 10
109.321
 20
141.92699999999999
 30
0.0
 11
99.590100000000007
 21
129.64400000000001
 31
0.0
  0
LINE
  5
12C
  8
0
 62
     7
 10
99.590100000000007
 20
129.64400000000001
 30
0.0
 11
106.797
 21
123.607
 31
0.0
  0
LINE
  5
12D
  8
0
 62
     7
 10
106.797
 20
123.607
 30
0.0
 11
113.735
 21
132.46600000000001
 31
0.0
  0
LINE
  5
12E
  8
0
 62
     7
 10
113.735
 20
132.46600000000001
 30
0.0
 11
146.0689999999999
 21
132.46600000000001
 31
0.0
  0
ARC
  5
12F
  8
0
 62
     7
 10
51.397616999999997
 20
58.553128000000001
 30
0.0
 40
6.2500470000000004
 50
270.000809
 51
0.00078
  0
ARC
  5
130
  8
0
 62
     7
 10
51.397703
 20
58.553212000000002
 30
0.0
 40
6.2501309999999988
 50
179.99996999999991
 51
270.00002000000001
  0
ARC
  5
131
  8
0
 62
     7
 10
51.397705999999999
 20
58.553212000000002
 30
0.0
 40
6.2501329999999991
 50
90.0
 51
179.99996999999991
  0
ARC
  5
132
  8
0
 62
     7
 10
51.397616999999997
 20
58.553297999999991
 30
0.0
 40
6.2500470000000004
 50
359.99921999999998
 51
89.999190999999996
  0
LINE
  5
133
  8
0
 62
     7
 10
57.7331
 20
52.976300000000002
 30
0.0
 11
55.751300000000001
 21
54.120399999999997
 31
0.0
  0
LINE
  5
134
  8
0
 62
     7
 10
55.751300000000001
 20
54.120399999999997
 30
0.0
 11
56.895400000000002
 21
52.1387
 31
0.0
  0
LINE
  5
135
  8
0
 62
     7
 10
56.895400000000002
 20
52.1387
 30
0.0
 11
57.7331
 21
52.976300000000002
 31
0.0
  0
LINE
  5
136
  8
0
 62
     7
 10
45.000100000000003
 20
64.053700000000006
 30
0.0
 11
46.981900000000003
 21
62.909599999999998
 31
0.0
  0
LINE
  5
137
  8
0
 62
     7
 10
46.981900000000003
 20
62.909599999999998
 30
0.0
 11
45.837799999999987
 21
64.891499999999994
 31
0.0
  0
LINE
  5
138
  8
0
 62
     7
 10
45.837799999999987
 20
64.891499999999994
 30
0.0
 11
45.000100000000003
 21
64.053700000000006
 31
0.0
  0
LINE
  5
139
  8
0
 62
     7
 10
44.054799999999993
 20
65.827200000000005
 30
0.0
 11
60.009500000000003
 21
49.871899999999997
 31
0.0
  0
LINE
  5
13A
  8
0
 62
     7
 10
70.929500000000004
 20
102.51000000000001
 30
0.0
 11
70.337199999999996
 21
104.7199999999999
 31
0.0
  0
LINE
  5
13B
  8
0
 62
     7
 10
70.337199999999996
 20
104.7199999999999
 30
0.0
 11
69.744799999999984
 21
102.51000000000001
 31
0.0
  0
LINE
  5
13C
  8
0
 62
     7
 10
69.744799999999984
 20
102.51000000000001
 30
0.0
 11
70.929500000000004
 21
102.51000000000001
 31
0.0
  0
LINE
  5
13D
  8
0
 62
     7
 10
69.759500000000003
 20
91.926100000000005
 30
0.0
 11
70.351699999999994
 21
89.715299999999985
 31
0.0
  0
LINE
  5
13E
  8
0
 62
     7
 10
70.351699999999994
 20
89.715299999999985
 30
0.0
 11
70.944100000000006
 21
91.926100000000005
 31
0.0
  0
LINE
  5
13F
  8
0
 62
     7
 10
70.944100000000006
 20
91.926100000000005
 30
0.0
 11
69.759500000000003
 21
91.926100000000005
 31
0.0
  0
LINE
  5
140
  8
0
 62
     7
 10
70.344499999999996
 20
104.7199999999999
 30
0.0
 11
70.344499999999996
 21
89.625399999999999
 31
0.0
  0
LINE
  5
141
  8
0
 62
     7
 10
77.965100000000007
 20
106.7379999999999
 30
0.0
 11
78.557299999999998
 21
104.52799999999991
 31
0.0
  0
LINE
  5
142
  8
0
 62
     7
 10
78.557299999999998
 20
104.52799999999991
 30
0.0
 11
79.149699999999996
 21
106.7379999999999
 31
0.0
  0
LINE
  5
143
  8
0
 62
     7
 10
79.149699999999996
 20
106.7379999999999
 30
0.0
 11
77.965100000000007
 21
106.7379999999999
 31
0.0
  0
LINE
  5
144
  8
0
 62
     7
 10
77.965100000000007
 20
76.668999999999997
 30
0.0
 11
78.557299999999998
 21
74.458299999999994
 31
0.0
  0
LINE
  5
145
  8
0
 62
     7
 10
78.557299999999998
 20
74.458299999999994
 30
0.0
 11
79.149699999999996
 21
76.668999999999997
 31
0.0
  0
LINE
  5
146
  8
0
 62
     7
 10
79.149699999999996
 20
76.668999999999997
 30
0.0
 11
77.965100000000007
 21
76.668999999999997
 31
0.0
  0
LINE
  5
147
  8
0
 62
     7
 10
79.135000000000005
 20
102.42400000000001
 30
0.0
 11
78.5428
 21
104.63500000000001
 31
0.0
  0
LINE
  5
148
  8
0
 62
     7
 10
78.5428
 20
104.63500000000001
 30
0.0
 11
77.950400000000002
 21
102.42400000000001
 31
0.0
  0
LINE
  5
149
  8
0
 62
     7
 10
77.950400000000002
 20
102.42400000000001
 30
0.0
 11
79.135000000000005
 21
102.42400000000001
 31
0.0
  0
LINE
  5
14A
  8
0
 62
     7
 10
79.135000000000005
 20
165.69
 30
0.0
 11
78.5428
 21
167.90000000000001
 31
0.0
  0
LINE
  5
14B
  8
0
 62
     7
 10
78.5428
 20
167.90000000000001
 30
0.0
 11
77.950400000000002
 21
165.69
 31
0.0
  0
LINE
  5
14C
  8
0
 62
     7
 10
77.950400000000002
 20
165.69
 30
0.0
 11
79.135000000000005
 21
165.69
 31
0.0
  0
LINE
  5
14D
  8
0
  6
AIGENLINE003
 62
     7
 10
51.424599999999991
 20
181.10599999999991
 30
0.0
 11
51.424599999999991
 21
254.078
 31
0.0
  0
LINE
  5
14E
  8
0
 62
     7
 10
78.5501
 20
74.485500000000002
 30
0.0
 11
78.5501
 21
167.87599999999989
 31
0.0
  0
LINE
  5
14F
  8
0
 62
     7
 10
62.343499999999999
 20
112.73399999999999
 30
0.0
 11
62.343499999999999
 21
107.779
 31
0.0
  0
LINE
  5
150
  8
0
 62
     7
 10
60.006500000000003
 20
110.7979999999999
 30
0.0
 11
62.217100000000002
 21
111.39
 31
0.0
  0
LINE
  5
151
  8
0
 62
     7
 10
62.217100000000002
 20
111.39
 30
0.0
 11
60.006500000000003
 21
111.9829999999999
 31
0.0
  0
LINE
  5
152
  8
0
 62
     7
 10
60.006500000000003
 20
111.9829999999999
 30
0.0
 11
60.006500000000003
 21
110.7979999999999
 31
0.0
  0
LINE
  5
153
  8
0
 62
     7
 10
42.854700000000001
 20
111.968
 30
0.0
 11
40.644100000000002
 21
111.376
 31
0.0
  0
LINE
  5
154
  8
0
 62
     7
 10
40.644100000000002
 20
111.376
 30
0.0
 11
42.854700000000001
 21
110.7829999999999
 31
0.0
  0
LINE
  5
155
  8
0
 62
     7
 10
42.854700000000001
 20
110.7829999999999
 30
0.0
 11
42.854700000000001
 21
111.968
 31
0.0
  0
LINE
  5
156
  8
0
 62
     7
 10
62.190100000000001
 20
111.3829999999999
 30
0.0
 11
40.671199999999999
 21
111.3829999999999
 31
0.0
  0
LINE
  5
157
  8
0
 62
     7
 10
40.593600000000002
 20
107.779
 30
0.0
 11
40.593600000000002
 21
112.73399999999999
 31
0.0
  0
LINE
  5
158
  8
0
 62
     7
 10
61.6952
 20
89.625399999999999
 30
0.0
 11
71.787300000000002
 21
89.625399999999999
 31
0.0
  0
LINE
  5
159
  8
0
 62
     7
 10
61.875
 20
167.87599999999989
 30
0.0
 11
79.992199999999997
 21
167.87599999999989
 31
0.0
  0
LINE
  5
15A
  8
0
 62
     7
 10
63.729799999999997
 20
104.62599999999991
 30
0.0
 11
79.992199999999997
 21
104.62599999999991
 31
0.0
  0
LINE
  5
15B
  8
0
 62
     7
 10
57.731200000000001
 20
74.375600000000006
 30
0.0
 11
79.992199999999997
 21
74.375600000000006
 31
0.0
  0
LINE
  5
15C
  8
0
 62
     7
 10
44.035800000000002
 20
173.68700000000001
 30
0.0
 11
41.825299999999991
 21
173.09399999999999
 31
0.0
  0
LINE
  5
15D
  8
0
 62
     7
 10
41.825299999999991
 20
173.09399999999999
 30
0.0
 11
44.035800000000002
 21
172.50200000000001
 31
0.0
  0
LINE
  5
15E
  8
0
 62
     7
 10
44.035800000000002
 20
172.50200000000001
 30
0.0
 11
44.035800000000002
 21
173.68700000000001
 31
0.0
  0
LINE
  5
15F
  8
0
 62
     7
 10
58.809699999999999
 20
172.517
 30
0.0
 11
61.020299999999999
 21
173.10900000000001
 31
0.0
  0
LINE
  5
160
  8
0
 62
     7
 10
61.020299999999999
 20
173.10900000000001
 30
0.0
 11
58.809699999999999
 21
173.70099999999991
 31
0.0
  0
LINE
  5
161
  8
0
 62
     7
 10
58.809699999999999
 20
173.70099999999991
 30
0.0
 11
58.809699999999999
 21
172.517
 31
0.0
  0
LINE
  5
162
  8
0
 62
     7
 10
41.852299999999993
 20
173.102
 30
0.0
 11
60.993200000000002
 21
173.102
 31
0.0
  0
LINE
  5
163
  8
0
 62
     7
 10
61.154299999999992
 20
174.54400000000001
 30
0.0
 11
61.154299999999992
 21
168.59700000000001
 31
0.0
  0
LINE
  5
164
  8
0
 62
     7
 10
41.692100000000003
 20
168.59700000000001
 30
0.0
 11
41.692100000000003
 21
174.54400000000001
 31
0.0
  0
LINE
  5
165
  8
0
  6
AIGENLINE003
 62
     7
 10
51.424599999999991
 20
71.9589
 30
0.0
 11
51.424599999999991
 21
110.2149999999999
 31
0.0
  0
LINE
  5
166
  8
0
  6
AIGENLINE003
 62
     7
 10
51.424599999999991
 20
117.15899999999991
 30
0.0
 11
51.424599999999991
 21
169.53999999999999
 31
0.0
  0
LINE
  5
167
  8
0
  6
AIGENLINE003
 62
     7
 10
51.424599999999991
 20
49.267899999999997
 30
0.0
 11
51.424599999999991
 21
67.7393
 31
0.0
  0
LINE
  5
168
  8
0
  6
AIGENLINE003
 62
     7
 10
42.232999999999997
 20
58.458100000000002
 30
0.0
 11
60.703699999999998
 21
58.458100000000002
 31
0.0
  0
LINE
  5
169
  8
0
 62
     7
 10
41.332399999999993
 20
88.184700000000007
 30
0.0
 11
41.332399999999993
 21
87.644499999999994
 31
0.0
  0
LINE
  5
16A
  8
0
 62
     7
 10
41.332399999999993
 20
87.644499999999994
 30
0.0
 11
61.604900000000001
 21
87.644499999999994
 31
0.0
  0
LINE
  5
16B
  8
0
 62
     7
 10
61.604900000000001
 20
87.644499999999994
 30
0.0
 11
61.604900000000001
 21
88.184700000000007
 31
0.0
  0
LINE
  5
16C
  8
0
 62
     7
 10
61.604900000000001
 20
88.184700000000007
 30
0.0
 11
41.332399999999993
 21
88.184700000000007
 31
0.0
  0
LINE
  5
16D
  8
0
 62
     7
 10
46.198300000000003
 20
84.130499999999998
 30
0.0
 11
56.739699999999999
 21
84.130499999999998
 31
0.0
  0
ARC
  5
16E
  8
0
 62
     7
 10
50.986956999999997
 20
77.394559000000001
 30
0.0
 40
2.5972520000000001
 50
338.62271600000003
 51
21.377283999999989
  0
ARC
  5
16F
  8
0
 62
     7
 10
51.291474000000001
 20
77.691671999999997
 30
0.0
 40
2.2115999999999989
 50
17.081182999999989
 51
61.649977
  0
ARC
  5
170
  8
0
 62
     7
 10
51.32667
 20
77.75480300000001
 30
0.0
 40
2.139327999999999
 50
61.676668000000006
 51
64.899767999999995
  0
ARC
  5
171
  8
0
 62
     7
 10
51.423034000000001
 20
77.930347999999995
 30
0.0
 40
1.939524
 50
65.277828999999997
 51
109.65408100000001
  0
ARC
  5
172
  8
0
 62
     7
 10
51.319617999999998
 20
78.187496999999993
 30
0.0
 40
1.6626089999999989
 50
109.2784149999999
 51
115.180803
  0
ARC
  5
173
  8
0
 62
     7
 10
51.559156000000002
 20
77.688124999999999
 30
0.0
 40
2.2164479999999989
 50
115.292041
 51
159.76798500000001
  0
ARC
  5
174
  8
0
 62
     7
 10
51.211958000000003
 20
77.823121
 30
0.0
 40
1.8439989999999999
 50
159.97299499999991
 51
163.680317
  0
ARC
  5
175
  8
0
 62
     7
 10
54.343022999999988
 20
77.394559000000001
 30
0.0
 40
4.9913720000000001
 50
169.06640100000001
 51
190.93359899999999
  0
ARC
  5
176
  8
0
 62
     7
 10
51.559412000000002
 20
77.098879000000011
 30
0.0
 40
2.214995
 50
197.09298200000001
 51
241.56539399999991
  0
ARC
  5
177
  8
0
 62
     7
 10
51.271553999999988
 20
76.550386000000003
 30
0.0
 40
1.595626
 50
241.27683099999999
 51
245.59309200000001
  0
ARC
  5
178
  8
0
 62
     7
 10
51.423645999999998
 20
76.858588999999995
 30
0.0
 40
1.939165
 50
245.26373599999991
 51
289.67059599999988
  0
ARC
  5
179
  8
0
 62
     7
 10
51.585704
 20
76.452568999999997
 30
0.0
 40
1.5023729999999991
 50
289.06309299999998
 51
295.57129500000002
  0
ARC
  5
17A
  8
0
 62
     7
 10
51.289933000000012
 20
77.100030000000004
 30
0.0
 40
2.2141150000000001
 50
295.24351899999999
 51
339.78184099999999
  0
ARC
  5
17B
  8
0
 62
     7
 10
51.755600999999999
 20
76.938312999999994
 30
0.0
 40
1.7212769999999991
 50
339.47626600000001
 51
343.44434999999987
  0
LINE
  5
17C
  8
0
 62
     7
 10
57.731200000000001
 20
76.989099999999993
 30
0.0
 11
57.731200000000001
 21
77.438999999999993
 31
0.0
  0
LINE
  5
17D
  8
0
 62
     7
 10
57.731200000000001
 20
77.438999999999993
 30
0.0
 11
57.731200000000001
 21
77.890000000000001
 31
0.0
  0
LINE
  5
17E
  8
0
 62
     7
 10
57.731200000000001
 20
77.890000000000001
 30
0.0
 11
57.54999999999999
 21
78.791600000000003
 31
0.0
  0
LINE
  5
17F
  8
0
 62
     7
 10
57.54999999999999
 20
78.791600000000003
 30
0.0
 11
57.189599999999999
 21
79.512600000000006
 31
0.0
  0
LINE
  5
180
  8
0
 62
     7
 10
57.189599999999999
 20
79.512600000000006
 30
0.0
 11
56.6494
 21
79.871899999999997
 31
0.0
  0
LINE
  5
181
  8
0
 62
     7
 10
56.6494
 20
79.871899999999997
 30
0.0
 11
56.107900000000001
 21
79.871899999999997
 31
0.0
  0
ARC
  5
182
  8
0
 62
     7
 10
56.795530000000007
 20
78.551707999999991
 30
0.0
 40
1.488589999999999
 50
117.5133129999999
 51
139.795558
  0
LINE
  5
183
  8
0
 62
     7
 10
55.6586
 20
79.512600000000006
 30
0.0
 11
55.298999999999999
 21
78.791600000000003
 31
0.0
  0
ARC
  5
184
  8
0
 62
     7
 10
56.346513999999999
 20
78.111997000000002
 30
0.0
 40
1.2486699999999999
 50
147.02827600000001
 51
190.24241399999991
  0
ARC
  5
185
  8
0
 62
     7
 10
56.215252999999997
 20
77.439396000000002
 30
0.0
 40
1.186399999999999
 50
157.67988500000001
 51
202.05577500000001
  0
LINE
  5
186
  8
0
 62
     7
 10
55.11569999999999
 20
76.993899999999996
 30
0.0
 11
55.117699999999999
 21
76.989099999999993
 31
0.0
  0
ARC
  5
187
  8
0
 62
     7
 10
56.337201999999998
 20
76.765686000000002
 30
0.0
 40
1.239751
 50
169.61950400000001
 51
213.12673699999999
  0
LINE
  5
188
  8
0
 62
     7
 10
55.298999999999999
 20
76.088200000000001
 30
0.0
 11
55.6586
 21
75.367500000000007
 31
0.0
  0
ARC
  5
189
  8
0
 62
     7
 10
56.790238000000002
 20
76.314224999999993
 30
0.0
 40
1.475441
 50
219.91784699999999
 51
242.45245399999999
  0
LINE
  5
18A
  8
0
 62
     7
 10
56.107900000000001
 20
75.006100000000004
 30
0.0
 11
56.6494
 21
75.006100000000004
 31
0.0
  0
LINE
  5
18B
  8
0
 62
     7
 10
56.6494
 20
75.006100000000004
 30
0.0
 11
57.189599999999999
 21
75.367500000000007
 31
0.0
  0
LINE
  5
18C
  8
0
 62
     7
 10
57.189599999999999
 20
75.367500000000007
 30
0.0
 11
57.54999999999999
 21
76.088200000000001
 31
0.0
  0
LINE
  5
18D
  8
0
 62
     7
 10
57.54999999999999
 20
76.088200000000001
 30
0.0
 11
57.731200000000001
 21
76.989099999999993
 31
0.0
  0
LINE
  5
18E
  8
0
 62
     7
 10
45.206800000000001
 20
77.890000000000001
 30
0.0
 11
45.206800000000001
 21
77.438999999999993
 31
0.0
  0
LINE
  5
18F
  8
0
 62
     7
 10
45.206800000000001
 20
77.438999999999993
 30
0.0
 11
45.206800000000001
 21
76.989099999999993
 31
0.0
  0
LINE
  5
190
  8
0
 62
     7
 10
45.206800000000001
 20
76.989099999999993
 30
0.0
 11
45.38669999999999
 21
76.088200000000001
 31
0.0
  0
LINE
  5
191
  8
0
 62
     7
 10
45.38669999999999
 20
76.088200000000001
 30
0.0
 11
45.746999999999993
 21
75.367500000000007
 31
0.0
  0
LINE
  5
192
  8
0
 62
     7
 10
45.746999999999993
 20
75.367500000000007
 30
0.0
 11
46.2879
 21
75.006100000000004
 31
0.0
  0
LINE
  5
193
  8
0
 62
     7
 10
46.2879
 20
75.006100000000004
 30
0.0
 11
46.738500000000002
 21
75.006100000000004
 31
0.0
  0
LINE
  5
194
  8
0
 62
     7
 10
46.738500000000002
 20
75.006100000000004
 30
0.0
 11
47.279400000000003
 21
75.367500000000007
 31
0.0
  0
LINE
  5
195
  8
0
 62
     7
 10
47.279400000000003
 20
75.367500000000007
 30
0.0
 11
47.639099999999999
 21
76.088200000000001
 31
0.0
  0
LINE
  5
196
  8
0
 62
     7
 10
47.639099999999999
 20
76.088200000000001
 30
0.0
 11
47.818899999999992
 21
76.989099999999993
 31
0.0
  0
LINE
  5
197
  8
0
 62
     7
 10
47.818899999999992
 20
76.989099999999993
 30
0.0
 11
47.818899999999992
 21
77.890000000000001
 31
0.0
  0
LINE
  5
198
  8
0
 62
     7
 10
47.818899999999992
 20
77.890000000000001
 30
0.0
 11
47.639099999999999
 21
78.791600000000003
 31
0.0
  0
LINE
  5
199
  8
0
 62
     7
 10
47.639099999999999
 20
78.791600000000003
 30
0.0
 11
47.279400000000003
 21
79.512600000000006
 31
0.0
  0
LINE
  5
19A
  8
0
 62
     7
 10
47.279400000000003
 20
79.512600000000006
 30
0.0
 11
46.738500000000002
 21
79.871899999999997
 31
0.0
  0
LINE
  5
19B
  8
0
 62
     7
 10
46.738500000000002
 20
79.871899999999997
 30
0.0
 11
46.2879
 21
79.871899999999997
 31
0.0
  0
LINE
  5
19C
  8
0
 62
     7
 10
46.2879
 20
79.871899999999997
 30
0.0
 11
45.746999999999993
 21
79.512600000000006
 31
0.0
  0
LINE
  5
19D
  8
0
 62
     7
 10
45.746999999999993
 20
79.512600000000006
 30
0.0
 11
45.38669999999999
 21
78.791600000000003
 31
0.0
  0
LINE
  5
19E
  8
0
 62
     7
 10
45.38669999999999
 20
78.791600000000003
 30
0.0
 11
45.206800000000001
 21
77.890000000000001
 31
0.0
  0
LINE
  5
19F
  8
0
 62
     7
 10
56.107900000000001
 20
101.021
 30
0.0
 11
56.107900000000001
 21
89.625399999999999
 31
0.0
  0
LINE
  5
1A0
  8
0
 62
     7
 10
56.107900000000001
 20
101.021
 30
0.0
 11
56.648800000000001
 21
101.562
 31
0.0
  0
LINE
  5
1A1
  8
0
 62
     7
 10
46.828799999999987
 20
101.021
 30
0.0
 11
46.2879
 21
101.562
 31
0.0
  0
LINE
  5
1A2
  8
0
 62
     7
 10
46.828799999999987
 20
89.625399999999999
 30
0.0
 11
46.828799999999987
 21
101.021
 31
0.0
  0
LINE
  5
1A3
  8
0
 62
     7
 10
56.107900000000001
 20
84.219999999999999
 30
0.0
 11
56.107900000000001
 21
80.413899999999984
 31
0.0
  0
LINE
  5
1A4
  8
0
 62
     7
 10
56.559899999999999
 20
84.130499999999998
 30
0.0
 11
56.559899999999999
 21
80.413899999999984
 31
0.0
  0
LINE
  5
1A5
  8
0
 62
     7
 10
46.828799999999987
 20
80.413899999999984
 30
0.0
 11
46.828799999999987
 21
84.219999999999999
 31
0.0
  0
LINE
  5
1A6
  8
0
 62
     7
 10
46.2879
 20
80.413899999999984
 30
0.0
 11
46.2879
 21
84.130499999999998
 31
0.0
  0
ARC
  5
1A7
  8
0
 62
     7
 10
50.603361
 20
77.380327000000008
 30
0.0
 40
5.5730709999999988
 50
147.021782
 51
191.45869799999991
  0
ARC
  5
1A8
  8
0
 62
     7
 10
50.541447999999988
 20
77.400491000000002
 30
0.0
 40
5.5164910000000003
 50
191.79171199999999
 51
213.25291799999999
  0
LINE
  5
1A9
  8
0
 62
     7
 10
45.92819999999999
 20
74.375600000000006
 30
0.0
 11
57.009799999999998
 21
74.375600000000006
 31
0.0
  0
ARC
  5
1AA
  8
0
 62
     7
 10
51.711669999999998
 20
77.406544999999994
 30
0.0
 40
6.1038350000000001
 50
330.22709900000001
 51
14.607381
  0
ARC
  5
1AB
  8
0
 62
     7
 10
51.762059999999998
 20
77.378838000000002
 30
0.0
 40
6.062189
 50
14.9809
 51
30.042873999999991
  0
LINE
  5
1AC
  8
0
 62
     7
 10
57.009799999999998
 20
80.413899999999984
 30
0.0
 11
45.92819999999999
 21
80.413899999999984
 31
0.0
  0
LINE
  5
1AD
  8
0
 62
     7
 10
56.559899999999999
 20
89.625399999999999
 30
0.0
 11
56.559899999999999
 21
103.72499999999999
 31
0.0
  0
LINE
  5
1AE
  8
0
 62
     7
 10
46.2879
 20
89.625399999999999
 30
0.0
 11
46.2879
 21
103.72499999999999
 31
0.0
  0
ARC
  5
1AF
  8
0
 62
     7
 10
46.186089000000003
 20
86.209044999999989
 30
0.0
 40
2.066692999999999
 50
308.02725199999992
 51
322.1918609999999
  0
ARC
  5
1B0
  8
0
 62
     7
 10
46.145272999999989
 20
86.272129000000007
 30
0.0
 40
2.1415399999999991
 50
263.367389
 51
307.84770600000002
  0
ARC
  5
1B1
  8
0
 62
     7
 10
46.168642999999989
 20
86.273091000000008
 30
0.0
 40
2.1453189999999989
 50
218.34580399999999
 51
262.75036899999992
  0
LINE
  5
1B2
  8
0
 62
     7
 10
44.4861
 20
84.942099999999996
 30
0.0
 11
44.4861
 21
87.284800000000004
 31
0.0
  0
LINE
  5
1B3
  8
0
 62
     7
 10
44.4861
 20
87.284800000000004
 30
0.0
 11
58.450499999999998
 21
87.284800000000004
 31
0.0
  0
LINE
  5
1B4
  8
0
 62
     7
 10
58.450499999999998
 20
87.284800000000004
 30
0.0
 11
58.450499999999998
 21
84.942099999999996
 31
0.0
  0
ARC
  5
1B5
  8
0
 62
     7
 10
56.814692999999998
 20
86.260676000000004
 30
0.0
 40
2.1010970000000002
 50
309.12405099999989
 51
321.130042
  0
ARC
  5
1B6
  8
0
 62
     7
 10
56.730254000000002
 20
86.370355000000004
 30
0.0
 40
2.239466999999999
 50
264.61036899999988
 51
309.02935200000002
  0
ARC
  5
1B7
  8
0
 62
     7
 10
56.740411000000002
 20
86.340423000000001
 30
0.0
 40
2.210659999999999
 50
219.236783
 51
264.275419
  0
LINE
  5
1B8
  8
0
 62
     7
 10
47.818899999999992
 20
87.284800000000004
 30
0.0
 11
47.818899999999992
 21
84.942099999999996
 31
0.0
  0
ARC
  5
1B9
  8
0
 62
     7
 10
51.430183
 20
92.658742000000004
 30
0.0
 40
8.5198280000000004
 50
244.92109599999989
 51
289.33942100000002
  0
ARC
  5
1BA
  8
0
 62
     7
 10
51.292386
 20
92.842116000000004
 30
0.0
 40
8.7387630000000005
 50
289.79376000000002
 51
295.30874
  0
LINE
  5
1BB
  8
0
 62
     7
 10
55.028199999999991
 20
84.942099999999996
 30
0.0
 11
55.028199999999991
 21
87.284800000000004
 31
0.0
  0
LINE
  5
1BC
  8
0
 62
     7
 10
56.559899999999999
 20
101.021
 30
0.0
 11
46.2879
 21
101.021
 31
0.0
  0
LINE
  5
1BD
  8
0
 62
     7
 10
41.962200000000003
 20
89.625399999999999
 30
0.0
 11
41.962200000000003
 21
88.365200000000002
 31
0.0
  0
LINE
  5
1BE
  8
0
 62
     7
 10
41.962200000000003
 20
88.365200000000002
 30
0.0
 11
60.974400000000003
 21
88.365200000000002
 31
0.0
  0
LINE
  5
1BF
  8
0
 62
     7
 10
60.974400000000003
 20
88.365200000000002
 30
0.0
 11
60.974400000000003
 21
89.625399999999999
 31
0.0
  0
LINE
  5
1C0
  8
0
 62
     7
 10
60.974400000000003
 20
89.625399999999999
 30
0.0
 11
41.962200000000003
 21
89.625399999999999
 31
0.0
  0
LINE
  5
1C1
  8
0
 62
     7
 10
41.962200000000003
 20
104.62599999999991
 30
0.0
 11
41.962200000000003
 21
103.72499999999999
 31
0.0
  0
LINE
  5
1C2
  8
0
 62
     7
 10
41.962200000000003
 20
103.72499999999999
 30
0.0
 11
60.974400000000003
 21
103.72499999999999
 31
0.0
  0
LINE
  5
1C3
  8
0
 62
     7
 10
60.974400000000003
 20
103.72499999999999
 30
0.0
 11
60.974400000000003
 21
104.62599999999991
 31
0.0
  0
ARC
  5
1C4
  8
0
 62
     7
 10
51.492596999999989
 20
130.71402
 30
0.0
 40
5.3659339999999993
 50
119.659497
 51
150.36012500000001
  0
ARC
  5
1C5
  8
0
 62
     7
 10
51.477804999999989
 20
130.65693400000001
 30
0.0
 40
5.4083759999999996
 50
74.870047999999997
 51
119.224057
  0
ARC
  5
1C6
  8
0
 62
     7
 10
51.429836000000002
 20
130.6879879999999
 30
0.0
 40
5.3911939999999996
 50
29.805548000000002
 51
74.291775000000001
  0
ARC
  5
1C7
  8
0
 62
     7
 10
51.27259699999999
 20
128.8623399999999
 30
0.0
 40
4.6493459999999986
 50
320.24514099999999
 51
332.28490800000009
  0
ARC
  5
1C8
  8
0
 62
     7
 10
52.775787999999999
 20
127.82624199999989
 30
0.0
 40
2.835912
 50
290.44872400000003
 51
316.91455699999989
  0
ARC
  5
1C9
  8
0
 62
     7
 10
52.288471999999999
 20
128.0100139999999
 30
0.0
 40
3.2024879999999998
 50
269.02860699999991
 51
297.48691000000002
  0
ARC
  5
1CA
  8
0
 62
     7
 10
51.423197999999999
 20
128.42134300000001
 30
0.0
 40
3.7032479999999999
 50
257.35019199999988
 51
282.6498279999999
  0
ARC
  5
1CB
  8
0
 62
     7
 10
50.647826000000002
 20
128.00522499999991
 30
0.0
 40
3.197438
 50
242.50115
 51
269.36192199999988
  0
ARC
  5
1CC
  8
0
 62
     7
 10
49.539352000000001
 20
126.8943719999999
 30
0.0
 40
1.764122999999999
 50
214.7406979999999
 51
257.96345200000002
  0
ARC
  5
1CD
  8
0
 62
     7
 10
48.238659000000013
 20
126.1321429999999
 30
0.0
 40
0.285089
 50
232.621386
 51
238.500663
  0
ARC
  5
1CE
  8
0
 62
     7
 10
48.785581999999998
 20
126.939235
 30
0.0
 40
1.2596810000000001
 50
190.94594000000001
 51
235.14024599999999
  0
ARC
  5
1CF
  8
0
 62
     7
 10
48.459902
 20
127.121998
 30
0.0
 40
1.004051
 50
199.54042999999999
 51
204.85052399999989
  0
ARC
  5
1D0
  8
0
 62
     7
 10
48.413088000000002
 20
127.1058479999999
 30
0.0
 40
0.9545299999999999
 50
154.88235499999999
 51
199.566697
  0
ARC
  5
1D1
  8
0
 62
     7
 10
49.727781
 20
126.64362800000001
 30
0.0
 40
2.3452609999999998
 50
134.30380099999991
 51
158.29356699999991
  0
ARC
  5
1D2
  8
0
 62
     7
 10
49.781205999999997
 20
126.66294599999991
 30
0.0
 40
2.3693169999999988
 50
104.91269
 51
135.554766
  0
ARC
  5
1D3
  8
0
 62
     7
 10
51.850681000000002
 20
122.9247899999999
 30
0.0
 40
6.5962869999999993
 50
100.82158800000001
 51
113.964431
  0
ARC
  5
1D4
  8
0
 62
     7
 10
51.423197999999999
 20
125.74391299999991
 30
0.0
 40
3.7486339999999991
 50
77.505820999999983
 51
102.494159
  0
ARC
  5
1D5
  8
0
 62
     7
 10
51.388258
 20
123.704308
 30
0.0
 40
5.7618980000000004
 50
65.621351000000004
 51
81.557713000000007
  0
ARC
  5
1D6
  8
0
 62
     7
 10
51.791159
 20
124.3263419999999
 30
0.0
 40
5.0302300000000004
 50
52.592010000000002
 51
66.876928000000007
  0
ARC
  5
1D7
  8
0
 62
     7
 10
59.187150000000003
 20
130.634063
 30
0.0
 40
4.9176109999999991
 50
208.04462299999989
 51
219.42536699999999
  0
LINE
  5
1D8
  8
0
 62
     7
 10
55.388500000000001
 20
127.511
 30
0.0
 11
55.388500000000001
 21
126.7
 31
0.0
  0
ARC
  5
1D9
  8
0
 62
     7
 10
47.691181999999998
 20
126.92605
 30
0.0
 40
0.872901
 50
171.10030399999999
 51
207.70595900000001
  0
ARC
  5
1DA
  8
0
 62
     7
 10
50.421219000000001
 20
127.650233
 30
0.0
 40
3.6806190000000001
 50
197.87975499999999
 51
218.70168899999999
  0
ARC
  5
1DB
  8
0
 62
     7
 10
50.838583
 20
129.29646199999999
 30
0.0
 40
5.1386810000000001
 50
230.19356199999999
 51
247.84460200000001
  0
ARC
  5
1DC
  8
0
 62
     7
 10
51.908867999999998
 20
132.23080999999999
 30
0.0
 40
8.2607999999999997
 50
248.64462700000001
 51
260.3348049999999
  0
ARC
  5
1DD
  8
0
 62
     7
 10
51.422854000000001
 20
128.57572699999989
 30
0.0
 40
4.577979
 50
258.65073100000001
 51
281.349289
  0
ARC
  5
1DE
  8
0
 62
     7
 10
51.385065999999988
 20
131.1464189999999
 30
0.0
 40
7.1212889999999991
 50
277.57444100000009
 51
291.86050999999998
  0
ARC
  5
1DF
  8
0
 62
     7
 10
52.927709
 20
127.64920100000001
 30
0.0
 40
3.3036849999999989
 50
289.613426
 51
315.86968400000001
  0
ARC
  5
1E0
  8
0
 62
     7
 10
53.673083999999989
 20
127.15389499999991
 30
0.0
 40
2.4293169999999988
 50
312.01085
 51
344.87951699999991
  0
ARC
  5
1E1
  8
0
 62
     7
 10
55.256177000000001
 20
126.924278
 30
0.0
 40
0.862611
 50
332.06782199999998
 51
9.1259149999999991
  0
LINE
  5
1E2
  8
0
 62
     7
 10
46.828799999999987
 20
127.06100000000001
 30
0.0
 11
46.828799999999987
 21
137.33199999999991
 31
0.0
  0
ARC
  5
1E3
  8
0
 62
     7
 10
51.503920000000001
 20
137.08755199999999
 30
0.0
 40
4.6814999999999989
 50
138.01173299999999
 51
177.01085
  0
ARC
  5
1E4
  8
0
 62
     7
 10
51.492664000000012
 20
137.04973799999991
 30
0.0
 40
4.6985650000000003
 50
93.100373000000005
 51
137.57717
  0
ARC
  5
1E5
  8
0
 62
     7
 10
51.449179999999998
 20
137.04570499999991
 30
0.0
 40
4.700442999999999
 50
48.117927000000002
 51
92.568434999999994
  0
ARC
  5
1E6
  8
0
 62
     7
 10
51.415022999999991
 20
137.07761999999991
 30
0.0
 40
4.699717999999999
 50
3.0987939999999989
 51
47.54813
  0
LINE
  5
1E7
  8
0
 62
     7
 10
56.107900000000001
 20
137.33199999999991
 30
0.0
 11
56.107900000000001
 21
127.06100000000001
 31
0.0
  0
ARC
  5
1E8
  8
0
 62
     7
 10
55.123567999999999
 20
127.24283800000001
 30
0.0
 40
1.0009399999999991
 50
349.53850999999997
 51
26.634018000000001
  0
ARC
  5
1E9
  8
0
 62
     7
 10
54.292918000000007
 20
127.323357
 30
0.0
 40
1.764225999999999
 50
12.046109
 51
55.232833999999997
  0
ARC
  5
1EA
  8
0
 62
     7
 10
53.299899000000003
 20
127.305525
 30
0.0
 40
2.4796399999999998
 50
36.274822999999998
 51
72.714922000000001
  0
ARC
  5
1EB
  8
0
 62
     7
 10
51.40493
 20
123.150263
 30
0.0
 40
7.0338099999999999
 50
68.027904000000007
 51
82.494029999999995
  0
LINE
  5
1EC
  8
0
 62
     7
 10
52.323799999999999
 20
130.12399999999991
 30
0.0
 11
50.521999999999998
 21
130.12399999999991
 31
0.0
  0
ARC
  5
1ED
  8
0
 62
     7
 10
51.877296000000001
 20
122.10561199999999
 30
0.0
 40
8.1319320000000008
 50
99.594189999999998
 51
111.47158999999991
  0
ARC
  5
1EE
  8
0
 62
     7
 10
50.03546
 20
126.504762
 30
0.0
 40
3.3655010000000001
 50
109.7051
 51
137.6345639999999
  0
ARC
  5
1EF
  8
0
 62
     7
 10
49.217531000000001
 20
127.07510600000001
 30
0.0
 40
2.3803730000000001
 50
134.5096409999999
 51
164.99107599999999
  0
ARC
  5
1F0
  8
0
 62
     7
 10
47.832537999999992
 20
127.240075
 30
0.0
 40
1.019580999999999
 50
153.7170769999999
 51
190.1103949999999
  0
LINE
  5
1F1
  8
0
 62
     7
 10
53.94639999999999
 20
161.29900000000001
 30
0.0
 11
48.900700000000001
 21
161.29900000000001
 31
0.0
  0
LINE
  5
1F2
  8
0
 62
     7
 10
48.900700000000001
 20
163.01099999999991
 30
0.0
 11
48.900700000000001
 21
153.37
 31
0.0
  0
LINE
  5
1F3
  8
0
 62
     7
 10
48.900700000000001
 20
153.37
 30
0.0
 11
53.94639999999999
 21
153.37
 31
0.0
  0
LINE
  5
1F4
  8
0
 62
     7
 10
53.94639999999999
 20
153.37
 30
0.0
 11
53.94639999999999
 21
163.01099999999991
 31
0.0
  0
LINE
  5
1F5
  8
0
 62
     7
 10
61.154299999999992
 20
163.01099999999991
 30
0.0
 11
41.692100000000003
 21
163.01099999999991
 31
0.0
  0
LINE
  5
1F6
  8
0
 62
     7
 10
40.699599999999997
 20
107.0589999999999
 30
0.0
 11
40.896799999999999
 21
107.0589999999999
 31
0.0
  0
ARC
  5
1F7
  8
0
 62
     7
 10
40.874231000000002
 20
107.98814299999989
 30
0.0
 40
0.9296749999999999
 50
271.39199600000001
 51
316.31859600000001
  0
ARC
  5
1F8
  8
0
 62
     7
 10
40.85595099999999
 20
107.99114899999989
 30
0.0
 40
0.945029
 50
316.95221400000003
 51
1.076571999999999
  0
LINE
  5
1F9
  8
0
 62
     7
 10
41.800800000000002
 20
108.009
 30
0.0
 11
41.798099999999991
 21
108.04899999999989
 31
0.0
  0
LINE
  5
1FA
  8
0
 62
     7
 10
41.798099999999991
 20
108.04899999999989
 30
0.0
 11
41.798099999999991
 21
157.179
 31
0.0
  0
LINE
  5
1FB
  8
0
 62
     7
 10
41.798099999999991
 20
157.179
 30
0.0
 11
41.798099999999991
 21
167.87599999999989
 31
0.0
  0
LINE
  5
1FC
  8
0
 62
     7
 10
41.798099999999991
 20
167.87599999999989
 30
0.0
 11
61.048200000000001
 21
167.87599999999989
 31
0.0
  0
LINE
  5
1FD
  8
0
 62
     7
 10
61.048200000000001
 20
167.87599999999989
 30
0.0
 11
61.048200000000001
 21
157.35499999999999
 31
0.0
  0
LINE
  5
1FE
  8
0
 62
     7
 10
61.048200000000001
 20
157.35499999999999
 30
0.0
 11
61.048200000000001
 21
108.04899999999989
 31
0.0
  0
ARC
  5
1FF
  8
0
 62
     7
 10
61.991121
 20
107.98975799999999
 30
0.0
 40
0.944804
 50
176.41303999999991
 51
220.7022309999999
  0
ARC
  5
200
  8
0
 62
     7
 10
61.981242000000002
 20
108.0012399999999
 30
0.0
 40
0.9449249999999999
 50
221.62070099999991
 51
265.89382399999988
  0
LINE
  5
201
  8
0
 62
     7
 10
61.913600000000002
 20
107.0589999999999
 30
0.0
 11
62.039700000000003
 21
107.0589999999999
 31
0.0
  0
LINE
  5
202
  8
0
 62
     7
 10
62.039700000000003
 20
107.0589999999999
 30
0.0
 11
62.237400000000001
 21
107.0589999999999
 31
0.0
  0
LINE
  5
203
  8
0
 62
     7
 10
40.593600000000002
 20
104.62599999999991
 30
0.0
 11
40.593600000000002
 21
107.0589999999999
 31
0.0
  0
LINE
  5
204
  8
0
 62
     7
 10
40.593600000000002
 20
107.0589999999999
 30
0.0
 11
62.343499999999999
 21
107.0589999999999
 31
0.0
  0
LINE
  5
205
  8
0
 62
     7
 10
62.343499999999999
 20
107.0589999999999
 30
0.0
 11
62.343499999999999
 21
104.62599999999991
 31
0.0
  0
LINE
  5
206
  8
0
 62
     7
 10
62.343499999999999
 20
104.62599999999991
 30
0.0
 11
40.593600000000002
 21
104.62599999999991
 31
0.0
  0
ARC
  5
207
  8
0
 62
     7
 10
51.394266000000002
 20
157.41171199999999
 30
0.0
 40
2.552166999999999
 50
0.282343
 51
44.740358000000001
  0
ARC
  5
208
  8
0
 62
     7
 10
51.409489999999998
 20
157.39265399999991
 30
0.0
 40
2.554883999999999
 50
45.284278999999998
 51
89.661668999999989
  0
ARC
  5
209
  8
0
 62
     7
 10
51.437970999999997
 20
157.39170799999999
 30
0.0
 40
2.5558190000000001
 50
90.300259999999994
 51
134.706772
  0
ARC
  5
20A
  8
0
 62
     7
 10
51.451185999999993
 20
157.41238999999999
 30
0.0
 40
2.5505299999999989
 50
135.2445899999999
 51
179.7326679999999
  0
ARC
  5
20B
  8
0
 62
     7
 10
51.451065999999997
 20
157.43683200000001
 30
0.0
 40
2.5504129999999998
 50
180.281811
 51
224.7565899999999
  0
ARC
  5
20C
  8
0
 62
     7
 10
51.438052999999996
 20
157.455377
 30
0.0
 40
2.554327999999999
 50
225.257497
 51
269.69771299999991
  0
ARC
  5
20D
  8
0
 62
     7
 10
51.41111699999999
 20
157.4503159999999
 30
0.0
 40
2.5492669999999991
 50
270.30252200000001
 51
314.78931799999998
  0
ARC
  5
20E
  8
0
 62
     7
 10
51.400334999999998
 20
157.43504300000001
 30
0.0
 40
2.5460899999999991
 50
315.20365399999997
 51
359.75798399999991
  0
LINE
  5
20F
  8
0
 62
     7
 10
62.03479999999999
 20
107.04899999999989
 30
0.0
 11
62.231900000000003
 21
107.04899999999989
 31
0.0
  0
LINE
  5
210
  8
0
 62
     7
 10
40.694099999999999
 20
107.04899999999989
 30
0.0
 11
40.891999999999989
 21
107.04899999999989
 31
0.0
  0
LINE
  5
211
  8
_________2
 62
     7
 10
205.30099999999999
 20
127.411
 30
0.0
 11
183.55000000000001
 21
127.411
 31
0.0
  0
LINE
  5
212
  8
_________2
 62
     7
 10
100.2999999999999
 20
-4.0910799999999998
 30
0.0
 11
100.2999999999999
 21
-21.071400000000001
 31
0.0
  0
LINE
  5
213
  8
_________2
 62
     7
 10
100.2999999999999
 20
275.93099999999993
 30
0.0
 11
100.2999999999999
 21
258.911
 31
0.0
  0
LINE
  5
214
  8
_________2
 62
     7
 10
17.049499999999998
 20
127.411
 30
0.0
 11
-4.70052
 21
127.411
 31
0.0
  0
LINE
  5
215
  8
_________2
 62
     7
 10
76.741
 20
29.8047
 30
0.0
 11
74.554699999999997
 21
29.8047
 31
0.0
  0
LINE
  5
216
  8
_________2
 62
     7
 10
77.233699999999999
 20
29.8047
 30
0.0
 11
76.981499999999997
 21
29.8047
 31
0.0
  0
LINE
  5
217
  8
_________2
 62
     7
 10
77.726299999999995
 20
29.8047
 30
0.0
 11
80.651200000000003
 21
29.8047
 31
0.0
  0
LINE
  5
218
  8
_________2
 62
     7
 10
77.233699999999999
 20
29.8047
 30
0.0
 11
77.485500000000002
 21
29.8047
 31
0.0
  0
LINE
  5
219
  8
_________2
 62
     7
 10
70.837100000000007
 20
29.8047
 30
0.0
 11
68.650499999999994
 21
29.8047
 31
0.0
  0
LINE
  5
21A
  8
_________2
 62
     7
 10
71.329400000000007
 20
29.8047
 30
0.0
 11
71.077600000000004
 21
29.8047
 31
0.0
  0
LINE
  5
21B
  8
_________2
 62
     7
 10
71.329400000000007
 20
30.2974
 30
0.0
 11
71.329400000000007
 21
32.484400000000001
 31
0.0
  0
LINE
  5
21C
  8
_________2
 62
     7
 10
71.329400000000007
 20
29.8047
 30
0.0
 11
71.329400000000007
 21
30.056899999999992
 31
0.0
  0
LINE
  5
21D
  8
_________2
 62
     7
 10
71.822100000000006
 20
29.8047
 30
0.0
 11
74.009
 21
29.8047
 31
0.0
  0
LINE
  5
21E
  8
_________2
 62
     7
 10
71.329400000000007
 20
29.8047
 30
0.0
 11
71.581599999999995
 21
29.8047
 31
0.0
  0
LINE
  5
21F
  8
_________2
 62
     7
 10
71.329400000000007
 20
29.312799999999999
 30
0.0
 11
71.329400000000007
 21
27.125800000000002
 31
0.0
  0
LINE
  5
220
  8
_________2
 62
     7
 10
71.329400000000007
 20
29.8047
 30
0.0
 11
71.329400000000007
 21
29.5532
 31
0.0
  0
LINE
  5
221
  8
_________2
 62
     7
 10
75.040499999999994
 20
28.5852
 30
0.0
 11
80.218500000000006
 21
27.720400000000001
 31
0.0
  0
LINE
  5
222
  8
_________2
 62
     7
 10
75.040499999999994
 20
31.0243
 30
0.0
 11
80.218500000000006
 21
31.889700000000001
 31
0.0
  0
LINE
  5
223
  8
_________2
 62
     7
 10
80.218500000000006
 20
27.720400000000001
 30
0.0
 11
80.218500000000006
 21
31.889700000000001
 31
0.0
  0
LINE
  5
224
  8
_________2
 62
     7
 10
75.040499999999994
 20
28.5852
 30
0.0
 11
75.040499999999994
 21
31.0243
 31
0.0
  0
ARC
  5
225
  8
_________2
 62
     7
 10
71.28285600000001
 20
29.757811
 30
0.0
 40
1.2673589999999999
 50
2.122214
 51
87.893958999999995
  0
ARC
  5
226
  8
_________2
 62
     7
 10
71.375959999999992
 20
29.758213000000001
 30
0.0
 40
1.2669559999999991
 50
92.104701000000006
 51
177.8952689999999
  0
ARC
  5
227
  8
_________2
 62
     7
 10
71.376357999999996
 20
29.851671
 30
0.0
 40
1.2673680000000001
 50
182.12203600000001
 51
267.877993
  0
ARC
  5
228
  8
_________2
 62
     7
 10
71.282531999999989
 20
29.851998999999989
 30
0.0
 40
1.267695999999999
 50
272.12015300000002
 51
357.863674
  0
ARC
  5
229
  8
_________2
 62
     7
 10
71.329430000000002
 20
29.804742999999998
 30
0.0
 40
2.0849849999999992
 50
0.00001
 51
89.999980000000008
  0
ARC
  5
22A
  8
_________2
 62
     7
 10
71.329603000000006
 20
29.804915000000001
 30
0.0
 40
2.084813
 50
90.004733999999999
 51
180.00474399999999
  0
ARC
  5
22B
  8
_________2
 62
     7
 10
71.409106000000008
 20
29.884775999999999
 30
0.0
 40
2.1657950000000001
 50
182.11776599999999
 51
267.89173399999999
  0
ARC
  5
22C
  8
_________2
 62
     7
 10
71.249459000000002
 20
29.885429999999989
 30
0.0
 40
2.1664590000000001
 50
272.11546800000002
 51
357.86560400000002
  0
TEXT
  5
22D
  8
_________2
 62
     7
 10
104.605
 20
1.6794899999999999
 30
0.0
 40
3.0923400000000001
  1
図番
 41
0.5
  0
LINE
  5
22E
  8
_________2
 62
     7
 10
103.55
 20
5.9087199999999989
 30
0.0
 11
183.55099999999999
 21
5.9087199999999989
 31
0.0
  0
TEXT
  5
22F
  8
_________2
 62
     7
 10
104.605
 20
11.679299999999991
 30
0.0
 40
3.0923400000000001
  1
品番
 41
0.5
  0
TEXT
  5
230
  8
_________2
 62
     7
 10
104.605
 20
31.818100000000001
 30
0.0
 40
3.0923400000000001
  1
名称
 41
0.5
  0
TEXT
  5
231
  8
_________2
 62
     7
 10
91.845058333333341
 20
26.821999999999989
 30
0.0
 40
3.6545800000000002
  1
mm
 41
0.5
 72
     1
 11
93.367800000000003
 21
26.821999999999989
 31
0.0
  0
TEXT
  5
232
  8
_________2
 62
     7
 10
85.643199999999993
 20
31.818100000000001
 30
0.0
 40
3.0923400000000001
  1
単位
 41
0.5
  0
TEXT
  5
233
  8
_________2
 62
     7
 10
85.643199999999993
 20
19.410799999999991
 30
0.0
 40
3.0923400000000001
  1
尺度
 41
0.5
  0
TEXT
  5
234
  8
_________2
 62
     7
 10
90.548758666666686
 20
13.2179
 30
0.0
 40
3.6545800000000002
  1
1 ： 2
 41
0.5
 72
     1
 11
93.959699999999998
 21
13.2179
 31
0.0
  0
TEXT
  5
235
  8
_________2
 62
     7
 10
136.66252499999999
 20
9.1078600000000005
 30
0.0
 40
3.9357000000000002
  1
CET6100S
 41
0.5
 72
     1
 11
143.55000000000001
 21
9.1078600000000005
 31
0.0
  0
TEXT
  5
236
  8
_________2
 62
     7
 10
136.66252499999999
 20
-0.8926299999999999
 30
0.0
 40
3.9357000000000002
  1
CET6100S
 41
0.5
 72
     1
 11
143.55000000000001
 21
-0.8926299999999999
 31
0.0
  0
TEXT
  5
237
  8
_________2
 62
     7
 10
24.5868
 20
0.707283
 30
0.0
 40
3.9357000000000002
  1
（JIS）
 41
0.5
  0
TEXT
  5
238
  8
_________2
 62
     7
 10
109.179
 20
25.2758
 30
0.0
 40
3.9357000000000002
  1
セラオリジナルコレクション　立水栓
 41
0.5
  0
TEXT
  5
239
  8
_________2
 62
     7
 10
109.179
 20
20.356200000000001
 30
0.0
 40
3.9357000000000002
  1
（レバーハンドル）
 41
0.5
  0
TEXT
  5
23A
  8
_________2
 62
     7
 10
39.425300333333333
 20
13.603
 30
0.0
 40
3.6545800000000002
  1
早川
 41
0.5
 72
     1
 11
41.313499999999998
 21
13.603
 31
0.0
  0
TEXT
  5
23B
  8
_________2
 62
     7
 10
20.790090666666661
 20
13.603
 30
0.0
 40
3.6545800000000002
  1
石原
 41
0.5
 72
     1
 11
22.73919999999999
 21
13.603
 31
0.0
  0
TEXT
  5
23C
  8
_________2
 62
     7
 10
67.785399999999996
 20
13.2179
 30
0.0
 40
3.6545800000000002
  1
14.01.13
 41
0.5
  0
TEXT
  5
23D
  8
_________2
 62
     7
 10
66.593100000000007
 20
19.410799999999991
 30
0.0
 40
3.0923400000000001
  1
日付
 41
0.5
  0
TEXT
  5
23E
  8
_________2
 62
     7
 10
29.639399999999998
 20
19.410799999999991
 30
0.0
 40
3.0923400000000001
  1
検図
 41
0.5
  0
TEXT
  5
23F
  8
_________2
 62
     7
 10
18.021100000000001
 20
5.21143
 30
0.0
 40
3.0923400000000001
  1
備考
 41
0.5
  0
TEXT
  5
240
  8
_________2
 62
     7
 10
18.021100000000001
 20
19.410799999999991
 30
0.0
 40
3.0923400000000001
  1
製図
 41
0.5
  0
TEXT
  5
241
  8
_________2
 62
     7
 10
23.788465333333338
 20
27.936800000000002
 30
0.0
 40
4.4979399999999989
  1
セラトレーディング株式会社
 41
0.5
 72
     1
 11
41.180500000000002
 21
27.936800000000002
 31
0.0
  0
LINE
  5
242
  8
_________2
 62
     7
 10
183.55099999999999
 20
-4.0910799999999998
 30
0.0
 11
17.049499999999998
 21
-4.0910799999999998
 31
0.0
  0
LINE
  5
243
  8
_________2
 62
     7
 10
17.049499999999998
 20
-4.0910799999999998
 30
0.0
 11
17.049499999999998
 21
258.911
 31
0.0
  0
LINE
  5
244
  8
_________2
 62
     7
 10
17.049499999999998
 20
258.911
 30
0.0
 11
183.55099999999999
 21
258.911
 31
0.0
  0
LINE
  5
245
  8
_________2
 62
     7
 10
183.55099999999999
 20
258.911
 30
0.0
 11
183.55099999999999
 21
-4.0910799999999998
 31
0.0
  0
LINE
  5
246
  8
_________2
 62
     7
 10
65.549599999999998
 20
9.4089600000000004
 30
0.0
 11
65.549599999999998
 21
35.908799999999999
 31
0.0
  0
LINE
  5
247
  8
_________2
 62
     7
 10
84.549700000000016
 20
9.4089600000000004
 30
0.0
 11
84.549700000000016
 21
35.908799999999999
 31
0.0
  0
LINE
  5
248
  8
_________2
 62
     7
 10
103.55
 20
-4.0910799999999998
 30
0.0
 11
103.55
 21
35.908799999999999
 31
0.0
  0
LINE
  5
249
  8
_________2
 62
     7
 10
28.549299999999992
 20
9.4089600000000004
 30
0.0
 11
28.549299999999992
 21
23.409199999999998
 31
0.0
  0
LINE
  5
24A
  8
_________2
 62
     7
 10
17.049499999999998
 20
9.4089600000000004
 30
0.0
 11
103.55
 21
9.4089600000000004
 31
0.0
  0
LINE
  5
24B
  8
_________2
 62
     7
 10
17.049499999999998
 20
23.409199999999998
 30
0.0
 11
103.55
 21
23.409199999999998
 31
0.0
  0
LINE
  5
24C
  8
_________2
 62
     7
 10
103.55
 20
15.9085
 30
0.0
 11
183.55099999999999
 21
15.9085
 31
0.0
  0
LINE
  5
24D
  8
_________2
 62
     7
 10
17.049499999999998
 20
35.908799999999999
 30
0.0
 11
183.55099999999999
 21
35.908799999999999
 31
0.0
  0
ENDSEC
  0
EOF
