  0
SECTION
  2
HEADER
  9
$ACADVER
  1
AC1009
  9
$INSBASE
 10
0.0
 20
0.0
 30
0.0
  9
$EXTMIN
 10
-104.794
 20
0.176045
 30
0.0
  9
$EXTMAX
 10
315.209
 20
297.178
 30
0.0
  9
$LIMMIN
 10
0.0
 20
0.0
  9
$LIMMAX
 10
12.0
 20
9.0
  9
$ORTHOMODE
 70
     0
  9
$REGENMODE
 70
     1
  9
$FILLMODE
 70
     1
  9
$QTEXTMODE
 70
     0
  9
$MIRRTEXT
 70
     1
  9
$DRAGMODE
 70
     2
  9
$LTSCALE
 40
1.0
  9
$OSMODE
 70
    37
  9
$ATTMODE
 70
     1
  9
$TEXTSIZE
 40
0.0
  9
$TRACEWID
 40
0.05
  9
$TEXTSTYLE
  7
STANDARD
  9
$CLAYER
  8
0
  9
$CELTYPE
  6
CONTINUOUS
  9
$CECOLOR
 62
   256
  9
$DIMSCALE
 40
1.0
  9
$DIMASZ
 40
0.18
  9
$DIMEXO
 40
0.0625
  9
$DIMDLI
 40
0.38
  9
$DIMRND
 40
0.0
  9
$DIMDLE
 40
0.0
  9
$DIMEXE
 40
0.18
  9
$DIMTP
 40
0.0
  9
$DIMTM
 40
0.0
  9
$DIMTXT
 40
0.18
  9
$DIMCEN
 40
0.09
  9
$DIMTSZ
 40
0.0
  9
$DIMTOL
 70
     0
  9
$DIMLIM
 70
     0
  9
$DIMTIH
 70
     1
  9
$DIMTOH
 70
     1
  9
$DIMSE1
 70
     0
  9
$DIMSE2
 70
     0
  9
$DIMTAD
 70
     0
  9
$DIMZIN
 70
     0
  9
$DIMBLK
  1

  9
$DIMASO
 70
     1
  9
$DIMSHO
 70
     1
  9
$DIMPOST
  1

  9
$DIMAPOST
  1

  9
$DIMALT
 70
     0
  9
$DIMALTD
 70
     2
  9
$DIMALTF
 40
25.399999999999999
  9
$DIMLFAC
 40
1.0
  9
$DIMTOFL
 70
     0
  9
$DIMTVP
 40
0.0
  9
$DIMTIX
 70
     0
  9
$DIMSOXD
 70
     0
  9
$DIMSAH
 70
     0
  9
$DIMBLK1
  1

  9
$DIMBLK2
  1

  9
$DIMSTYLE
  2
STANDARD
  9
$DIMCLRD
 70
     0
  9
$DIMCLRE
 70
     0
  9
$DIMCLRT
 70
     0
  9
$DIMTFAC
 40
1.0
  9
$DIMGAP
 40
0.09
  9
$LUNITS
 70
     2
  9
$LUPREC
 70
     4
  9
$SKETCHINC
 40
0.1
  9
$FILLETRAD
 40
0.0
  9
$AUNITS
 70
     0
  9
$AUPREC
 70
     0
  9
$MENU
  1
.
  9
$ELEVATION
 40
0.0
  9
$PELEVATION
 40
0.0
  9
$THICKNESS
 40
0.0
  9
$LIMCHECK
 70
     0
  9
$BLIPMODE
 70
     0
  9
$CHAMFERA
 40
0.0
  9
$CHAMFERB
 40
0.0
  9
$SKPOLY
 70
     0
  9
$TDCREATE
 40
2444972.375
  9
$TDUPDATE
 40
2458804.2523027202
  9
$TDINDWG
 40
0.0000671181
  9
$TDUSRTIMER
 40
0.0000671181
  9
$USRTIMER
 70
     1
  9
$ANGBASE
 50
0.0
  9
$ANGDIR
 70
     0
  9
$PDMODE
 70
     0
  9
$PDSIZE
 40
0.0
  9
$PLINEWID
 40
0.0
  9
$COORDS
 70
     1
  9
$SPLFRAME
 70
     0
  9
$SPLINETYPE
 70
     6
  9
$SPLINESEGS
 70
     8
  9
$ATTDIA
 70
     1
  9
$ATTREQ
 70
     1
  9
$HANDLING
 70
     1
  9
$HANDSEED
  5
361
  9
$SURFTAB1
 70
     6
  9
$SURFTAB2
 70
     6
  9
$SURFTYPE
 70
     6
  9
$SURFU
 70
     6
  9
$SURFV
 70
     6
  9
$UCSNAME
  2

  9
$UCSORG
 10
0.0
 20
0.0
 30
0.0
  9
$UCSXDIR
 10
1.0
 20
0.0
 30
0.0
  9
$UCSYDIR
 10
0.0
 20
1.0
 30
0.0
  9
$PUCSNAME
  2

  9
$PUCSORG
 10
0.0
 20
0.0
 30
0.0
  9
$PUCSXDIR
 10
1.0
 20
0.0
 30
0.0
  9
$PUCSYDIR
 10
0.0
 20
1.0
 30
0.0
  9
$USERI1
 70
     0
  9
$USERI2
 70
     0
  9
$USERI3
 70
     0
  9
$USERI4
 70
     0
  9
$USERI5
 70
     0
  9
$USERR1
 40
0.0
  9
$USERR2
 40
0.0
  9
$USERR3
 40
0.0
  9
$USERR4
 40
0.0
  9
$USERR5
 40
0.0
  9
$WORLDVIEW
 70
     1
  9
$SHADEDGE
 70
     3
  9
$SHADEDIF
 70
    70
  9
$TILEMODE
 70
     1
  9
$MAXACTVP
 70
    48
  9
$PLIMCHECK
 70
     0
  9
$PEXTMIN
 10
1.0000000000000000E+020
 20
1.0000000000000000E+020
 30
1.0000000000000000E+020
  9
$PEXTMAX
 10
-1.0000000000000000E+020
 20
-1.0000000000000000E+020
 30
-1.0000000000000000E+020
  9
$PLIMMIN
 10
0.0
 20
0.0
  9
$PLIMMAX
 10
12.0
 20
9.0
  9
$UNITMODE
 70
     0
  9
$VISRETAIN
 70
     1
  9
$PLINEGEN
 70
     0
  9
$PSLTSCALE
 70
     1
  0
ENDSEC
  0
SECTION
  2
TABLES
  0
TABLE
  2
VPORT
 70
     1
  0
VPORT
  2
*ACTIVE
 70
     0
 10
0.0
 20
0.0
 11
1.0
 21
1.0
 12
159.5855372518389
 22
148.589
 13
0.0
 23
0.0
 14
1.0
 24
1.0
 15
0.0
 25
0.0
 16
0.0
 26
0.0
 36
1.0
 17
0.0
 27
0.0
 37
0.0
 40
204.90490258392791
 41
2.801587301587301
 42
50.0
 43
0.0
 44
0.0
 50
0.0
 51
0.0
 71
     0
 72
   100
 73
     1
 74
     1
 75
     0
 76
     0
 77
     0
 78
     0
  0
ENDTAB
  0
TABLE
  2
LTYPE
 70
     4
  0
LTYPE
  2
CONTINUOUS
 70
     0
  3
Solid line
 72
    65
 73
     0
 40
0.0
  0
LTYPE
  2
AIGENLINE001
 70
     0
  3
generate AI->DXF Converter
 72
    65
 73
     5
 40
5.8561449999999988
 49
3.5278
 49
-0.776115
 49
0.776115
 49
-0.776115
 49
0.0
  0
LTYPE
  2
AIGENLINE002
 70
     0
  3
generate AI->DXF Converter
 72
    65
 73
     6
 40
7.4083750000000004
 49
3.5278
 49
-0.776115
 49
0.776115
 49
-0.776115
 49
0.776115
 49
-0.776115
  0
LTYPE
  2
AIGENLINE003
 70
     0
  3
generate AI->DXF Converter
 72
    65
 73
     4
 40
5.8561449999999988
 49
3.5278
 49
-0.776115
 49
0.776115
 49
-0.776115
  0
ENDTAB
  0
TABLE
  2
LAYER
 70
     4
  0
LAYER
  2
0
 70
     0
 62
     7
  6
CONTINUOUS
  0
LAYER
  2
____
 70
     0
 62
     7
  6
CONTINUOUS
  0
LAYER
  2
_________1
 70
     0
 62
     7
  6
CONTINUOUS
  0
LAYER
  2
_________2
 70
     0
 62
     7
  6
CONTINUOUS
  0
ENDTAB
  0
TABLE
  2
STYLE
 70
     1
  0
STYLE
  2
STANDARD
 70
     0
 40
0.0
 41
0.0
 50
0.0
 71
     0
 42
0.0
  3
TXT
  4
EXTFONT.SHX
  0
ENDTAB
  0
TABLE
  2
VIEW
 70
     0
  0
ENDTAB
  0
TABLE
  2
UCS
 70
     0
  0
ENDTAB
  0
TABLE
  2
APPID
 70
     3
  0
APPID
  2
ACAD
 70
     0
  0
APPID
  2
ACAD_NAV_VCDISPLAY
 70
     0
  0
APPID
  2
ACAD_MLEADERVER
 70
     0
  0
ENDTAB
  0
TABLE
  2
DIMSTYLE
 70
     1
  0
DIMSTYLE
  2
STANDARD
 70
     0
  3

  4

  5

  6

  7

 40
1.0
 41
0.18
 42
0.0625
 43
0.38
 44
0.18
 45
0.0
 46
0.0
 47
0.0
 48
0.0
140
0.18
141
0.09
142
0.0
143
25.399999999999999
144
1.0
145
0.0
146
1.0
147
0.09
 71
     0
 72
     0
 73
     1
 74
     1
 75
     0
 76
     0
 77
     0
 78
     0
170
     0
171
     2
172
     0
173
     0
174
     0
175
     0
176
     0
177
     0
178
     0
  0
ENDTAB
  0
ENDSEC
  0
SECTION
  2
BLOCKS
  0
BLOCK
  8
0
  2
$MODEL_SPACE
 70
     0
 10
0.0
 20
0.0
 30
0.0
  3
$MODEL_SPACE
  1

  0
ENDBLK
  5
1A
  8
0
  0
BLOCK
 67
     1
  8
0
  2
$PAPER_SPACE
 70
     0
 10
0.0
 20
0.0
 30
0.0
  3
$PAPER_SPACE
  1

  0
ENDBLK
  5
17
 67
     1
  8
0
  0
BLOCK
  8
_________1
  2
AIGNBL0202000E
 70
     0
 10
0.0
 20
0.0
 30
0.0
  3
AIGNBL0202000E
  1

  0
LINE
  5
28
  8
_________1
 62
     7
 10
-26.619399999999999
 20
102.13
 30
0.0
 11
-26.4223
 21
102.13
 31
0.0
  0
LINE
  5
29
  8
_________1
 62
     7
 10
-47.9602
 20
102.13
 30
0.0
 11
-47.76209999999999
 21
102.13
 31
0.0
  0
ENDBLK
  5
2A
  8
_________1
  0
BLOCK
  8
_________1
  2
AIGNBL02010002
 70
     0
 10
0.0
 20
0.0
 30
0.0
  3
AIGNBL02010002
  1

  0
LINE
  5
2D
  8
_________1
 62
     7
 10
71.383700000000005
 20
75.755399999999995
 30
0.0
 11
73.016300000000001
 21
77.358699999999999
 31
0.0
  0
LINE
  5
2E
  8
_________1
 62
     7
 10
73.016300000000001
 20
77.358699999999999
 30
0.0
 11
70.800399999999996
 21
76.785799999999995
 31
0.0
  0
LINE
  5
2F
  8
_________1
 62
     7
 10
70.800399999999996
 20
76.785799999999995
 30
0.0
 11
71.383700000000005
 21
75.755399999999995
 31
0.0
  0
LINE
  5
30
  8
_________1
 62
     7
 10
73.016300000000001
 20
77.358699999999999
 30
0.0
 11
64.405299999999997
 21
72.488
 31
0.0
  0
LINE
  5
31
  8
_________1
 62
     7
 10
64.405299999999997
 20
72.488
 30
0.0
 11
57.668300000000002
 21
72.488
 31
0.0
  0
ENDBLK
  5
32
  8
_________1
  0
BLOCK
  8
_________1
  2
AIGNBL02010003
 70
     0
 10
0.0
 20
0.0
 30
0.0
  3
AIGNBL02010003
  1

  0
LINE
  5
35
  8
_________1
 62
     7
 10
83.593500000000006
 20
60.925199999999997
 30
0.0
 11
81.382799999999989
 21
60.332999999999998
 31
0.0
  0
LINE
  5
36
  8
_________1
 62
     7
 10
81.382799999999989
 20
60.332999999999998
 30
0.0
 11
83.593500000000006
 21
59.740400000000001
 31
0.0
  0
LINE
  5
37
  8
_________1
 62
     7
 10
83.593500000000006
 20
59.740400000000001
 30
0.0
 11
83.593500000000006
 21
60.925199999999997
 31
0.0
  0
LINE
  5
38
  8
_________1
 62
     7
 10
72.697299999999998
 20
59.755200000000002
 30
0.0
 11
74.907700000000006
 21
60.3474
 31
0.0
  0
LINE
  5
39
  8
_________1
 62
     7
 10
74.907700000000006
 20
60.3474
 30
0.0
 11
72.697299999999998
 21
60.939599999999999
 31
0.0
  0
LINE
  5
3A
  8
_________1
 62
     7
 10
72.697299999999998
 20
60.939599999999999
 30
0.0
 11
72.697299999999998
 21
59.755200000000002
 31
0.0
  0
LINE
  5
3B
  8
_________1
 62
     7
 10
-28.6448
 20
44.952899999999993
 30
0.0
 11
-22.625800000000002
 21
44.952899999999993
 31
0.0
  0
LINE
  5
3C
  8
_________1
 62
     7
 10
70.476200000000006
 20
60.340200000000003
 30
0.0
 11
92.202500000000001
 21
60.340200000000003
 31
0.0
  0
ENDBLK
  5
3D
  8
_________1
  0
BLOCK
  8
_________1
  2
AIGNBL02010004
 70
     0
 10
0.0
 20
0.0
 30
0.0
  3
AIGNBL02010004
  1

  0
LINE
  5
40
  8
_________1
 62
     7
 10
38.107999999999997
 20
101.91800000000001
 30
0.0
 11
38.6999
 21
99.706900000000005
 31
0.0
  0
LINE
  5
41
  8
_________1
 62
     7
 10
38.6999
 20
99.706900000000005
 30
0.0
 11
39.292400000000001
 21
101.91800000000001
 31
0.0
  0
LINE
  5
42
  8
_________1
 62
     7
 10
39.292400000000001
 20
101.91800000000001
 30
0.0
 11
38.107999999999997
 21
101.91800000000001
 31
0.0
  0
LINE
  5
43
  8
_________1
 62
     7
 10
39.277999999999999
 20
116.497
 30
0.0
 11
38.685400000000001
 21
118.70699999999999
 31
0.0
  0
LINE
  5
44
  8
_________1
 62
     7
 10
38.685400000000001
 20
118.70699999999999
 30
0.0
 11
38.09320000000001
 21
116.497
 31
0.0
  0
LINE
  5
45
  8
_________1
 62
     7
 10
38.09320000000001
 20
116.497
 30
0.0
 11
39.277999999999999
 21
116.497
 31
0.0
  0
LINE
  5
46
  8
_________1
 62
     7
 10
38.693000000000012
 20
99.733699999999999
 30
0.0
 11
38.693000000000012
 21
118.68000000000001
 31
0.0
  0
ENDBLK
  5
47
  8
_________1
  0
BLOCK
  8
_________1
  2
AIGNBL02010005
 70
     0
 10
0.0
 20
0.0
 30
0.0
  3
AIGNBL02010005
  1

  0
LINE
  5
4A
  8
_________1
 62
     7
 10
13.229799999999999
 20
101.93300000000001
 30
0.0
 11
13.8216
 21
99.722399999999993
 31
0.0
  0
LINE
  5
4B
  8
_________1
 62
     7
 10
13.8216
 20
99.722399999999993
 30
0.0
 11
14.414199999999999
 21
101.93300000000001
 31
0.0
  0
LINE
  5
4C
  8
_________1
 62
     7
 10
14.414199999999999
 20
101.93300000000001
 30
0.0
 11
13.229799999999999
 21
101.93300000000001
 31
0.0
  0
LINE
  5
4D
  8
_________1
 62
     7
 10
14.399699999999999
 20
119.455
 30
0.0
 11
13.8072
 21
121.66500000000001
 31
0.0
  0
LINE
  5
4E
  8
_________1
 62
     7
 10
13.8072
 20
121.66500000000001
 30
0.0
 11
13.215
 21
119.455
 31
0.0
  0
LINE
  5
4F
  8
_________1
 62
     7
 10
13.215
 20
119.455
 30
0.0
 11
14.399699999999999
 21
119.455
 31
0.0
  0
LINE
  5
50
  8
_________1
 62
     7
 10
13.8147
 20
99.749200000000002
 30
0.0
 11
13.8147
 21
121.63800000000001
 31
0.0
  0
ENDBLK
  5
51
  8
_________1
  0
BLOCK
  8
_________1
  2
AIGNBL02010006
 70
     0
 10
0.0
 20
0.0
 30
0.0
  3
AIGNBL02010006
  1

  0
LINE
  5
54
  8
_________1
 62
     7
 10
18.877700000000001
 20
116.90300000000001
 30
0.0
 11
20.8597
 21
115.759
 31
0.0
  0
LINE
  5
55
  8
_________1
 62
     7
 10
20.8597
 20
115.759
 30
0.0
 11
19.715499999999999
 21
117.741
 31
0.0
  0
LINE
  5
56
  8
_________1
 62
     7
 10
19.715499999999999
 20
117.741
 30
0.0
 11
18.877700000000001
 21
116.90300000000001
 31
0.0
  0
LINE
  5
57
  8
_________1
 62
     7
 10
37.850000000000001
 20
154.90600000000001
 30
0.0
 11
38.3371
 21
152.66999999999999
 31
0.0
  0
LINE
  5
58
  8
_________1
 62
     7
 10
38.3371
 20
152.66999999999999
 30
0.0
 11
39.0334
 21
154.84999999999999
 31
0.0
  0
LINE
  5
59
  8
_________1
 62
     7
 10
39.0334
 20
154.84999999999999
 30
0.0
 11
37.850000000000001
 21
154.90600000000001
 31
0.0
  0
LINE
  5
5A
  8
_________1
 62
     7
 10
45.949100000000001
 20
175.05000000000001
 30
0.0
 11
46.77559999999999
 21
177.184
 31
0.0
  0
LINE
  5
5B
  8
_________1
 62
     7
 10
46.77559999999999
 20
177.184
 30
0.0
 11
44.992699999999999
 21
175.749
 31
0.0
  0
LINE
  5
5C
  8
_________1
 62
     7
 10
44.992699999999999
 20
175.749
 30
0.0
 11
45.949100000000001
 21
175.05000000000001
 31
0.0
  0
LINE
  5
5D
  8
_________1
 62
     7
 10
27.861899999999999
 20
114.52
 30
0.0
 11
25.6511
 21
113.928
 31
0.0
  0
LINE
  5
5E
  8
_________1
 62
     7
 10
25.6511
 20
113.928
 30
0.0
 11
27.861899999999999
 21
113.336
 31
0.0
  0
LINE
  5
5F
  8
_________1
 62
     7
 10
27.861899999999999
 20
113.336
 30
0.0
 11
27.861899999999999
 21
114.52
 31
0.0
  0
LINE
  5
60
  8
_________1
 62
     7
 10
75.739400000000003
 20
113.351
 30
0.0
 11
77.949700000000007
 21
113.94199999999999
 31
0.0
  0
LINE
  5
61
  8
_________1
 62
     7
 10
77.949700000000007
 20
113.94199999999999
 30
0.0
 11
75.739400000000003
 21
114.535
 31
0.0
  0
LINE
  5
62
  8
_________1
 62
     7
 10
75.739400000000003
 20
114.535
 30
0.0
 11
75.739400000000003
 21
113.351
 31
0.0
  0
LINE
  5
63
  8
_________1
 62
     7
 10
25.6784
 20
113.93600000000001
 30
0.0
 11
77.922899999999998
 21
113.93600000000001
 31
0.0
  0
ENDBLK
  5
64
  8
_________1
  0
BLOCK
  8
_________1
  2
AIGNBL02010007
 70
     0
 10
0.0
 20
0.0
 30
0.0
  3
AIGNBL02010007
  1

  0
LINE
  5
67
  8
_________1
 62
     7
 10
75.891300000000001
 20
190.703
 30
0.0
 11
78.101699999999994
 21
191.29499999999999
 31
0.0
  0
LINE
  5
68
  8
_________1
 62
     7
 10
78.101699999999994
 20
191.29499999999999
 30
0.0
 11
75.891300000000001
 21
191.887
 31
0.0
  0
LINE
  5
69
  8
_________1
 62
     7
 10
75.891300000000001
 20
191.887
 30
0.0
 11
75.891300000000001
 21
190.703
 31
0.0
  0
LINE
  5
6A
  8
_________1
 62
     7
 10
37.457900000000002
 20
191.87299999999999
 30
0.0
 11
35.247500000000002
 21
191.28
 31
0.0
  0
LINE
  5
6B
  8
_________1
 62
     7
 10
35.247500000000002
 20
191.28
 30
0.0
 11
37.457900000000002
 21
190.68799999999999
 31
0.0
  0
LINE
  5
6C
  8
_________1
 62
     7
 10
37.457900000000002
 20
190.68799999999999
 30
0.0
 11
37.457900000000002
 21
191.87299999999999
 31
0.0
  0
LINE
  5
6D
  8
_________1
  6
AIGENLINE001
 62
     7
 10
78.151600000000002
 20
152.66999999999999
 30
0.0
 11
43.001100000000001
 21
180.13300000000001
 31
0.0
  0
ARC
  5
6E
  8
_________1
  6
AIGENLINE002
 62
     7
 10
47.71362899999999
 20
176.41252600000001
 30
0.0
 40
4.4675330000000004
 50
151.94417799999999
 51
177.07984400000001
  0
ARC
  5
6F
  8
_________1
  6
AIGENLINE002
 62
     7
 10
47.748300999999991
 20
176.371308
 30
0.0
 40
4.517561999999999
 50
107.181354
 51
151.68966900000001
  0
LINE
  5
70
  8
_________1
  6
AIGENLINE002
 62
     7
 10
72.129599999999996
 20
160.596
 30
0.0
 11
46.413800000000002
 21
180.68700000000001
 31
0.0
  0
LINE
  5
71
  8
_________1
  6
AIGENLINE002
 62
     7
 10
46.413800000000002
 20
180.68700000000001
 30
0.0
 11
43.251899999999999
 21
176.63999999999999
 31
0.0
  0
LINE
  5
72
  8
_________1
  6
AIGENLINE002
 62
     7
 10
43.251899999999999
 20
176.63999999999999
 30
0.0
 11
49.410699999999991
 21
171.828
 31
0.0
  0
ARC
  5
73
  8
_________1
  6
AIGENLINE002
 62
     7
 10
49.810071999999998
 20
167.10951399999999
 30
0.0
 40
4.7355059999999991
 50
54.193377000000012
 51
94.837406999999999
  0
ARC
  5
74
  8
_________1
  6
AIGENLINE002
 62
     7
 10
49.767454000000001
 20
167.12842800000001
 30
0.0
 40
4.7453199999999987
 50
9.2336439999999982
 51
53.642439000000003
  0
LINE
  5
75
  8
_________1
  6
AIGENLINE002
 62
     7
 10
54.451300000000003
 20
167.88999999999999
 30
0.0
 11
68.967600000000004
 21
156.54900000000001
 31
0.0
  0
LINE
  5
76
  8
_________1
  6
AIGENLINE001
 62
     7
 10
78.151600000000002
 20
152.66999999999999
 30
0.0
 11
33.613100000000003
 21
152.66999999999999
 31
0.0
  0
LINE
  5
77
  8
_________1
 62
     7
 10
78.070300000000003
 20
191.28800000000001
 30
0.0
 11
35.2744
 21
191.28800000000001
 31
0.0
  0
ENDBLK
  5
78
  8
_________1
  0
BLOCK
  8
_________1
  2
AIGNBL02010008
 70
     0
 10
0.0
 20
0.0
 30
0.0
  3
AIGNBL02010008
  1

  0
LINE
  5
7B
  8
_________1
 62
     7
 10
-30.920999999999999
 20
48.057299999999998
 30
0.0
 11
-32.90290000000001
 21
49.201399999999992
 31
0.0
  0
LINE
  5
7C
  8
_________1
 62
     7
 10
-32.90290000000001
 20
49.201399999999992
 30
0.0
 11
-31.758800000000001
 21
47.219799999999999
 31
0.0
  0
LINE
  5
7D
  8
_________1
 62
     7
 10
-31.758800000000001
 20
47.219799999999999
 30
0.0
 11
-30.920999999999999
 21
48.057299999999998
 31
0.0
  0
LINE
  5
7E
  8
_________1
 62
     7
 10
-43.654099999999993
 20
59.134700000000002
 30
0.0
 11
-41.672499999999999
 21
57.990600000000001
 31
0.0
  0
LINE
  5
7F
  8
_________1
 62
     7
 10
-41.672499999999999
 20
57.990600000000001
 30
0.0
 11
-42.816299999999991
 21
59.9726
 31
0.0
  0
LINE
  5
80
  8
_________1
 62
     7
 10
-42.816299999999991
 20
59.9726
 30
0.0
 11
-43.654099999999993
 21
59.134700000000002
 31
0.0
  0
LINE
  5
81
  8
_________1
 62
     7
 10
-44.599499999999999
 20
60.908299999999997
 30
0.0
 11
-28.6448
 21
44.952899999999993
 31
0.0
  0
ENDBLK
  5
82
  8
_________1
  0
BLOCK
  8
_________1
  2
AIGNBL02010009
 70
     0
 10
0.0
 20
0.0
 30
0.0
  3
AIGNBL02010009
  1

  0
LINE
  5
85
  8
_________1
 62
     7
 10
-17.724799999999998
 20
97.590900000000005
 30
0.0
 11
-18.317
 21
99.801299999999998
 31
0.0
  0
LINE
  5
86
  8
_________1
 62
     7
 10
-18.317
 20
99.801299999999998
 30
0.0
 11
-18.909199999999998
 21
97.590900000000005
 31
0.0
  0
LINE
  5
87
  8
_________1
 62
     7
 10
-18.909199999999998
 20
97.590900000000005
 30
0.0
 11
-17.724799999999998
 21
97.590900000000005
 31
0.0
  0
LINE
  5
88
  8
_________1
 62
     7
 10
-18.8947
 20
87.007099999999994
 30
0.0
 11
-18.302499999999998
 21
84.796400000000006
 31
0.0
  0
LINE
  5
89
  8
_________1
 62
     7
 10
-18.302499999999998
 20
84.796400000000006
 30
0.0
 11
-17.7103
 21
87.007099999999994
 31
0.0
  0
LINE
  5
8A
  8
_________1
 62
     7
 10
-17.7103
 20
87.007099999999994
 30
0.0
 11
-18.8947
 21
87.007099999999994
 31
0.0
  0
LINE
  5
8B
  8
_________1
 62
     7
 10
-18.309799999999999
 20
99.801299999999998
 30
0.0
 11
-18.309799999999999
 21
84.706500000000005
 31
0.0
  0
ENDBLK
  5
8C
  8
_________1
  0
BLOCK
  8
_________1
  2
AIGNBL0201000A
 70
     0
 10
0.0
 20
0.0
 30
0.0
  3
AIGNBL0201000A
  1

  0
LINE
  5
8F
  8
_________1
 62
     7
 10
-10.6892
 20
101.819
 30
0.0
 11
-10.0969
 21
99.608699999999985
 31
0.0
  0
LINE
  5
90
  8
_________1
 62
     7
 10
-10.0969
 20
99.608699999999985
 30
0.0
 11
-9.5047300000000003
 21
101.819
 31
0.0
  0
LINE
  5
91
  8
_________1
 62
     7
 10
-9.5047300000000003
 20
101.819
 30
0.0
 11
-10.6892
 21
101.819
 31
0.0
  0
LINE
  5
92
  8
_________1
 62
     7
 10
-10.6892
 20
71.750100000000003
 30
0.0
 11
-10.0969
 21
69.539299999999983
 31
0.0
  0
LINE
  5
93
  8
_________1
 62
     7
 10
-10.0969
 20
69.539299999999983
 30
0.0
 11
-9.5047300000000003
 21
71.750100000000003
 31
0.0
  0
LINE
  5
94
  8
_________1
 62
     7
 10
-9.5047300000000003
 20
71.750100000000003
 30
0.0
 11
-10.6892
 21
71.750100000000003
 31
0.0
  0
LINE
  5
95
  8
_________1
 62
     7
 10
-9.5191999999999997
 20
97.505399999999995
 30
0.0
 11
-10.1114
 21
99.716200000000015
 31
0.0
  0
LINE
  5
96
  8
_________1
 62
     7
 10
-10.1114
 20
99.716200000000015
 30
0.0
 11
-10.7036
 21
97.505399999999995
 31
0.0
  0
LINE
  5
97
  8
_________1
 62
     7
 10
-10.7036
 20
97.505399999999995
 30
0.0
 11
-9.5191999999999997
 21
97.505399999999995
 31
0.0
  0
LINE
  5
98
  8
_________1
 62
     7
 10
-9.5191999999999997
 20
160.77099999999999
 30
0.0
 11
-10.1114
 21
162.98099999999999
 31
0.0
  0
LINE
  5
99
  8
_________1
 62
     7
 10
-10.1114
 20
162.98099999999999
 30
0.0
 11
-10.7036
 21
160.77099999999999
 31
0.0
  0
LINE
  5
9A
  8
_________1
 62
     7
 10
-10.7036
 20
160.77099999999999
 30
0.0
 11
-9.5191999999999997
 21
160.77099999999999
 31
0.0
  0
LINE
  5
9B
  8
_________1
  6
AIGENLINE003
 62
     7
 10
-37.229700000000001
 20
193.28200000000001
 30
0.0
 11
-37.229700000000001
 21
266.25400000000002
 31
0.0
  0
LINE
  5
9C
  8
_________1
 62
     7
 10
-10.104200000000001
 20
69.566599999999994
 30
0.0
 11
-10.104200000000001
 21
162.95699999999999
 31
0.0
  0
ENDBLK
  5
9D
  8
_________1
  0
BLOCK
  8
_________1
  2
AIGNBL0201000B
 70
     0
 10
0.0
 20
0.0
 30
0.0
  3
AIGNBL0201000B
  1

  0
LINE
  5
A0
  8
_________1
 62
     7
 10
-28.6479
 20
105.879
 30
0.0
 11
-26.437100000000001
 21
106.471
 31
0.0
  0
LINE
  5
A1
  8
_________1
 62
     7
 10
-26.437100000000001
 20
106.471
 30
0.0
 11
-28.6479
 21
107.06399999999999
 31
0.0
  0
LINE
  5
A2
  8
_________1
 62
     7
 10
-28.6479
 20
107.06399999999999
 30
0.0
 11
-28.6479
 21
105.879
 31
0.0
  0
LINE
  5
A3
  8
_________1
 62
     7
 10
-45.799700000000001
 20
107.04900000000001
 30
0.0
 11
-48.010100000000001
 21
106.45699999999999
 31
0.0
  0
LINE
  5
A4
  8
_________1
 62
     7
 10
-48.010100000000001
 20
106.45699999999999
 30
0.0
 11
-45.799700000000001
 21
105.864
 31
0.0
  0
LINE
  5
A5
  8
_________1
 62
     7
 10
-45.799700000000001
 20
105.864
 30
0.0
 11
-45.799700000000001
 21
107.04900000000001
 31
0.0
  0
LINE
  5
A6
  8
_________1
 62
     7
 10
-26.464400000000001
 20
106.464
 30
0.0
 11
-47.983199999999989
 21
106.464
 31
0.0
  0
ENDBLK
  5
A7
  8
_________1
  0
BLOCK
  8
_________1
  2
AIGNBL0201000C
 70
     0
 10
0.0
 20
0.0
 30
0.0
  3
AIGNBL0201000C
  1

  0
LINE
  5
AA
  8
_________1
 62
     7
 10
-44.75139999999999
 20
169.52199999999999
 30
0.0
 11
-46.962099999999992
 21
168.929
 31
0.0
  0
LINE
  5
AB
  8
_________1
 62
     7
 10
-46.962099999999992
 20
168.929
 30
0.0
 11
-44.75139999999999
 21
168.33699999999999
 31
0.0
  0
LINE
  5
AC
  8
_________1
 62
     7
 10
-44.75139999999999
 20
168.33699999999999
 30
0.0
 11
-44.75139999999999
 21
169.52199999999999
 31
0.0
  0
LINE
  5
AD
  8
_________1
 62
     7
 10
-29.710699999999999
 20
168.34399999999999
 30
0.0
 11
-27.5
 21
168.93700000000001
 31
0.0
  0
LINE
  5
AE
  8
_________1
 62
     7
 10
-27.5
 20
168.93700000000001
 30
0.0
 11
-29.710699999999999
 21
169.529
 31
0.0
  0
LINE
  5
AF
  8
_________1
 62
     7
 10
-29.710699999999999
 20
169.529
 30
0.0
 11
-29.710699999999999
 21
168.34399999999999
 31
0.0
  0
LINE
  5
B0
  8
_________1
 62
     7
 10
-46.934899999999992
 20
168.93700000000001
 30
0.0
 11
-27.5
 21
168.93700000000001
 31
0.0
  0
ENDBLK
  5
B1
  8
_________1
  0
BLOCK
  8
_________1
  2
AIGNBL0201000D
 70
     0
 10
0.0
 20
0.0
 30
0.0
  3
AIGNBL0201000D
  1

  0
INSERT
  5
B4
  8
_________1
 62
     7
  2
AIGNBL0202000E
 10
0.0
 20
0.0
 30
0.0
  0
ENDBLK
  5
B5
  8
_________1
  0
BLOCK
  8
_________2
  2
AIGNBL03010002
 70
     0
 10
0.0
 20
0.0
 30
0.0
  3
AIGNBL03010002
  1

  0
LINE
  5
B8
  8
_________2
 62
     7
 10
186.649
 20
51.052199999999999
 30
0.0
 11
184.46299999999999
 21
51.052199999999999
 31
0.0
  0
LINE
  5
B9
  8
_________2
 62
     7
 10
187.142
 20
51.052199999999999
 30
0.0
 11
186.88900000000001
 21
51.052199999999999
 31
0.0
  0
LINE
  5
BA
  8
_________2
 62
     7
 10
187.63399999999999
 20
51.052199999999999
 30
0.0
 11
190.559
 21
51.052199999999999
 31
0.0
  0
LINE
  5
BB
  8
_________2
 62
     7
 10
187.142
 20
51.052199999999999
 30
0.0
 11
187.39400000000001
 21
51.052199999999999
 31
0.0
  0
LINE
  5
BC
  8
_________2
 62
     7
 10
180.745
 20
51.052199999999999
 30
0.0
 11
178.55799999999999
 21
51.052199999999999
 31
0.0
  0
LINE
  5
BD
  8
_________2
 62
     7
 10
181.23699999999999
 20
51.052199999999999
 30
0.0
 11
180.98599999999999
 21
51.052199999999999
 31
0.0
  0
LINE
  5
BE
  8
_________2
 62
     7
 10
181.23699999999999
 20
51.544800000000002
 30
0.0
 11
181.23699999999999
 21
53.7318
 31
0.0
  0
LINE
  5
BF
  8
_________2
 62
     7
 10
181.23699999999999
 20
51.052199999999999
 30
0.0
 11
181.23699999999999
 21
51.304299999999998
 31
0.0
  0
LINE
  5
C0
  8
_________2
 62
     7
 10
181.72999999999999
 20
51.052199999999999
 30
0.0
 11
183.917
 21
51.052199999999999
 31
0.0
  0
LINE
  5
C1
  8
_________2
 62
     7
 10
181.23699999999999
 20
51.052199999999999
 30
0.0
 11
181.489
 21
51.052199999999999
 31
0.0
  0
LINE
  5
C2
  8
_________2
 62
     7
 10
181.23699999999999
 20
50.560200000000002
 30
0.0
 11
181.23699999999999
 21
48.373199999999997
 31
0.0
  0
LINE
  5
C3
  8
_________2
 62
     7
 10
181.23699999999999
 20
51.052199999999999
 30
0.0
 11
181.23699999999999
 21
50.800699999999999
 31
0.0
  0
LINE
  5
C4
  8
_________2
 62
     7
 10
184.94799999999989
 20
49.832599999999999
 30
0.0
 11
190.12599999999989
 21
48.9679
 31
0.0
  0
LINE
  5
C5
  8
_________2
 62
     7
 10
184.94799999999989
 20
52.271700000000003
 30
0.0
 11
190.12599999999989
 21
53.137099999999997
 31
0.0
  0
LINE
  5
C6
  8
_________2
 62
     7
 10
190.12599999999989
 20
48.9679
 30
0.0
 11
190.12599999999989
 21
53.137099999999997
 31
0.0
  0
LINE
  5
C7
  8
_________2
 62
     7
 10
184.94799999999989
 20
49.832599999999999
 30
0.0
 11
184.94799999999989
 21
52.271700000000003
 31
0.0
  0
ARC
  5
C8
  8
_________2
 62
     7
 10
181.190651
 20
51.004810999999989
 30
0.0
 40
1.2677780000000001
 50
2.1403449999999991
 51
87.892005999999995
  0
ARC
  5
C9
  8
_________2
 62
     7
 10
181.28420199999999
 20
51.005241999999988
 30
0.0
 40
1.2673579999999991
 50
92.121564999999975
 51
177.87840600000001
  0
ARC
  5
CA
  8
_________2
 62
     7
 10
181.28381400000001
 20
51.098689
 30
0.0
 40
1.2669559999999991
 50
182.10473099999999
 51
267.89529900000002
  0
ARC
  5
CB
  8
_________2
 62
     7
 10
181.19038399999999
 20
51.099775000000001
 30
0.0
 40
1.268054
 50
272.11960599999998
 51
357.84804300000002
  0
ARC
  5
CC
  8
_________2
 62
     7
 10
181.23728399999999
 20
51.05215900000001
 30
0.0
 40
2.0849849999999992
 50
0.00001
 51
89.999980000000008
  0
ARC
  5
CD
  8
_________2
 62
     7
 10
181.317331
 20
50.972827000000002
 30
0.0
 40
2.1657969999999991
 50
92.118111999999996
 51
177.90079600000001
  0
ARC
  5
CE
  8
_________2
 62
     7
 10
181.31728799999999
 20
51.132162999999998
 30
0.0
 40
2.1657779999999991
 50
182.11700400000001
 51
267.88302499999998
  0
ARC
  5
CF
  8
_________2
 62
     7
 10
181.15730300000001
 20
51.132855999999997
 30
0.0
 40
2.166469999999999
 50
272.115725
 51
357.86534699999999
  0
ENDBLK
  5
D0
  8
_________2
  0
ENDSEC
  0
SECTION
  2
ENTITIES
  0
TEXT
  5
D1
  8
____
 62
     7
 10
-43.788857999999998
 20
38.456099999999999
 30
0.0
 40
3.0923400000000001
  1
水栓金具取付穴
 41
0.5
 72
     1
 11
-37.501100000000001
 21
38.456099999999999
 31
0.0
  0
TEXT
  5
D2
  8
____
 62
     7
 10
66.707323000000002
 20
38.126399999999997
 30
0.0
 40
3.0923400000000001
  1
※差込み接続不可
 41
0.5
 72
     1
 11
74.077399999999997
 21
38.126399999999997
 31
0.0
  0
TEXT
  5
D3
  8
____
 62
     7
 10
85.954099999999997
 20
71.364599999999996
 30
0.0
 40
3.0923400000000001
  1
※
 41
0.5
  0
TEXT
  5
D4
  8
____
 62
     7
 10
57.668300000000002
 20
73.188100000000006
 30
0.0
 40
3.0923400000000001
  1
G1/2
 41
0.5
  0
TEXT
  5
D5
  8
____
 62
     7
 10
86.533209999999997
 20
61.040199999999999
 30
0.0
 40
3.0923400000000001
  1
%%c12.7
 41
0.5
 72
     2
 11
92.202500000000001
 21
61.040199999999999
 31
0.0
  0
TEXT
  5
D6
  8
____
 62
     7
 10
40.821885999999999
 20
179.37
 30
0.0
 40
3.0923400000000001
  1
開
 41
0.5
 72
     2
 11
42.161900000000003
 21
179.37
 31
0.0
  0
TEXT
  5
D7
  8
____
 62
     7
 10
31.436285999999999
 20
151.09999999999999
 30
0.0
 40
3.0923400000000001
  1
閉
 41
0.5
 72
     2
 11
32.776299999999999
 21
151.09999999999999
 31
0.0
  0
TEXT
  5
D8
  8
____
 62
     7
 10
55.407325
 20
191.988
 30
0.0
 40
3.0923400000000001
  1
86
 41
0.5
 72
     1
 11
56.695799999999991
 21
191.988
 31
0.0
  0
TEXT
  5
D9
  8
____
 62
     7
 10
-10.9758
 20
82.391392499999995
 30
0.0
 40
3.0923400000000001
  1
60.5
 50
90.0
 41
0.5
 72
     1
 11
-10.9758
 21
84.581800000000001
 31
0.0
  0
TEXT
  5
DA
  8
____
 62
     7
 10
21.2596825
 20
110.009
 30
0.0
 40
3.0923400000000001
  1
40%%d
 41
0.5
 72
     1
 11
22.934699999999999
 21
110.009
 31
0.0
  0
TEXT
  5
DB
  8
____
 62
     7
 10
-26.748919999999998
 20
45.652999999999992
 30
0.0
 40
3.0923400000000001
  1
%%c25
 41
0.5
 72
     2
 11
-22.625800000000002
 21
45.652999999999992
 31
0.0
  0
TEXT
  5
DC
  8
____
 62
     7
 10
50.2261825
 20
114.636
 30
0.0
 40
3.0923400000000001
  1
105
 41
0.5
 72
     1
 11
51.901200000000003
 21
114.636
 31
0.0
  0
TEXT
  5
DD
  8
____
 62
     7
 10
37.992899999999999
 20
107.918525
 30
0.0
 40
3.0923400000000001
  1
38
 50
90.0
 41
0.5
 72
     1
 11
37.992899999999999
 21
109.20699999999999
 31
0.0
  0
TEXT
  5
DE
  8
____
 62
     7
 10
12.950699999999999
 20
109.418525
 30
0.0
 40
3.0923400000000001
  1
44
 50
90.0
 41
0.5
 72
     1
 11
12.950699999999999
 21
110.70699999999999
 31
0.0
  0
TEXT
  5
DF
  8
____
 62
     7
 10
-10.9758
 20
128.497355
 30
0.0
 40
3.0923400000000001
  1
126.5
 50
90.0
 41
0.5
 72
     1
 11
-10.9758
 21
131.33199999999999
 31
0.0
  0
TEXT
  5
E0
  8
____
 62
     7
 10
-40.277940000000001
 20
107.164
 30
0.0
 40
3.0923400000000001
  1
%%c43.5
 41
0.5
 72
     1
 11
-37.185600000000001
 21
107.164
 31
0.0
  0
TEXT
  5
E1
  8
____
 62
     7
 10
-40.456339999999997
 20
169.637
 30
0.0
 40
3.0923400000000001
  1
%%c38.5
 41
0.5
 72
     1
 11
-37.364000000000011
 21
169.637
 31
0.0
  0
TEXT
  5
E2
  8
____
 62
     7
 10
-19.009799999999998
 20
88.46992250000001
 30
0.0
 40
3.0923400000000001
  1
max.30
 50
90.0
 41
0.5
 72
     1
 11
-19.009799999999998
 21
92.206500000000005
 31
0.0
  0
ARC
  5
E3
  8
_________1
 62
     7
 10
78.418385000000001
 20
152.58176700000001
 30
0.0
 40
40.081389000000001
 50
142.13545400000001
 51
179.87430599999999
  0
ARC
  5
E4
  8
_________1
 62
     7
 10
-33.592323
 20
208.75797800000001
 30
0.0
 40
1.0928119999999999
 50
329.73571299999998
 51
359.87022300000001
  0
ARC
  5
E5
  8
_________1
 62
     7
 10
-34.054264000000003
 20
208.988516
 30
0.0
 40
1.6083369999999999
 50
316.16924999999998
 51
330.93616800000012
  0
ARC
  5
E6
  8
_________1
 62
     7
 10
-34.685305999999997
 20
209.55776800000001
 30
0.0
 40
2.457929
 50
304.09631100000001
 51
316.78381000000002
  0
ARC
  5
E7
  8
_________1
 62
     7
 10
-35.500504999999997
 20
210.68334999999999
 30
0.0
 40
3.8472609999999992
 50
294.16740800000008
 51
304.752771
  0
ARC
  5
E8
  8
_________1
 62
     7
 10
-36.32918200000001
 20
212.400307
 30
0.0
 40
5.753241
 50
286.154447
 51
294.69639799999999
  0
ARC
  5
E9
  8
_________1
 62
     7
 10
-36.994802
 20
214.54943299999999
 30
0.0
 40
8.0028100000000002
 50
274.73411299999998
 51
286.45080100000001
  0
ARC
  5
EA
  8
_________1
 62
     7
 10
-37.223619999999997
 20
216.31132500000001
 30
0.0
 40
9.7779249999999998
 50
269.96461699999998
 51
275.21827500000001
  0
ARC
  5
EB
  8
_________1
 62
     7
 10
-37.227975000000001
 20
214.98478600000001
 30
0.0
 40
8.4513839999999991
 50
252.4313370000001
 51
269.988587
  0
ARC
  5
EC
  8
_________1
 62
     7
 10
-37.877755000000001
 20
212.71231700000001
 30
0.0
 40
6.0891400000000004
 50
241.25399400000001
 51
251.80587299999999
  0
ARC
  5
ED
  8
_________1
 62
     7
 10
-38.917904
 20
210.73646500000001
 30
0.0
 40
3.8567449999999992
 50
230.15967499999999
 51
240.68527599999999
  0
ARC
  5
EE
  8
_________1
 62
     7
 10
-39.906767000000002
 20
209.51435699999999
 30
0.0
 40
2.284977
 50
217.095685
 51
229.56634
  0
ARC
  5
EF
  8
_________1
 62
     7
 10
-40.691372999999999
 20
208.90390199999999
 30
0.0
 40
1.291031
 50
195.558291
 51
216.48836700000001
  0
ARC
  5
F0
  8
_________1
 62
     7
 10
-41.113397999999989
 20
208.75923299999999
 30
0.0
 40
0.8460719999999998
 50
180.25264999999999
 51
193.78558799999999
  0
ARC
  5
F1
  8
_________1
 62
     7
 10
-34.973100000000009
 20
206.265917
 30
0.0
 40
2.473589
 50
336.06631900000002
 51
359.91955400000001
  0
ARC
  5
F2
  8
_________1
 62
     7
 10
-35.728127000000001
 20
206.547428
 30
0.0
 40
3.2782640000000001
 50
320.89058299999999
 51
336.92261999999999
  0
ARC
  5
F3
  8
_________1
 62
     7
 10
-36.513530000000003
 20
207.13559100000001
 30
0.0
 40
4.2588869999999996
 50
304.65855699999997
 51
321.41600099999999
  0
ARC
  5
F4
  8
_________1
 62
     7
 10
-37.176098000000003
 20
208.03143
 30
0.0
 40
5.3726739999999991
 50
269.42880200000002
 51
305.03766200000001
  0
ARC
  5
F5
  8
_________1
 62
     7
 10
-37.218445000000003
 20
208.23946900000001
 30
0.0
 40
5.580457
 50
235.645006
 51
269.884861
  0
ARC
  5
F6
  8
_________1
 62
     7
 10
-37.777625999999998
 20
207.30388600000001
 30
0.0
 40
4.4930129999999986
 50
216.516887
 51
234.79911200000001
  0
ARC
  5
F7
  8
_________1
 62
     7
 10
-38.725890999999997
 20
206.54325800000001
 30
0.0
 40
3.278627999999999
 50
196.87372199999999
 51
215.69499900000011
  0
ARC
  5
F8
  8
_________1
 62
     7
 10
-39.457702000000012
 20
206.278505
 30
0.0
 40
2.501809999999999
 50
180.36785
 51
195.936159
  0
ARC
  5
F9
  8
_________1
 62
     7
 10
-34.973100000000009
 20
200.40956199999999
 30
0.0
 40
2.473589
 50
336.06631900000002
 51
359.91955400000001
  0
ARC
  5
FA
  8
_________1
 62
     7
 10
-35.728127000000001
 20
200.69107299999999
 30
0.0
 40
3.2782640000000001
 50
320.89058299999999
 51
336.92261999999999
  0
ARC
  5
FB
  8
_________1
 62
     7
 10
-36.513530000000003
 20
201.279236
 30
0.0
 40
4.2588869999999996
 50
304.65855699999997
 51
321.41600099999999
  0
ARC
  5
FC
  8
_________1
 62
     7
 10
-37.176098000000003
 20
202.17507499999999
 30
0.0
 40
5.3726739999999991
 50
269.42880200000002
 51
305.03766200000001
  0
ARC
  5
FD
  8
_________1
 62
     7
 10
-37.218445000000003
 20
202.38311400000001
 30
0.0
 40
5.580457
 50
235.645006
 51
269.884861
  0
ARC
  5
FE
  8
_________1
 62
     7
 10
-37.777625999999998
 20
201.447531
 30
0.0
 40
4.4930129999999986
 50
216.516887
 51
234.79911200000001
  0
ARC
  5
FF
  8
_________1
 62
     7
 10
-38.725890999999997
 20
200.686903
 30
0.0
 40
3.278627999999999
 50
196.87372199999999
 51
215.69499900000011
  0
ARC
  5
100
  8
_________1
 62
     7
 10
-39.457702000000012
 20
200.42214999999999
 30
0.0
 40
2.501809999999999
 50
180.36785
 51
195.936159
  0
LINE
  5
101
  8
_________1
 62
     7
 10
-41.959800000000001
 20
244.52500000000001
 30
0.0
 11
-41.959800000000001
 21
200.40600000000001
 31
0.0
  0
LINE
  5
102
  8
_________1
 62
     7
 10
-32.499499999999998
 20
200.40600000000001
 30
0.0
 11
-32.499499999999998
 21
244.52500000000001
 31
0.0
  0
ARC
  5
103
  8
_________1
 62
     7
 10
25.824145999999999
 20
121.93583099999999
 30
0.0
 40
8.0097380000000005
 50
196.52543499999999
 51
268.762339
  0
LINE
  5
104
  8
_________1
 62
     7
 10
-39.797699999999999
 20
210.71600000000001
 30
0.0
 11
-39.797699999999999
 21
243.63
 31
0.0
  0
LINE
  5
105
  8
_________1
 62
     7
 10
-34.661700000000003
 20
210.71600000000001
 30
0.0
 11
-34.661700000000003
 21
243.63
 31
0.0
  0
ARC
  5
106
  8
_________1
 62
     7
 10
-37.229833999999997
 20
252.90623199999999
 30
0.0
 40
9.6251429999999996
 50
270.00104499999998
 51
0.001015
  0
ARC
  5
107
  8
_________1
 62
     7
 10
-37.229489000000001
 20
252.906229
 30
0.0
 40
9.6251390000000008
 50
179.99894499999999
 51
269.99899399999998
  0
ARC
  5
108
  8
_________1
 62
     7
 10
-37.229658000000001
 20
252.90640099999999
 30
0.0
 40
9.6249699999999994
 50
90.0
 51
179.99996999999999
  0
ARC
  5
109
  8
_________1
 62
     7
 10
-37.229661
 20
252.90640099999999
 30
0.0
 40
9.6249699999999994
 50
0.00001
 51
89.999980000000008
  0
LINE
  5
10A
  8
_________1
  6
AIGENLINE001
 62
     7
 10
34.009
 20
132.27799999999999
 30
0.0
 11
78.151600000000002
 21
132.27799999999999
 31
0.0
  0
LINE
  5
10B
  8
_________1
 62
     7
 10
82.746700000000004
 20
96.101900000000015
 30
0.0
 11
82.746700000000004
 21
84.706500000000005
 31
0.0
  0
LINE
  5
10C
  8
_________1
 62
     7
 10
82.746700000000004
 20
96.101900000000015
 30
0.0
 11
83.287599999999998
 21
96.642799999999994
 31
0.0
  0
LINE
  5
10D
  8
_________1
 62
     7
 10
73.557199999999995
 20
96.101900000000015
 30
0.0
 11
73.016300000000001
 21
96.642799999999994
 31
0.0
  0
LINE
  5
10E
  8
_________1
 62
     7
 10
73.557199999999995
 20
84.706500000000005
 30
0.0
 11
73.557199999999995
 21
96.101900000000015
 31
0.0
  0
LINE
  5
10F
  8
_________1
 62
     7
 10
83.288300000000007
 20
96.101900000000015
 30
0.0
 11
73.016300000000001
 21
96.101900000000015
 31
0.0
  0
INSERT
  5
110
  8
_________1
 62
     7
  2
AIGNBL02010002
 10
0.0
 20
0.0
 30
0.0
  0
INSERT
  5
111
  8
_________1
 62
     7
  2
AIGNBL02010003
 10
0.0
 20
0.0
 30
0.0
  0
INSERT
  5
112
  8
_________1
 62
     7
  2
AIGNBL02010004
 10
0.0
 20
0.0
 30
0.0
  0
INSERT
  5
113
  8
_________1
 62
     7
  2
AIGNBL02010005
 10
0.0
 20
0.0
 30
0.0
  0
INSERT
  5
114
  8
_________1
 62
     7
  2
AIGNBL02010006
 10
0.0
 20
0.0
 30
0.0
  0
INSERT
  5
115
  8
_________1
 62
     7
  2
AIGNBL02010007
 10
0.0
 20
0.0
 30
0.0
  0
LINE
  5
116
  8
_________1
  6
AIGENLINE002
 62
     7
 10
81.371099999999984
 20
58.697899999999997
 30
0.0
 11
81.371099999999984
 21
69.456699999999984
 31
0.0
  0
LINE
  5
117
  8
_________1
  6
AIGENLINE002
 62
     7
 10
75.021000000000001
 20
69.456699999999984
 30
0.0
 11
75.021000000000001
 21
58.697899999999997
 31
0.0
  0
LINE
  5
118
  8
_________1
 62
     7
 10
13.107100000000001
 20
121.70699999999999
 30
0.0
 11
25.6511
 21
121.70699999999999
 31
0.0
  0
LINE
  5
119
  8
_________1
 62
     7
 10
25.6511
 20
121.617
 30
0.0
 11
25.6511
 21
112.68000000000001
 31
0.0
  0
LINE
  5
11A
  8
_________1
 62
     7
 10
39.385399999999997
 20
118.70699999999999
 30
0.0
 11
30.688600000000001
 21
118.70699999999999
 31
0.0
  0
LINE
  5
11B
  8
_________1
 62
     7
 10
66.438199999999995
 20
99.706900000000005
 30
0.0
 11
13.121600000000001
 21
99.706900000000005
 31
0.0
  0
LINE
  5
11C
  8
_________1
 62
     7
 10
78.151600000000002
 20
167.06100000000001
 30
0.0
 11
78.151600000000002
 21
192.72999999999999
 31
0.0
  0
LINE
  5
11D
  8
_________1
  6
AIGENLINE003
 62
     7
 10
-24.278400000000001
 20
252.90600000000001
 30
0.0
 11
-50.334200000000003
 21
252.90600000000001
 31
0.0
  0
ARC
  5
11E
  8
_________1
 62
     7
 10
-37.228402000000003
 20
214.37201099999999
 30
0.0
 40
4.466810999999999
 50
279.93221999999997
 51
305.07324399999999
  0
ARC
  5
11F
  8
_________1
 62
     7
 10
-37.217626000000003
 20
214.42905400000001
 30
0.0
 40
4.5211879999999987
 50
235.20431600000001
 51
279.67301500000002
  0
LINE
  5
120
  8
_________1
 62
     7
 10
-39.797699999999999
 20
210.71600000000001
 30
0.0
 11
-34.661700000000003
 21
210.71600000000001
 31
0.0
  0
LINE
  5
121
  8
_________1
  6
AIGENLINE003
 62
     7
 10
78.151600000000002
 20
67.114699999999999
 30
0.0
 11
78.151600000000002
 21
166.18700000000001
 31
0.0
  0
LINE
  5
122
  8
_________1
 62
     7
 10
35.239899999999999
 20
155.749
 30
0.0
 11
35.239899999999999
 21
192.357
 31
0.0
  0
LINE
  5
123
  8
_________1
 62
     7
 10
83.292400000000001
 20
95.742199999999997
 30
0.0
 11
83.292400000000001
 21
84.7072
 31
0.0
  0
LINE
  5
124
  8
_________1
 62
     7
 10
83.287599999999998
 20
96.101900000000015
 30
0.0
 11
73.016300000000001
 21
96.101900000000015
 31
0.0
  0
LINE
  5
125
  8
_________1
 62
     7
 10
83.466800000000006
 20
79.212199999999996
 30
0.0
 11
72.835099999999997
 21
79.212199999999996
 31
0.0
  0
LINE
  5
126
  8
_________1
 62
     7
 10
87.776600000000002
 20
158.09200000000001
 30
0.0
 11
68.526700000000005
 21
158.09200000000001
 31
0.0
  0
ARC
  5
127
  8
_________1
 62
     7
 10
39.619982
 20
152.64119600000001
 30
0.0
 40
4.4703839999999992
 50
189.950953
 51
215.07328799999999
  0
ARC
  5
128
  8
_________1
 62
     7
 10
39.673182000000011
 20
152.62811099999999
 30
0.0
 40
4.5205760000000001
 50
145.194975
 51
189.671075
  0
LINE
  5
129
  8
_________1
 62
     7
 10
68.526700000000005
 20
155.208
 30
0.0
 11
35.961300000000001
 21
155.208
 31
0.0
  0
LINE
  5
12A
  8
_________1
 62
     7
 10
35.961300000000001
 20
155.208
 30
0.0
 11
35.961300000000001
 21
150.072
 31
0.0
  0
LINE
  5
12B
  8
_________1
 62
     7
 10
35.961300000000001
 20
150.072
 30
0.0
 11
43.776899999999998
 21
150.072
 31
0.0
  0
ARC
  5
12C
  8
_________1
 62
     7
 10
46.997129000000001
 20
146.598803
 30
0.0
 40
4.7366229999999998
 50
92.197253000000018
 51
132.83195599999999
  0
ARC
  5
12D
  8
_________1
 62
     7
 10
46.95249299999999
 20
146.590248
 30
0.0
 40
4.7436730000000003
 50
47.228192999999997
 51
91.654548000000005
  0
LINE
  5
12E
  8
_________1
 62
     7
 10
50.1738
 20
150.072
 30
0.0
 11
68.526700000000005
 21
150.072
 31
0.0
  0
LINE
  5
12F
  8
_________1
 62
     7
 10
27.904199999999999
 20
132.322
 30
0.0
 11
35.11140000000001
 21
126.28700000000001
 31
0.0
  0
ARC
  5
130
  8
_________1
 62
     7
 10
77.715381999999991
 20
72.475276000000008
 30
0.0
 40
2.5972520000000001
 50
338.62271600000003
 51
21.377284
  0
ARC
  5
131
  8
_________1
 62
     7
 10
78.019898999999995
 20
72.772389000000004
 30
0.0
 40
2.2115999999999989
 50
17.081182999999999
 51
61.649977
  0
ARC
  5
132
  8
_________1
 62
     7
 10
77.961253999999997
 20
72.662475000000001
 30
0.0
 40
2.3361800000000001
 50
61.664240000000007
 51
64.619501999999997
  0
ARC
  5
133
  8
_________1
 62
     7
 10
78.150688999999986
 20
73.007862000000003
 30
0.0
 40
1.943068999999999
 50
65.300927000000001
 51
109.635745
  0
ARC
  5
134
  8
_________1
 62
     7
 10
78.011410999999995
 20
73.369107999999997
 30
0.0
 40
1.5560590000000001
 50
109.275429
 51
115.5353639999999
  0
ARC
  5
135
  8
_________1
 62
     7
 10
78.290581000000003
 20
72.766441
 30
0.0
 40
2.2202120000000001
 50
115.33175799999999
 51
159.72826800000001
  0
ARC
  5
136
  8
_________1
 62
     7
 10
78.760719999999992
 20
72.605875999999995
 30
0.0
 40
2.7168890000000001
 50
159.98704000000001
 51
162.51912300000001
  0
ARC
  5
137
  8
_________1
 62
     7
 10
78.585211999999999
 20
72.475276000000008
 30
0.0
 40
2.594781999999999
 50
158.60134300000001
 51
201.39865699999999
  0
ARC
  5
138
  8
_________1
 62
     7
 10
78.289858999999993
 20
72.183505000000011
 30
0.0
 40
2.219393999999999
 50
197.16363899999999
 51
241.56756200000001
  0
ARC
  5
139
  8
_________1
 62
     7
 10
77.980419999999995
 20
71.591984999999994
 30
0.0
 40
1.551922
 50
241.216026
 51
245.653898
  0
ARC
  5
13A
  8
_________1
 62
     7
 10
78.151482999999999
 20
71.932938000000007
 30
0.0
 40
1.933136
 50
245.200605
 51
289.73134499999998
  0
ARC
  5
13B
  8
_________1
 62
     7
 10
78.290758999999994
 20
71.595685000000003
 30
0.0
 40
1.5687580000000001
 50
289.10170800000009
 51
295.35754900000001
  0
ARC
  5
13C
  8
_________1
 62
     7
 10
78.017162999999996
 20
72.180684999999997
 30
0.0
 40
2.2145700000000001
 50
295.27219400000001
 51
339.78787199999999
  0
ARC
  5
13D
  8
_________1
 62
     7
 10
77.964241000000001
 20
72.206344999999999
 30
0.0
 40
2.2731059999999998
 50
339.64179999999999
 51
342.65188699999999
  0
LINE
  5
13E
  8
_________1
 62
     7
 10
84.4589
 20
72.070099999999996
 30
0.0
 11
84.4589
 21
72.520099999999999
 31
0.0
  0
LINE
  5
13F
  8
_________1
 62
     7
 10
84.4589
 20
72.520099999999999
 30
0.0
 11
84.4589
 21
72.970699999999994
 31
0.0
  0
LINE
  5
140
  8
_________1
 62
     7
 10
84.4589
 20
72.970699999999994
 30
0.0
 11
84.277699999999996
 21
73.872600000000006
 31
0.0
  0
ARC
  5
141
  8
_________1
 62
     7
 10
82.068383999999995
 20
72.99584200000001
 30
0.0
 40
2.3769619999999989
 50
21.645523000000001
 51
42.227269
  0
ARC
  5
142
  8
_________1
 62
     7
 10
82.690875000000005
 20
73.628855000000001
 30
0.0
 40
1.4914369999999999
 50
40.291608999999987
 51
62.602432999999991
  0
LINE
  5
143
  8
_________1
 62
     7
 10
83.377200000000002
 20
74.953000000000003
 30
0.0
 11
82.837000000000003
 21
74.953000000000003
 31
0.0
  0
ARC
  5
144
  8
_________1
 62
     7
 10
83.518676999999997
 20
73.638976
 30
0.0
 40
1.480329999999999
 50
117.419438
 51
139.857336
  0
ARC
  5
145
  8
_________1
 62
     7
 10
83.079496999999989
 20
73.795396999999994
 30
0.0
 40
1.056497
 50
130.951255
 51
175.208798
  0
ARC
  5
146
  8
_________1
 62
     7
 10
81.957611
 20
73.882424
 30
0.0
 40
0.069092
 50
351.83875499999999
 51
1.0085770000000001
  0
ARC
  5
147
  8
_________1
 62
     7
 10
84.368195999999983
 20
72.677806000000004
 30
0.0
 40
2.629341999999999
 50
152.97275400000001
 51
173.60462999999999
  0
LINE
  5
148
  8
_________1
 62
     7
 10
81.755200000000002
 20
72.970699999999994
 30
0.0
 11
81.755200000000002
 21
72.070099999999996
 31
0.0
  0
ARC
  5
149
  8
_________1
 62
     7
 10
84.333825000000004
 20
72.353594999999999
 30
0.0
 40
2.5941419999999988
 50
186.27330000000001
 51
207.17344299999999
  0
ARC
  5
14A
  8
_________1
 62
     7
 10
83.075213000000005
 20
71.242743000000004
 30
0.0
 40
1.051806
 50
184.02649500000001
 51
228.43741900000001
  0
ARC
  5
14B
  8
_________1
 62
     7
 10
82.490054999999998
 20
70.589193999999992
 30
0.0
 40
0.174636
 50
229.82993200000001
 51
233.85564299999999
  0
ARC
  5
14C
  8
_________1
 62
     7
 10
83.506907999999996
 20
71.382843000000008
 30
0.0
 40
1.4586619999999999
 50
219.84963200000001
 51
242.65978000000001
  0
LINE
  5
14D
  8
_________1
 62
     7
 10
82.837000000000003
 20
70.087100000000007
 30
0.0
 11
83.377200000000002
 21
70.087100000000007
 31
0.0
  0
ARC
  5
14E
  8
_________1
 62
     7
 10
82.686593999999999
 20
71.412944999999993
 30
0.0
 40
1.4948959999999989
 50
297.51375000000002
 51
319.80587800000001
  0
ARC
  5
14F
  8
_________1
 62
     7
 10
82.071421000000001
 20
72.043768999999983
 30
0.0
 40
2.3734410000000001
 50
317.75729699999999
 51
338.36991
  0
LINE
  5
150
  8
_________1
 62
     7
 10
84.277699999999996
 20
71.168899999999994
 30
0.0
 11
84.4589
 21
72.070099999999996
 31
0.0
  0
ARC
  5
151
  8
_________1
 62
     7
 10
73.029944
 20
72.520289000000005
 30
0.0
 40
1.1843600000000001
 50
157.64859799999999
 51
202.08696
  0
ARC
  5
152
  8
_________1
 62
     7
 10
71.917987999999994
 20
72.065881000000005
 30
0.0
 40
0.017113
 50
14.379381
 51
32.017795
  0
LINE
  5
153
  8
_________1
 62
     7
 10
71.934600000000003
 20
72.070099999999996
 30
0.0
 11
72.115099999999998
 21
71.168899999999994
 31
0.0
  0
LINE
  5
154
  8
_________1
 62
     7
 10
72.115099999999998
 20
71.168899999999994
 30
0.0
 11
72.474800000000002
 21
70.4482
 31
0.0
  0
ARC
  5
155
  8
_________1
 62
     7
 10
71.787419
 20
69.128573000000003
 30
0.0
 40
1.4878750000000001
 50
40.108694999999997
 51
62.486256000000012
  0
LINE
  5
156
  8
_________1
 62
     7
 10
72.925399999999996
 20
70.087100000000007
 30
0.0
 11
73.466300000000004
 21
70.087100000000007
 31
0.0
  0
LINE
  5
157
  8
_________1
 62
     7
 10
73.466300000000004
 20
70.087100000000007
 30
0.0
 11
74.006500000000003
 21
70.4482
 31
0.0
  0
LINE
  5
158
  8
_________1
 62
     7
 10
74.006500000000003
 20
70.4482
 30
0.0
 11
74.367500000000007
 21
71.168899999999994
 31
0.0
  0
LINE
  5
159
  8
_________1
 62
     7
 10
74.367500000000007
 20
71.168899999999994
 30
0.0
 11
74.547300000000007
 21
72.070099999999996
 31
0.0
  0
LINE
  5
15A
  8
_________1
 62
     7
 10
74.547300000000007
 20
72.070099999999996
 30
0.0
 11
74.547300000000007
 21
72.970699999999994
 31
0.0
  0
LINE
  5
15B
  8
_________1
 62
     7
 10
74.547300000000007
 20
72.970699999999994
 30
0.0
 11
74.367500000000007
 21
73.872600000000006
 31
0.0
  0
LINE
  5
15C
  8
_________1
 62
     7
 10
74.367500000000007
 20
73.872600000000006
 30
0.0
 11
74.006500000000003
 21
74.593299999999999
 31
0.0
  0
LINE
  5
15D
  8
_________1
 62
     7
 10
74.006500000000003
 20
74.593299999999999
 30
0.0
 11
73.466300000000004
 21
74.953000000000003
 31
0.0
  0
LINE
  5
15E
  8
_________1
 62
     7
 10
73.466300000000004
 20
74.953000000000003
 30
0.0
 11
72.925399999999996
 21
74.953000000000003
 31
0.0
  0
ARC
  5
15F
  8
_________1
 62
     7
 10
71.786472000000003
 20
75.917792000000006
 30
0.0
 40
1.4926250000000001
 50
297.459767
 51
319.731539
  0
LINE
  5
160
  8
_________1
 62
     7
 10
72.474800000000002
 20
74.593299999999999
 30
0.0
 11
72.115099999999998
 21
73.872600000000006
 31
0.0
  0
LINE
  5
161
  8
_________1
 62
     7
 10
72.115099999999998
 20
73.872600000000006
 30
0.0
 11
71.934600000000003
 21
72.970699999999994
 31
0.0
  0
LINE
  5
162
  8
_________1
 62
     7
 10
82.837000000000003
 20
79.3018
 30
0.0
 11
82.837000000000003
 21
75.494600000000005
 31
0.0
  0
LINE
  5
163
  8
_________1
 62
     7
 10
83.287599999999998
 20
79.212199999999996
 30
0.0
 11
83.287599999999998
 21
75.494600000000005
 31
0.0
  0
LINE
  5
164
  8
_________1
 62
     7
 10
73.466300000000004
 20
75.494600000000005
 30
0.0
 11
73.466300000000004
 21
79.3018
 31
0.0
  0
LINE
  5
165
  8
_________1
 62
     7
 10
73.016300000000001
 20
75.494600000000005
 30
0.0
 11
73.016300000000001
 21
79.212199999999996
 31
0.0
  0
ARC
  5
166
  8
_________1
 62
     7
 10
77.332801000000003
 20
72.459902999999997
 30
0.0
 40
5.5751210000000002
 50
147.02147299999999
 51
191.43885299999999
  0
ARC
  5
167
  8
_________1
 62
     7
 10
77.305109000000002
 20
72.498424
 30
0.0
 40
5.5557869999999996
 50
191.884863
 51
213.195266
  0
LINE
  5
168
  8
_________1
 62
     7
 10
72.656000000000006
 20
69.456699999999984
 30
0.0
 11
83.738200000000006
 21
69.456699999999984
 31
0.0
  0
ARC
  5
169
  8
_________1
 62
     7
 10
78.445115999999999
 20
72.485158999999996
 30
0.0
 40
6.098260999999999
 50
330.223636
 51
14.644795
  0
ARC
  5
16A
  8
_________1
 62
     7
 10
78.513999999999996
 20
72.474411000000003
 30
0.0
 40
6.0343970000000002
 50
14.908894
 51
30.032546000000011
  0
LINE
  5
16B
  8
_________1
 62
     7
 10
83.738200000000006
 20
75.494600000000005
 30
0.0
 11
72.656000000000006
 21
75.494600000000005
 31
0.0
  0
LINE
  5
16C
  8
_________1
 62
     7
 10
83.287599999999998
 20
84.7072
 30
0.0
 11
83.287599999999998
 21
98.805599999999998
 31
0.0
  0
LINE
  5
16D
  8
_________1
 62
     7
 10
73.016300000000001
 20
84.7072
 30
0.0
 11
73.016300000000001
 21
98.805599999999998
 31
0.0
  0
ARC
  5
16E
  8
_________1
 62
     7
 10
72.917256000000009
 20
81.286515000000009
 30
0.0
 40
2.0619040000000002
 50
308.03462200000001
 51
322.23913700000003
  0
ARC
  5
16F
  8
_________1
 62
     7
 10
72.871239000000003
 20
81.364028000000005
 30
0.0
 40
2.1513390000000001
 50
263.46366899999998
 51
307.72797000000008
  0
ARC
  5
170
  8
_________1
 62
     7
 10
72.896869999999993
 20
81.355943999999994
 30
0.0
 40
2.1463879999999991
 50
218.36076
 51
262.7593490000001
  0
LINE
  5
171
  8
_________1
 62
     7
 10
71.213800000000006
 20
80.023899999999998
 30
0.0
 11
71.213800000000006
 21
82.366600000000005
 31
0.0
  0
LINE
  5
172
  8
_________1
 62
     7
 10
71.213800000000006
 20
82.366600000000005
 30
0.0
 11
85.179699999999997
 21
82.366600000000005
 31
0.0
  0
LINE
  5
173
  8
_________1
 62
     7
 10
85.179699999999997
 20
82.366600000000005
 30
0.0
 11
85.179699999999997
 21
80.023899999999998
 31
0.0
  0
ARC
  5
174
  8
_________1
 62
     7
 10
83.455326999999997
 20
81.431741000000017
 30
0.0
 40
2.226078999999999
 50
309.42085900000001
 51
320.76939700000003
  0
ARC
  5
175
  8
_________1
 62
     7
 10
83.456450000000004
 20
81.460711000000003
 30
0.0
 40
2.2478279999999988
 50
264.68756000000002
 51
308.92984000000001
  0
ARC
  5
176
  8
_________1
 62
     7
 10
83.483063999999999
 20
81.451628999999997
 30
0.0
 40
2.241414999999999
 50
219.56764100000001
 51
263.98866099999998
  0
LINE
  5
177
  8
_________1
 62
     7
 10
74.547300000000007
 20
82.366600000000005
 30
0.0
 11
74.547300000000007
 21
80.023899999999998
 31
0.0
  0
ARC
  5
178
  8
_________1
 62
     7
 10
78.158066000000005
 20
87.735686999999999
 30
0.0
 40
8.5152450000000002
 50
244.91070199999999
 51
289.34920199999999
  0
ARC
  5
179
  8
_________1
 62
     7
 10
78.148999000000003
 20
87.605810000000005
 30
0.0
 40
8.3958669999999991
 50
289.70124299999998
 51
295.437298
  0
LINE
  5
17A
  8
_________1
 62
     7
 10
81.755200000000002
 20
80.023899999999998
 30
0.0
 11
81.755200000000002
 21
82.366600000000005
 31
0.0
  0
LINE
  5
17B
  8
_________1
 62
     7
 10
68.060199999999995
 20
83.266400000000004
 30
0.0
 11
68.060199999999995
 21
82.725899999999996
 31
0.0
  0
LINE
  5
17C
  8
_________1
 62
     7
 10
68.060199999999995
 20
82.725899999999996
 30
0.0
 11
88.333299999999994
 21
82.725899999999996
 31
0.0
  0
LINE
  5
17D
  8
_________1
 62
     7
 10
88.333299999999994
 20
82.725899999999996
 30
0.0
 11
88.333299999999994
 21
83.266400000000004
 31
0.0
  0
LINE
  5
17E
  8
_________1
 62
     7
 10
88.333299999999994
 20
83.266400000000004
 30
0.0
 11
68.060199999999995
 21
83.266400000000004
 31
0.0
  0
LINE
  5
17F
  8
_________1
 62
     7
 10
68.691299999999998
 20
84.7072
 30
0.0
 11
68.691299999999998
 21
83.446899999999985
 31
0.0
  0
LINE
  5
180
  8
_________1
 62
     7
 10
68.691299999999998
 20
83.446899999999985
 30
0.0
 11
87.702200000000005
 21
83.446899999999985
 31
0.0
  0
LINE
  5
181
  8
_________1
 62
     7
 10
87.702200000000005
 20
83.446899999999985
 30
0.0
 11
87.702200000000005
 21
84.7072
 31
0.0
  0
LINE
  5
182
  8
_________1
 62
     7
 10
87.702200000000005
 20
84.7072
 30
0.0
 11
68.691299999999998
 21
84.7072
 31
0.0
  0
LINE
  5
183
  8
_________1
 62
     7
 10
68.691299999999998
 20
99.706900000000005
 30
0.0
 11
68.691299999999998
 21
98.805599999999998
 31
0.0
  0
LINE
  5
184
  8
_________1
 62
     7
 10
68.691299999999998
 20
98.805599999999998
 30
0.0
 11
87.702200000000005
 21
98.805599999999998
 31
0.0
  0
LINE
  5
185
  8
_________1
 62
     7
 10
87.702200000000005
 20
98.805599999999998
 30
0.0
 11
87.702200000000005
 21
99.706900000000005
 31
0.0
  0
LINE
  5
186
  8
_________1
 62
     7
 10
89.072000000000017
 20
102.14
 30
0.0
 11
67.321600000000004
 21
102.14
 31
0.0
  0
LINE
  5
187
  8
_________1
 62
     7
 10
68.526700000000005
 20
127.548
 30
0.0
 11
68.526700000000005
 21
103.13
 31
0.0
  0
ARC
  5
188
  8
_________1
 62
     7
 10
68.158259999999999
 20
103.09084900000001
 30
0.0
 40
0.370462
 50
359.97006699999997
 51
6.0555079999999988
  0
ARC
  5
189
  8
_________1
 62
     7
 10
68.012208999999999
 20
103.07909100000001
 30
0.0
 40
0.5166420000000001
 50
335.37875200000002
 51
1.282624999999999
  0
ARC
  5
18A
  8
_________1
 62
     7
 10
67.571949000000004
 20
103.249831
 30
0.0
 40
0.9884109999999999
 50
323.07405899999998
 51
337.01389799999998
  0
ARC
  5
18B
  8
_________1
 62
     7
 10
66.656711999999999
 20
103.903058
 30
0.0
 40
2.112690999999999
 50
315.68497600000001
 51
323.82419700000003
  0
ARC
  5
18C
  8
_________1
 62
     7
 10
67.487768000000003
 20
103.087813
 30
0.0
 40
0.948534
 50
271.90521899999999
 51
315.85036000000002
  0
LINE
  5
18D
  8
_________1
 62
     7
 10
67.519300000000001
 20
102.14
 30
0.0
 11
67.321600000000004
 21
102.14
 31
0.0
  0
LINE
  5
18E
  8
_________1
 62
     7
 10
67.321600000000004
 20
102.14
 30
0.0
 11
67.321600000000004
 21
99.706900000000005
 31
0.0
  0
LINE
  5
18F
  8
_________1
 62
     7
 10
67.321600000000004
 20
99.706900000000005
 30
0.0
 11
89.072000000000017
 21
99.706900000000005
 31
0.0
  0
LINE
  5
190
  8
_________1
 62
     7
 10
89.072000000000017
 20
99.706900000000005
 30
0.0
 11
89.072000000000017
 21
102.14
 31
0.0
  0
LINE
  5
191
  8
_________1
 62
     7
 10
89.072000000000017
 20
102.14
 30
0.0
 11
88.873500000000007
 21
102.14
 31
0.0
  0
ARC
  5
192
  8
_________1
 62
     7
 10
88.810472000000004
 20
102.920598
 30
0.0
 40
0.7833359999999999
 50
265.38364999999999
 51
274.61637000000002
  0
ARC
  5
193
  8
_________1
 62
     7
 10
88.837896999999984
 20
103.42578
 30
0.0
 40
1.2891549999999989
 50
233.841331
 51
265.97579400000001
  0
ARC
  5
194
  8
_________1
 62
     7
 10
88.459845000000001
 20
102.860325
 30
0.0
 40
0.610216
 50
221.66281599999999
 51
231.17404099999999
  0
ARC
  5
195
  8
_________1
 62
     7
 10
88.715548999999996
 20
103.070205
 30
0.0
 40
0.940854
 50
176.3604169999999
 51
220.85990899999999
  0
LINE
  5
196
  8
_________1
 62
     7
 10
87.776600000000002
 20
103.13
 30
0.0
 11
87.776600000000002
 21
135.679
 31
0.0
  0
LINE
  5
197
  8
_________1
 62
     7
 10
87.776600000000002
 20
135.679
 30
0.0
 11
87.776600000000002
 21
162.95699999999999
 31
0.0
  0
LINE
  5
198
  8
_________1
 62
     7
 10
87.776600000000002
 20
162.95699999999999
 30
0.0
 11
68.526700000000005
 21
162.95699999999999
 31
0.0
  0
LINE
  5
199
  8
_________1
 62
     7
 10
68.526700000000005
 20
162.95699999999999
 30
0.0
 11
68.526700000000005
 21
137.0079999999999
 31
0.0
  0
LINE
  5
19A
  8
_________1
 62
     7
 10
20.1496
 20
114.899
 30
0.0
 11
24.622399999999999
 21
120.508
 31
0.0
  0
LINE
  5
19B
  8
_________1
  6
AIGENLINE001
 62
     7
 10
24.622399999999999
 20
120.508
 30
0.0
 11
34.009
 21
132.27799999999999
 31
0.0
  0
ARC
  5
19C
  8
_________1
 62
     7
 10
62.424613999999991
 20
131.950254
 30
0.0
 40
7.5245449999999989
 50
324.189009
 51
353.02647000000002
  0
ARC
  5
19D
  8
_________1
 62
     7
 10
61.343183999999987
 20
132.15224499999999
 30
0.0
 40
8.6227759999999982
 50
352.56665900000002
 51
9.368074
  0
ARC
  5
19E
  8
_________1
 62
     7
 10
59.145899999999997
 20
131.84294600000001
 30
0.0
 40
10.841227999999999
 50
9.0906539999999971
 51
16.370618
  0
ARC
  5
19F
  8
_________1
 62
     7
 10
62.275263000000002
 20
132.709789
 30
0.0
 40
7.5945809999999989
 50
16.750167999999999
 51
30.961296999999998
  0
ARC
  5
1A0
  8
_________1
 62
     7
 10
63.364748999999989
 20
133.278042
 30
0.0
 40
6.3684089999999989
 50
31.619972000000001
 51
35.850408000000002
  0
LINE
  5
1A1
  8
_________1
 62
     7
 10
68.526700000000005
 20
137.0079999999999
 30
0.0
 11
31.778600000000001
 21
137.0079999999999
 31
0.0
  0
LINE
  5
1A2
  8
_________1
 62
     7
 10
31.778600000000001
 20
137.0079999999999
 30
0.0
 11
22.047899999999998
 21
124.72499999999999
 31
0.0
  0
LINE
  5
1A3
  8
_________1
 62
     7
 10
22.047899999999998
 20
124.72499999999999
 30
0.0
 11
29.255099999999999
 21
118.688
 31
0.0
  0
LINE
  5
1A4
  8
_________1
 62
     7
 10
29.255099999999999
 20
118.688
 30
0.0
 11
36.193199999999997
 21
127.548
 31
0.0
  0
LINE
  5
1A5
  8
_________1
 62
     7
 10
36.193199999999997
 20
127.548
 30
0.0
 11
68.526700000000005
 21
127.548
 31
0.0
  0
ARC
  5
1A6
  8
_________1
 62
     7
 10
-37.256533000000012
 20
53.634276
 30
0.0
 40
6.2501329999999991
 50
270.00002000000001
 51
359.99999000000003
  0
ARC
  5
1A7
  8
_________1
 62
     7
 10
-37.256533000000012
 20
53.634273999999991
 30
0.0
 40
6.2501309999999988
 50
179.99996999999999
 51
270.00002000000001
  0
ARC
  5
1A8
  8
_________1
 62
     7
 10
-37.25653100000001
 20
53.634273999999991
 30
0.0
 40
6.2501329999999991
 50
90.0
 51
179.99996999999999
  0
ARC
  5
1A9
  8
_________1
 62
     7
 10
-37.256533000000012
 20
53.634273999999991
 30
0.0
 40
6.2501329999999991
 50
0.00001
 51
89.999980000000008
  0
INSERT
  5
1AA
  8
_________1
 62
     7
  2
AIGNBL02010008
 10
0.0
 20
0.0
 30
0.0
  0
INSERT
  5
1AB
  8
_________1
 62
     7
  2
AIGNBL02010009
 10
0.0
 20
0.0
 30
0.0
  0
INSERT
  5
1AC
  8
_________1
 62
     7
  2
AIGNBL0201000A
 10
0.0
 20
0.0
 30
0.0
  0
LINE
  5
1AD
  8
_________1
 62
     7
 10
-26.310700000000001
 20
107.815
 30
0.0
 11
-26.310700000000001
 21
102.86
 31
0.0
  0
INSERT
  5
1AE
  8
_________1
 62
     7
  2
AIGNBL0201000B
 10
0.0
 20
0.0
 30
0.0
  0
LINE
  5
1AF
  8
_________1
 62
     7
 10
-48.060400000000001
 20
102.86
 30
0.0
 11
-48.060400000000001
 21
107.815
 31
0.0
  0
LINE
  5
1B0
  8
_________1
 62
     7
 10
-26.959099999999999
 20
84.706500000000005
 30
0.0
 11
-16.866900000000001
 21
84.706500000000005
 31
0.0
  0
LINE
  5
1B1
  8
_________1
 62
     7
 10
-26.779199999999999
 20
162.95699999999999
 30
0.0
 11
-8.6620600000000003
 21
162.95699999999999
 31
0.0
  0
LINE
  5
1B2
  8
_________1
 62
     7
 10
-24.924399999999999
 20
99.706900000000005
 30
0.0
 11
-8.6620600000000003
 21
99.706900000000005
 31
0.0
  0
LINE
  5
1B3
  8
_________1
 62
     7
 10
-30.922999999999998
 20
69.456699999999984
 30
0.0
 11
-8.6620600000000003
 21
69.456699999999984
 31
0.0
  0
INSERT
  5
1B4
  8
_________1
 62
     7
  2
AIGNBL0201000C
 10
0.0
 20
0.0
 30
0.0
  0
LINE
  5
1B5
  8
_________1
 62
     7
 10
-27.5
 20
169.625
 30
0.0
 11
-27.5
 21
163.679
 31
0.0
  0
LINE
  5
1B6
  8
_________1
 62
     7
 10
-46.962099999999992
 20
163.679
 30
0.0
 11
-46.962099999999992
 21
169.625
 31
0.0
  0
LINE
  5
1B7
  8
_________1
  6
AIGENLINE003
 62
     7
 10
-37.229700000000001
 20
67.039900000000003
 30
0.0
 11
-37.229700000000001
 21
105.29600000000001
 31
0.0
  0
LINE
  5
1B8
  8
_________1
  6
AIGENLINE003
 62
     7
 10
-37.229700000000001
 20
111.54000000000001
 30
0.0
 11
-37.229700000000001
 21
164.62100000000001
 31
0.0
  0
LINE
  5
1B9
  8
_________1
  6
AIGENLINE003
 62
     7
 10
-37.229700000000001
 20
44.34899999999999
 30
0.0
 11
-37.229700000000001
 21
62.820300000000003
 31
0.0
  0
LINE
  5
1BA
  8
_________1
  6
AIGENLINE003
 62
     7
 10
-46.421199999999999
 20
53.539200000000001
 30
0.0
 11
-27.950600000000001
 21
53.539200000000001
 31
0.0
  0
LINE
  5
1BB
  8
_________1
 62
     7
 10
-47.321800000000003
 20
83.265699999999995
 30
0.0
 11
-47.321800000000003
 21
82.725499999999997
 31
0.0
  0
LINE
  5
1BC
  8
_________1
 62
     7
 10
-47.321800000000003
 20
82.725499999999997
 30
0.0
 11
-27.049299999999999
 21
82.725499999999997
 31
0.0
  0
LINE
  5
1BD
  8
_________1
 62
     7
 10
-27.049299999999999
 20
82.725499999999997
 30
0.0
 11
-27.049299999999999
 21
83.265699999999995
 31
0.0
  0
LINE
  5
1BE
  8
_________1
 62
     7
 10
-27.049299999999999
 20
83.265699999999995
 30
0.0
 11
-47.321800000000003
 21
83.265699999999995
 31
0.0
  0
LINE
  5
1BF
  8
_________1
 62
     7
 10
-42.455899999999993
 20
79.211500000000001
 30
0.0
 11
-31.9145
 21
79.211500000000001
 31
0.0
  0
ARC
  5
1C0
  8
_________1
 62
     7
 10
-37.667279000000001
 20
72.47562099999999
 30
0.0
 40
2.5972520000000001
 50
338.62271600000003
 51
21.377284
  0
ARC
  5
1C1
  8
_________1
 62
     7
 10
-37.364415000000001
 20
72.771377999999999
 30
0.0
 40
2.213576999999999
 50
17.102160000000001
 51
61.629001000000002
  0
ARC
  5
1C2
  8
_________1
 62
     7
 10
-37.360379999999999
 20
72.770656000000002
 30
0.0
 40
2.2122989999999998
 50
61.729836999999989
 51
64.846598999999998
  0
ARC
  5
1C3
  8
_________1
 62
     7
 10
-37.231202000000003
 20
73.011409999999998
 30
0.0
 40
1.939524
 50
65.277828999999997
 51
109.65408100000001
  0
ARC
  5
1C4
  8
_________1
 62
     7
 10
-37.334617999999999
 20
73.268558999999996
 30
0.0
 40
1.6626089999999989
 50
109.278415
 51
115.180803
  0
ARC
  5
1C5
  8
_________1
 62
     7
 10
-37.095080000000003
 20
72.769187000000002
 30
0.0
 40
2.2164479999999989
 50
115.292041
 51
159.76798500000001
  0
ARC
  5
1C6
  8
_________1
 62
     7
 10
-37.442278000000002
 20
72.904182999999975
 30
0.0
 40
1.8439989999999999
 50
159.972995
 51
163.680317
  0
ARC
  5
1C7
  8
_________1
 62
     7
 10
-34.311213000000002
 20
72.47562099999999
 30
0.0
 40
4.9913720000000001
 50
169.06640100000001
 51
190.93359899999999
  0
ARC
  5
1C8
  8
_________1
 62
     7
 10
-37.094824000000003
 20
72.179940000000002
 30
0.0
 40
2.214995
 50
197.09298200000001
 51
241.565394
  0
ARC
  5
1C9
  8
_________1
 62
     7
 10
-37.382683
 20
71.631447999999992
 30
0.0
 40
1.595626
 50
241.27683099999999
 51
245.59309200000001
  0
ARC
  5
1CA
  8
_________1
 62
     7
 10
-37.230589999999999
 20
71.939650999999984
 30
0.0
 40
1.939165
 50
245.26373599999999
 51
289.67059599999999
  0
ARC
  5
1CB
  8
_________1
 62
     7
 10
-37.070579000000002
 20
71.538616000000005
 30
0.0
 40
1.507754
 50
289.07471800000002
 51
295.55966999999998
  0
ARC
  5
1CC
  8
_________1
 62
     7
 10
-37.364303
 20
72.181091000000009
 30
0.0
 40
2.2141150000000001
 50
295.24351899999999
 51
339.7818410000001
  0
ARC
  5
1CD
  8
_________1
 62
     7
 10
-36.898636000000003
 20
72.019373999999999
 30
0.0
 40
1.7212769999999991
 50
339.47626600000001
 51
343.44434999999999
  0
LINE
  5
1CE
  8
_________1
 62
     7
 10
-30.922999999999998
 20
72.070099999999996
 30
0.0
 11
-30.922999999999998
 21
72.520099999999999
 31
0.0
  0
LINE
  5
1CF
  8
_________1
 62
     7
 10
-30.922999999999998
 20
72.520099999999999
 30
0.0
 11
-30.922999999999998
 21
72.971000000000004
 31
0.0
  0
LINE
  5
1D0
  8
_________1
 62
     7
 10
-30.922999999999998
 20
72.971000000000004
 30
0.0
 11
-31.104199999999999
 21
73.872600000000006
 31
0.0
  0
LINE
  5
1D1
  8
_________1
 62
     7
 10
-31.104199999999999
 20
73.872600000000006
 30
0.0
 11
-31.464600000000001
 21
74.593699999999984
 31
0.0
  0
LINE
  5
1D2
  8
_________1
 62
     7
 10
-31.464600000000001
 20
74.593699999999984
 30
0.0
 11
-32.00480000000001
 21
74.953000000000003
 31
0.0
  0
LINE
  5
1D3
  8
_________1
 62
     7
 10
-32.00480000000001
 20
74.953000000000003
 30
0.0
 11
-32.546399999999998
 21
74.953000000000003
 31
0.0
  0
ARC
  5
1D4
  8
_________1
 62
     7
 10
-31.861335
 20
73.636056000000011
 30
0.0
 40
1.4844599999999999
 50
117.481926
 51
139.82694499999999
  0
LINE
  5
1D5
  8
_________1
 62
     7
 10
-32.995600000000003
 20
74.593699999999984
 30
0.0
 11
-33.3553
 21
73.872600000000006
 31
0.0
  0
ARC
  5
1D6
  8
_________1
 62
     7
 10
-32.309679000000003
 20
73.193451999999994
 30
0.0
 40
1.246815
 50
146.994495
 51
190.276195
  0
ARC
  5
1D7
  8
_________1
 62
     7
 10
-32.438984000000012
 20
72.520456999999993
 30
0.0
 40
1.186399999999999
 50
157.67988500000001
 51
202.05577500000001
  0
LINE
  5
1D8
  8
_________1
 62
     7
 10
-33.538600000000002
 20
72.075000000000003
 30
0.0
 11
-33.536499999999997
 21
72.070099999999996
 31
0.0
  0
ARC
  5
1D9
  8
_________1
 62
     7
 10
-32.317034
 20
71.846746999999993
 30
0.0
 40
1.239751
 50
169.61950400000001
 51
213.12673699999999
  0
LINE
  5
1DA
  8
_________1
 62
     7
 10
-33.3553
 20
71.169200000000004
 30
0.0
 11
-32.995600000000003
 21
70.448499999999996
 31
0.0
  0
ARC
  5
1DB
  8
_________1
 62
     7
 10
-31.863999
 20
71.395286999999996
 30
0.0
 40
1.475441
 50
219.91784699999999
 51
242.45245399999999
  0
LINE
  5
1DC
  8
_________1
 62
     7
 10
-32.546399999999998
 20
70.087100000000007
 30
0.0
 11
-32.00480000000001
 21
70.087100000000007
 31
0.0
  0
LINE
  5
1DD
  8
_________1
 62
     7
 10
-32.00480000000001
 20
70.087100000000007
 30
0.0
 11
-31.464600000000001
 21
70.448499999999996
 31
0.0
  0
LINE
  5
1DE
  8
_________1
 62
     7
 10
-31.464600000000001
 20
70.448499999999996
 30
0.0
 11
-31.104199999999999
 21
71.169200000000004
 31
0.0
  0
LINE
  5
1DF
  8
_________1
 62
     7
 10
-31.104199999999999
 20
71.169200000000004
 30
0.0
 11
-30.922999999999998
 21
72.070099999999996
 31
0.0
  0
LINE
  5
1E0
  8
_________1
 62
     7
 10
-43.447400000000002
 20
72.971000000000004
 30
0.0
 11
-43.447400000000002
 21
72.520099999999999
 31
0.0
  0
LINE
  5
1E1
  8
_________1
 62
     7
 10
-43.447400000000002
 20
72.520099999999999
 30
0.0
 11
-43.447400000000002
 21
72.070099999999996
 31
0.0
  0
LINE
  5
1E2
  8
_________1
 62
     7
 10
-43.447400000000002
 20
72.070099999999996
 30
0.0
 11
-43.267600000000002
 21
71.169200000000004
 31
0.0
  0
LINE
  5
1E3
  8
_________1
 62
     7
 10
-43.267600000000002
 20
71.169200000000004
 30
0.0
 11
-42.907200000000003
 21
70.448499999999996
 31
0.0
  0
LINE
  5
1E4
  8
_________1
 62
     7
 10
-42.907200000000003
 20
70.448499999999996
 30
0.0
 11
-42.366300000000003
 21
70.087100000000007
 31
0.0
  0
LINE
  5
1E5
  8
_________1
 62
     7
 10
-42.366300000000003
 20
70.087100000000007
 30
0.0
 11
-41.915700000000001
 21
70.087100000000007
 31
0.0
  0
LINE
  5
1E6
  8
_________1
 62
     7
 10
-41.915700000000001
 20
70.087100000000007
 30
0.0
 11
-41.3748
 21
70.448499999999996
 31
0.0
  0
LINE
  5
1E7
  8
_________1
 62
     7
 10
-41.3748
 20
70.448499999999996
 30
0.0
 11
-41.015199999999993
 21
71.169200000000004
 31
0.0
  0
LINE
  5
1E8
  8
_________1
 62
     7
 10
-41.015199999999993
 20
71.169200000000004
 30
0.0
 11
-40.835299999999989
 21
72.070099999999996
 31
0.0
  0
LINE
  5
1E9
  8
_________1
 62
     7
 10
-40.835299999999989
 20
72.070099999999996
 30
0.0
 11
-40.835299999999989
 21
72.971000000000004
 31
0.0
  0
LINE
  5
1EA
  8
_________1
 62
     7
 10
-40.835299999999989
 20
72.971000000000004
 30
0.0
 11
-41.015199999999993
 21
73.872600000000006
 31
0.0
  0
LINE
  5
1EB
  8
_________1
 62
     7
 10
-41.015199999999993
 20
73.872600000000006
 30
0.0
 11
-41.3748
 21
74.593699999999984
 31
0.0
  0
LINE
  5
1EC
  8
_________1
 62
     7
 10
-41.3748
 20
74.593699999999984
 30
0.0
 11
-41.915700000000001
 21
74.953000000000003
 31
0.0
  0
LINE
  5
1ED
  8
_________1
 62
     7
 10
-41.915700000000001
 20
74.953000000000003
 30
0.0
 11
-42.366300000000003
 21
74.953000000000003
 31
0.0
  0
LINE
  5
1EE
  8
_________1
 62
     7
 10
-42.366300000000003
 20
74.953000000000003
 30
0.0
 11
-42.907200000000003
 21
74.593699999999984
 31
0.0
  0
LINE
  5
1EF
  8
_________1
 62
     7
 10
-42.907200000000003
 20
74.593699999999984
 30
0.0
 11
-43.267600000000002
 21
73.872600000000006
 31
0.0
  0
LINE
  5
1F0
  8
_________1
 62
     7
 10
-43.267600000000002
 20
73.872600000000006
 30
0.0
 11
-43.447400000000002
 21
72.971000000000004
 31
0.0
  0
LINE
  5
1F1
  8
_________1
 62
     7
 10
-32.546399999999998
 20
96.101900000000015
 30
0.0
 11
-32.546399999999998
 21
84.706500000000005
 31
0.0
  0
LINE
  5
1F2
  8
_________1
 62
     7
 10
-32.546399999999998
 20
96.101900000000015
 30
0.0
 11
-32.005499999999998
 21
96.642799999999994
 31
0.0
  0
LINE
  5
1F3
  8
_________1
 62
     7
 10
-41.825400000000002
 20
96.101900000000015
 30
0.0
 11
-42.366300000000003
 21
96.642799999999994
 31
0.0
  0
LINE
  5
1F4
  8
_________1
 62
     7
 10
-41.825400000000002
 20
84.706500000000005
 30
0.0
 11
-41.825400000000002
 21
96.101900000000015
 31
0.0
  0
LINE
  5
1F5
  8
_________1
 62
     7
 10
-32.546399999999998
 20
79.301100000000005
 30
0.0
 11
-32.546399999999998
 21
75.494900000000001
 31
0.0
  0
LINE
  5
1F6
  8
_________1
 62
     7
 10
-32.0944
 20
79.211500000000001
 30
0.0
 11
-32.0944
 21
75.494900000000001
 31
0.0
  0
LINE
  5
1F7
  8
_________1
 62
     7
 10
-41.825400000000002
 20
75.494900000000001
 30
0.0
 11
-41.825400000000002
 21
79.301100000000005
 31
0.0
  0
LINE
  5
1F8
  8
_________1
 62
     7
 10
-42.366300000000003
 20
75.494900000000001
 30
0.0
 11
-42.366300000000003
 21
79.211500000000001
 31
0.0
  0
ARC
  5
1F9
  8
_________1
 62
     7
 10
-38.052728999999999
 20
72.461740000000006
 30
0.0
 40
5.5713239999999988
 50
147.014443
 51
191.466036
  0
ARC
  5
1FA
  8
_________1
 62
     7
 10
-38.121671999999997
 20
72.477868999999998
 30
0.0
 40
5.5070420000000002
 50
191.77308099999999
 51
213.27154899999999
  0
LINE
  5
1FB
  8
_________1
 62
     7
 10
-42.725999999999999
 20
69.456699999999984
 30
0.0
 11
-31.644400000000001
 21
69.456699999999984
 31
0.0
  0
ARC
  5
1FC
  8
_________1
 62
     7
 10
-36.942566999999997
 20
72.487606
 30
0.0
 40
6.1038350000000001
 50
330.22709900000001
 51
14.607381
  0
ARC
  5
1FD
  8
_________1
 62
     7
 10
-36.910153000000001
 20
72.452448000000004
 30
0.0
 40
6.0814820000000003
 50
15.004929000000001
 51
30.018844999999999
  0
LINE
  5
1FE
  8
_________1
 62
     7
 10
-31.644400000000001
 20
75.494900000000001
 30
0.0
 11
-42.725999999999999
 21
75.494900000000001
 31
0.0
  0
LINE
  5
1FF
  8
_________1
 62
     7
 10
-32.0944
 20
84.706500000000005
 30
0.0
 11
-32.0944
 21
98.805599999999998
 31
0.0
  0
LINE
  5
200
  8
_________1
 62
     7
 10
-42.366300000000003
 20
84.706500000000005
 30
0.0
 11
-42.366300000000003
 21
98.805599999999998
 31
0.0
  0
ARC
  5
201
  8
_________1
 62
     7
 10
-42.468146999999988
 20
81.290107000000006
 30
0.0
 40
2.066692999999999
 50
308.02725199999998
 51
322.1918609999999
  0
ARC
  5
202
  8
_________1
 62
     7
 10
-42.508962999999987
 20
81.353191000000024
 30
0.0
 40
2.1415399999999991
 50
263.367389
 51
307.84770600000002
  0
ARC
  5
203
  8
_________1
 62
     7
 10
-42.485734000000001
 20
81.353903000000003
 30
0.0
 40
2.145054
 50
218.342906
 51
262.75326699999999
  0
LINE
  5
204
  8
_________1
 62
     7
 10
-44.168100000000003
 20
80.023200000000003
 30
0.0
 11
-44.168100000000003
 21
82.365899999999996
 31
0.0
  0
LINE
  5
205
  8
_________1
 62
     7
 10
-44.168100000000003
 20
82.365899999999996
 30
0.0
 11
-30.203700000000001
 21
82.365899999999996
 31
0.0
  0
LINE
  5
206
  8
_________1
 62
     7
 10
-30.203700000000001
 20
82.365899999999996
 30
0.0
 11
-30.203700000000001
 21
80.023200000000003
 31
0.0
  0
ARC
  5
207
  8
_________1
 62
     7
 10
-31.857118
 20
81.359234000000015
 30
0.0
 40
2.1257609999999998
 50
309.19395400000002
 51
321.06013899999999
  0
ARC
  5
208
  8
_________1
 62
     7
 10
-31.924392999999998
 20
81.452775000000003
 30
0.0
 40
2.2407819999999989
 50
264.62409100000002
 51
309.01562999999999
  0
ARC
  5
209
  8
_________1
 62
     7
 10
-31.913824999999999
 20
81.421485000000004
 30
0.0
 40
2.210659999999999
 50
219.236783
 51
264.275419
  0
LINE
  5
20A
  8
_________1
 62
     7
 10
-40.835299999999989
 20
82.365899999999996
 30
0.0
 11
-40.835299999999989
 21
80.023200000000003
 31
0.0
  0
ARC
  5
20B
  8
_________1
 62
     7
 10
-37.224053000000012
 20
87.739803000000009
 30
0.0
 40
8.5198280000000004
 50
244.92109600000001
 51
289.33942100000002
  0
ARC
  5
20C
  8
_________1
 62
     7
 10
-37.361849999999997
 20
87.923178000000007
 30
0.0
 40
8.7387630000000005
 50
289.79376000000002
 51
295.30874
  0
LINE
  5
20D
  8
_________1
 62
     7
 10
-33.626100000000001
 20
80.023200000000003
 30
0.0
 11
-33.626100000000001
 21
82.365899999999996
 31
0.0
  0
LINE
  5
20E
  8
_________1
 62
     7
 10
-32.0944
 20
96.101900000000015
 30
0.0
 11
-42.366300000000003
 21
96.101900000000015
 31
0.0
  0
LINE
  5
20F
  8
_________1
 62
     7
 10
-46.692
 20
84.706500000000005
 30
0.0
 11
-46.692
 21
83.446299999999994
 31
0.0
  0
LINE
  5
210
  8
_________1
 62
     7
 10
-46.692
 20
83.446299999999994
 30
0.0
 11
-27.6798
 21
83.446299999999994
 31
0.0
  0
LINE
  5
211
  8
_________1
 62
     7
 10
-27.6798
 20
83.446299999999994
 30
0.0
 11
-27.6798
 21
84.706500000000005
 31
0.0
  0
LINE
  5
212
  8
_________1
 62
     7
 10
-27.6798
 20
84.706500000000005
 30
0.0
 11
-46.692
 21
84.706500000000005
 31
0.0
  0
LINE
  5
213
  8
_________1
 62
     7
 10
-46.692
 20
99.706900000000005
 30
0.0
 11
-46.692
 21
98.805599999999998
 31
0.0
  0
LINE
  5
214
  8
_________1
 62
     7
 10
-46.692
 20
98.805599999999998
 30
0.0
 11
-27.6798
 21
98.805599999999998
 31
0.0
  0
LINE
  5
215
  8
_________1
 62
     7
 10
-27.6798
 20
98.805599999999998
 30
0.0
 11
-27.6798
 21
99.706900000000005
 31
0.0
  0
ARC
  5
216
  8
_________1
 62
     7
 10
-37.161639000000001
 20
125.795081
 30
0.0
 40
5.3659339999999993
 50
119.659497
 51
150.36012500000001
  0
ARC
  5
217
  8
_________1
 62
     7
 10
-37.176566000000001
 20
125.739086
 30
0.0
 40
5.4073589999999987
 50
74.865651999999997
 51
119.228452
  0
ARC
  5
218
  8
_________1
 62
     7
 10
-37.22440000000001
 20
125.769049
 30
0.0
 40
5.3911939999999996
 50
29.805548000000002
 51
74.291775000000001
  0
ARC
  5
219
  8
_________1
 62
     7
 10
-37.381639
 20
123.94340099999999
 30
0.0
 40
4.6493459999999986
 50
320.24514099999999
 51
332.28490800000009
  0
ARC
  5
21A
  8
_________1
 62
     7
 10
-35.881061000000003
 20
122.911224
 30
0.0
 40
2.8404989999999999
 50
290.47047900000001
 51
316.89280200000002
  0
ARC
  5
21B
  8
_________1
 62
     7
 10
-36.365763999999999
 20
123.091075
 30
0.0
 40
3.2024879999999998
 50
269.02860699999991
 51
297.48691000000002
  0
ARC
  5
21C
  8
_________1
 62
     7
 10
-37.231037999999998
 20
123.502405
 30
0.0
 40
3.7032479999999999
 50
257.35019199999999
 51
282.64982800000001
  0
ARC
  5
21D
  8
_________1
 62
     7
 10
-38.006410000000002
 20
123.086287
 30
0.0
 40
3.197438
 50
242.50115
 51
269.36192199999999
  0
ARC
  5
21E
  8
_________1
 62
     7
 10
-39.115161000000001
 20
121.97501699999999
 30
0.0
 40
1.763657
 50
214.73470699999999
 51
257.96944300000001
  0
ARC
  5
21F
  8
_________1
 62
     7
 10
-40.415577999999996
 20
121.213205
 30
0.0
 40
0.285089
 50
232.621386
 51
238.500663
  0
ARC
  5
220
  8
_________1
 62
     7
 10
-39.868653999999999
 20
122.020297
 30
0.0
 40
1.2596810000000001
 50
190.94594000000001
 51
235.14024599999999
  0
ARC
  5
221
  8
_________1
 62
     7
 10
-40.194333999999998
 20
122.20305999999999
 30
0.0
 40
1.004051
 50
199.54042999999999
 51
204.85052400000001
  0
ARC
  5
222
  8
_________1
 62
     7
 10
-40.241148999999993
 20
122.186909
 30
0.0
 40
0.9545299999999999
 50
154.88235499999999
 51
199.566697
  0
ARC
  5
223
  8
_________1
 62
     7
 10
-38.926454999999997
 20
121.72469
 30
0.0
 40
2.3452609999999998
 50
134.30380099999999
 51
158.293567
  0
ARC
  5
224
  8
_________1
 62
     7
 10
-38.874747999999997
 20
121.746956
 30
0.0
 40
2.3660259999999989
 50
104.890851
 51
135.576605
  0
ARC
  5
225
  8
_________1
 62
     7
 10
-36.806735000000003
 20
118.016002
 30
0.0
 40
6.5857199999999994
 50
100.810997
 51
113.975022
  0
ARC
  5
226
  8
_________1
 62
     7
 10
-37.231037999999998
 20
120.826521
 30
0.0
 40
3.747123999999999
 50
77.500703000000001
 51
102.49927700000001
  0
ARC
  5
227
  8
_________1
 62
     7
 10
-37.266731
 20
118.782814
 30
0.0
 40
5.7645369999999998
 50
65.625022000000001
 51
81.55404200000001
  0
ARC
  5
228
  8
_________1
 62
     7
 10
-36.863076999999997
 20
119.407404
 30
0.0
 40
5.0302300000000004
 50
52.592010000000002
 51
66.876928000000007
  0
ARC
  5
229
  8
_________1
 62
     7
 10
-29.467086999999999
 20
125.715125
 30
0.0
 40
4.9176109999999991
 50
208.044623
 51
219.42536699999999
  0
LINE
  5
22A
  8
_________1
 62
     7
 10
-33.265700000000002
 20
122.592
 30
0.0
 11
-33.265700000000002
 21
121.78100000000001
 31
0.0
  0
ARC
  5
22B
  8
_________1
 62
     7
 10
-40.963054
 20
122.00711200000001
 30
0.0
 40
0.872901
 50
171.10030399999999
 51
207.70595900000001
  0
ARC
  5
22C
  8
_________1
 62
     7
 10
-38.241743999999997
 20
122.726597
 30
0.0
 40
3.6708720000000001
 50
197.85180399999999
 51
218.72964099999999
  0
ARC
  5
22D
  8
_________1
 62
     7
 10
-37.820430999999999
 20
124.36956499999999
 30
0.0
 40
5.1295080000000004
 50
230.17765399999999
 51
247.86051
  0
ARC
  5
22E
  8
_________1
 62
     7
 10
-36.748595999999999
 20
127.30024299999999
 30
0.0
 40
8.2487949999999994
 50
248.63609100000011
 51
260.34334100000001
  0
ARC
  5
22F
  8
_________1
 62
     7
 10
-37.231382000000011
 20
123.65508199999999
 30
0.0
 40
4.5763059999999989
 50
258.64652699999999
 51
281.35349300000001
  0
ARC
  5
230
  8
_________1
 62
     7
 10
-37.269927000000003
 20
126.230363
 30
0.0
 40
7.1242460000000003
 50
277.57742200000001
 51
291.857529
  0
ARC
  5
231
  8
_________1
 62
     7
 10
-35.726527000000011
 20
122.73026299999999
 30
0.0
 40
3.3036849999999989
 50
289.613426
 51
315.86968400000001
  0
ARC
  5
232
  8
_________1
 62
     7
 10
-34.981153000000013
 20
122.23495699999999
 30
0.0
 40
2.4293169999999988
 50
312.01085000000012
 51
344.87951700000002
  0
ARC
  5
233
  8
_________1
 62
     7
 10
-33.398059000000003
 20
122.00534
 30
0.0
 40
0.862611
 50
332.06782199999998
 51
9.1259149999999991
  0
LINE
  5
234
  8
_________1
 62
     7
 10
-41.825400000000002
 20
122.142
 30
0.0
 11
-41.825400000000002
 21
132.41300000000001
 31
0.0
  0
ARC
  5
235
  8
_________1
 62
     7
 10
-37.153022999999997
 20
132.16973400000001
 30
0.0
 40
4.6787380000000001
 50
137.99975900000001
 51
177.0228239999999
  0
ARC
  5
236
  8
_________1
 62
     7
 10
-37.161572
 20
132.13079999999999
 30
0.0
 40
4.6985650000000003
 50
93.100373000000005
 51
137.57717
  0
ARC
  5
237
  8
_________1
 62
     7
 10
-37.205055999999999
 20
132.126766
 30
0.0
 40
4.700442999999999
 50
48.117927000000002
 51
92.568434999999994
  0
ARC
  5
238
  8
_________1
 62
     7
 10
-37.240588000000002
 20
132.15803099999999
 30
0.0
 40
4.7011250000000002
 50
3.105801
 51
47.541122000000001
  0
LINE
  5
239
  8
_________1
 62
     7
 10
-32.546399999999998
 20
132.41300000000001
 30
0.0
 11
-32.546399999999998
 21
122.142
 31
0.0
  0
ARC
  5
23A
  8
_________1
 62
     7
 10
-33.533859999999997
 20
122.323446
 30
0.0
 40
1.003995999999999
 50
349.59701999999999
 51
26.575507999999999
  0
ARC
  5
23B
  8
_________1
 62
     7
 10
-34.361317999999997
 20
122.404419
 30
0.0
 40
1.764225999999999
 50
12.046109
 51
55.232833999999997
  0
ARC
  5
23C
  8
_________1
 62
     7
 10
-35.355916000000001
 20
122.38437500000001
 30
0.0
 40
2.482221
 50
36.294435
 51
72.695309999999992
  0
ARC
  5
23D
  8
_________1
 62
     7
 10
-37.249305999999997
 20
118.231324
 30
0.0
 40
7.0338099999999999
 50
68.027904000000007
 51
82.494029999999995
  0
LINE
  5
23E
  8
_________1
 62
     7
 10
-36.330500000000001
 20
125.205
 30
0.0
 11
-38.132300000000001
 21
125.205
 31
0.0
  0
ARC
  5
23F
  8
_________1
 62
     7
 10
-36.77694000000001
 20
117.186673
 30
0.0
 40
8.1319320000000008
 50
99.594189999999998
 51
111.47159000000001
  0
ARC
  5
240
  8
_________1
 62
     7
 10
-38.618776000000011
 20
121.585823
 30
0.0
 40
3.3655010000000001
 50
109.7051
 51
137.63456400000001
  0
ARC
  5
241
  8
_________1
 62
     7
 10
-39.436704999999989
 20
122.156167
 30
0.0
 40
2.3803730000000001
 50
134.50964099999999
 51
164.99107599999999
  0
ARC
  5
242
  8
_________1
 62
     7
 10
-40.821697999999991
 20
122.321136
 30
0.0
 40
1.019580999999999
 50
153.71707699999999
 51
190.1103949999999
  0
LINE
  5
243
  8
_________1
 62
     7
 10
-34.707799999999999
 20
156.38
 30
0.0
 11
-39.753599999999999
 21
156.38
 31
0.0
  0
LINE
  5
244
  8
_________1
 62
     7
 10
-39.753599999999999
 20
158.09200000000001
 30
0.0
 11
-39.753599999999999
 21
148.45099999999999
 31
0.0
  0
LINE
  5
245
  8
_________1
 62
     7
 10
-39.753599999999999
 20
148.45099999999999
 30
0.0
 11
-34.707799999999999
 21
148.45099999999999
 31
0.0
  0
LINE
  5
246
  8
_________1
 62
     7
 10
-34.707799999999999
 20
148.45099999999999
 30
0.0
 11
-34.707799999999999
 21
158.09200000000001
 31
0.0
  0
LINE
  5
247
  8
_________1
 62
     7
 10
-27.5
 20
158.09200000000001
 30
0.0
 11
-46.962099999999992
 21
158.09200000000001
 31
0.0
  0
LINE
  5
248
  8
_________1
 62
     7
 10
-47.954700000000003
 20
102.14
 30
0.0
 11
-47.75719999999999
 21
102.14
 31
0.0
  0
ARC
  5
249
  8
_________1
 62
     7
 10
-47.779833000000004
 20
103.069204
 30
0.0
 40
0.9296749999999999
 50
271.39199600000001
 51
316.31859600000001
  0
ARC
  5
24A
  8
_________1
 62
     7
 10
-47.799672999999999
 20
103.07280900000001
 30
0.0
 40
0.946578
 50
316.990208
 51
1.038578
  0
LINE
  5
24B
  8
_________1
 62
     7
 10
-46.85329999999999
 20
103.09
 30
0.0
 11
-46.855999999999987
 21
103.13
 31
0.0
  0
LINE
  5
24C
  8
_________1
 62
     7
 10
-46.855999999999987
 20
103.13
 30
0.0
 11
-46.855999999999987
 21
152.25999999999999
 31
0.0
  0
LINE
  5
24D
  8
_________1
 62
     7
 10
-46.855999999999987
 20
152.25999999999999
 30
0.0
 11
-46.855999999999987
 21
162.95699999999999
 31
0.0
  0
LINE
  5
24E
  8
_________1
 62
     7
 10
-46.855999999999987
 20
162.95699999999999
 30
0.0
 11
-27.606100000000001
 21
162.95699999999999
 31
0.0
  0
LINE
  5
24F
  8
_________1
 62
     7
 10
-27.606100000000001
 20
162.95699999999999
 30
0.0
 11
-27.606100000000001
 21
152.43600000000001
 31
0.0
  0
LINE
  5
250
  8
_________1
 62
     7
 10
-27.606100000000001
 20
152.43600000000001
 30
0.0
 11
-27.606100000000001
 21
103.13
 31
0.0
  0
ARC
  5
251
  8
_________1
 62
     7
 10
-26.663115999999999
 20
103.07082
 30
0.0
 40
0.944804
 50
176.41304
 51
220.70223100000001
  0
ARC
  5
252
  8
_________1
 62
     7
 10
-26.672993999999999
 20
103.082302
 30
0.0
 40
0.9449249999999999
 50
221.62070099999991
 51
265.893824
  0
LINE
  5
253
  8
_________1
 62
     7
 10
-26.7407
 20
102.14
 30
0.0
 11
-26.614599999999999
 21
102.14
 31
0.0
  0
LINE
  5
254
  8
_________1
 62
     7
 10
-26.614599999999999
 20
102.14
 30
0.0
 11
-26.416799999999999
 21
102.14
 31
0.0
  0
LINE
  5
255
  8
_________1
 62
     7
 10
-48.060400000000001
 20
99.706900000000005
 30
0.0
 11
-48.060400000000001
 21
102.14
 31
0.0
  0
LINE
  5
256
  8
_________1
 62
     7
 10
-48.060400000000001
 20
102.14
 30
0.0
 11
-26.310700000000001
 21
102.14
 31
0.0
  0
LINE
  5
257
  8
_________1
 62
     7
 10
-26.310700000000001
 20
102.14
 30
0.0
 11
-26.310700000000001
 21
99.706900000000005
 31
0.0
  0
LINE
  5
258
  8
_________1
 62
     7
 10
-26.310700000000001
 20
99.706900000000005
 30
0.0
 11
-48.060400000000001
 21
99.706900000000005
 31
0.0
  0
ARC
  5
259
  8
_________1
 62
     7
 10
-37.259970000000003
 20
152.492774
 30
0.0
 40
2.552166999999999
 50
0.282343
 51
44.740358000000001
  0
ARC
  5
25A
  8
_________1
 62
     7
 10
-37.244745999999999
 20
152.473715
 30
0.0
 40
2.554883999999999
 50
45.284278999999998
 51
89.661668999999989
  0
ARC
  5
25B
  8
_________1
 62
     7
 10
-37.216265
 20
152.47277
 30
0.0
 40
2.5558190000000001
 50
90.300259999999994
 51
134.706772
  0
ARC
  5
25C
  8
_________1
 62
     7
 10
-37.203051000000002
 20
152.49345099999999
 30
0.0
 40
2.5505299999999989
 50
135.24458999999999
 51
179.73266799999999
  0
ARC
  5
25D
  8
_________1
 62
     7
 10
-37.203171000000012
 20
152.51789400000001
 30
0.0
 40
2.5504129999999998
 50
180.281811
 51
224.75658999999999
  0
ARC
  5
25E
  8
_________1
 62
     7
 10
-37.216788000000001
 20
152.53497999999999
 30
0.0
 40
2.552865999999999
 50
225.24409
 51
269.71111999999999
  0
ARC
  5
25F
  8
_________1
 62
     7
 10
-37.243119
 20
152.53137799999999
 30
0.0
 40
2.5492669999999991
 50
270.30252200000001
 51
314.78931799999998
  0
ARC
  5
260
  8
_________1
 62
     7
 10
-37.253901999999997
 20
152.51610500000001
 30
0.0
 40
2.5460899999999991
 50
315.20365399999997
 51
359.75798400000002
  0
INSERT
  5
261
  8
_________1
 62
     7
  2
AIGNBL0201000D
 10
0.0
 20
0.0
 30
0.0
  0
LINE
  5
262
  8
_________2
 62
     7
 10
255.34700000000001
 20
280.15800000000002
 30
0.0
 11
255.34700000000001
 21
259.15800000000002
 31
0.0
  0
LINE
  5
263
  8
_________2
 62
     7
 10
277.18900000000002
 20
280.15800000000002
 30
0.0
 11
277.18900000000002
 21
259.15800000000002
 31
0.0
  0
TEXT
  5
264
  8
_________2
 62
     7
 10
281.22474533333332
 20
261.30900000000003
 30
0.0
 40
3.3734599999999988
  1
ブラック
 41
0.5
 72
     1
 11
285.048
 21
261.30900000000003
 31
0.0
  0
TEXT
  5
265
  8
_________2
 62
     7
 10
282.12433466666658
 20
268.30900000000003
 30
0.0
 40
3.3734599999999988
  1
クロム
 41
0.5
 72
     1
 11
285.048
 21
268.30900000000003
 31
0.0
  0
TEXT
  5
266
  8
_________2
 62
     7
 10
283.24882133333341
 20
275.30900000000003
 30
0.0
 40
3.3734599999999988
  1
仕上
 41
0.5
 72
     1
 11
285.048
 21
275.30900000000003
 31
0.0
  0
TEXT
  5
267
  8
_________2
 62
     7
 10
257.67635000000001
 20
261.30900000000003
 30
0.0
 40
3.3734599999999988
  1
CET6100T-BL
 41
0.5
 72
     1
 11
266.11000000000001
 21
261.30900000000003
 31
0.0
  0
TEXT
  5
268
  8
_________2
 62
     7
 10
260.20644499999997
 20
268.30900000000003
 30
0.0
 40
3.3734599999999988
  1
CET6100T
 41
0.5
 72
     1
 11
266.11000000000001
 21
268.30900000000003
 31
0.0
  0
TEXT
  5
269
  8
_________2
 62
     7
 10
264.31082133333342
 20
275.30900000000003
 30
0.0
 40
3.3734599999999988
  1
品番
 41
0.5
 72
     1
 11
266.11000000000001
 21
275.30900000000003
 31
0.0
  0
LINE
  5
26A
  8
_________2
 62
     7
 10
255.34700000000001
 20
259.15800000000002
 30
0.0
 11
293.459
 21
259.15800000000002
 31
0.0
  0
LINE
  5
26B
  8
_________2
 62
     7
 10
255.34700000000001
 20
266.15800000000002
 30
0.0
 11
293.459
 21
266.15800000000002
 31
0.0
  0
LINE
  5
26C
  8
_________2
 62
     7
 10
255.34700000000001
 20
273.15800000000002
 30
0.0
 11
293.459
 21
273.15800000000002
 31
0.0
  0
TEXT
  5
26D
  8
_________2
 62
     7
 10
169.50999999999999
 20
85.297300000000007
 30
0.0
 40
3.9357000000000002
  1
※流量が多すぎる場合は止水栓にて調整してください。
 41
0.5
  0
TEXT
  5
26E
  8
_________2
 62
     7
 10
169.50999999999999
 20
91.377600000000001
 30
0.0
 40
3.9357000000000002
  1
0.75MPa（静水圧）
 41
0.5
  0
TEXT
  5
26F
  8
_________2
 62
     7
 10
169.50999999999999
 20
63.960700000000003
 30
0.0
 40
3.9357000000000002
  1
※寒冷地仕様ではありません、凍結が予想される場合は凍結予防をしてください。
 41
0.5
  0
TEXT
  5
270
  8
_________2
 62
     7
 10
169.50999999999999
 20
70.040999999999997
 30
0.0
 40
3.9357000000000002
  1
1～40℃
 41
0.5
  0
TEXT
  5
271
  8
_________2
 62
     7
 10
219.08699999999999
 20
46.884300000000003
 30
0.0
 40
3.9357000000000002
  1
セラオリジナルコレクション　立水栓
 41
0.5
  0
TEXT
  5
272
  8
_________2
 62
     7
 10
219.08699999999999
 20
41.964599999999997
 30
0.0
 40
3.9357000000000002
  1
（レバーハンドル）
 41
0.5
  0
TEXT
  5
273
  8
_________2
 62
     7
 10
200.4570586666666
 20
34.465299999999999
 30
0.0
 40
3.6545800000000002
  1
1 ： 2
 41
0.5
 72
     1
 11
203.86799999999999
 21
34.465299999999999
 31
0.0
  0
TEXT
  5
274
  8
_________2
 62
     7
 10
246.570525
 20
30.3553
 30
0.0
 40
3.9357000000000002
  1
図中の表参照
 41
0.5
 72
     1
 11
253.458
 21
30.3553
 31
0.0
  0
TEXT
  5
275
  8
_________2
 62
     7
 10
149.3328003333333
 20
34.850499999999997
 30
0.0
 40
3.6545800000000002
  1
井田
 41
0.5
 72
     1
 11
151.221
 21
34.850499999999997
 31
0.0
  0
TEXT
  5
276
  8
_________2
 62
     7
 10
130.69789066666669
 20
34.850499999999997
 30
0.0
 40
3.6545800000000002
  1
恋塚
 41
0.5
 72
     1
 11
132.64699999999999
 21
34.850499999999997
 31
0.0
  0
TEXT
  5
277
  8
_________2
 62
     7
 10
177.69399999999999
 20
34.465299999999999
 30
0.0
 40
3.6545800000000002
  1
19.11.11
 41
0.5
  0
TEXT
  5
278
  8
_________2
 62
     7
 10
290.64778333333328
 20
12.808299999999999
 30
0.0
 40
3.3734599999999988
  1
A3
 41
0.5
 72
     2
 11
293.459
 21
12.808299999999999
 31
0.0
  0
TEXT
  5
279
  8
_________2
 62
     7
 10
134.495
 20
21.954699999999999
 30
0.0
 40
3.9357000000000002
  1
（JIS）
 41
0.5
  0
LINE
  5
27A
  8
_________2
 62
     7
 10
315.209
 20
148.65899999999999
 30
0.0
 11
293.459
 21
148.65899999999999
 31
0.0
  0
LINE
  5
27B
  8
_________2
 62
     7
 10
105.20699999999999
 20
17.156300000000002
 30
0.0
 11
105.20699999999999
 21
0.176045
 31
0.0
  0
LINE
  5
27C
  8
_________2
 62
     7
 10
105.20699999999999
 20
297.178
 30
0.0
 11
105.20699999999999
 21
280.15800000000002
 31
0.0
  0
LINE
  5
27D
  8
_________2
 62
     7
 10
-83.043899999999994
 20
148.65899999999999
 30
0.0
 11
-104.794
 21
148.65899999999999
 31
0.0
  0
INSERT
  5
27E
  8
_________2
 62
     7
  2
AIGNBL03010002
 10
0.0
 20
0.0
 30
0.0
  0
TEXT
  5
27F
  8
_________2
 62
     7
 10
214.51300000000001
 20
22.9269
 30
0.0
 40
3.0923400000000001
  1
図番
 41
0.5
  0
LINE
  5
280
  8
_________2
 62
     7
 10
213.458
 20
27.156099999999999
 30
0.0
 11
293.459
 21
27.156099999999999
 31
0.0
  0
TEXT
  5
281
  8
_________2
 62
     7
 10
214.51300000000001
 20
32.926699999999997
 30
0.0
 40
3.0923400000000001
  1
品番
 41
0.5
  0
TEXT
  5
282
  8
_________2
 62
     7
 10
214.51300000000001
 20
53.0655
 30
0.0
 40
3.0923400000000001
  1
名称
 41
0.5
  0
TEXT
  5
283
  8
_________2
 62
     7
 10
201.75325833333329
 20
48.069400000000002
 30
0.0
 40
3.6545800000000002
  1
mm
 41
0.5
 72
     1
 11
203.27600000000001
 21
48.069400000000002
 31
0.0
  0
TEXT
  5
284
  8
_________2
 62
     7
 10
195.55099999999999
 20
53.0655
 30
0.0
 40
3.0923400000000001
  1
単位
 41
0.5
  0
TEXT
  5
285
  8
_________2
 62
     7
 10
195.55099999999999
 20
40.658200000000001
 30
0.0
 40
3.0923400000000001
  1
尺度
 41
0.5
  0
TEXT
  5
286
  8
_________2
 62
     7
 10
246.570525
 20
20.354800000000001
 30
0.0
 40
3.9357000000000002
  1
CET6100T
 41
0.5
 72
     1
 11
253.458
 21
20.354800000000001
 31
0.0
  0
TEXT
  5
287
  8
_________2
 62
     7
 10
129.49600000000001
 20
98.999600000000001
 30
0.0
 40
3.9357000000000002
  1
給水圧力
 41
0.5
  0
TEXT
  5
288
  8
_________2
 62
     7
 10
129.49600000000001
 20
106.762
 30
0.0
 40
3.9357000000000002
  1
用途
 41
0.5
  0
TEXT
  5
289
  8
_________2
 62
     7
 10
169.50999999999999
 20
106.762
 30
0.0
 40
3.9357000000000002
  1
一般住宅用（屋内用）
 41
0.5
  0
LINE
  5
28A
  8
_________2
 62
     7
 10
145.64099999999999
 20
104.654
 30
0.0
 11
145.64099999999999
 21
83.317400000000006
 31
0.0
  0
LINE
  5
28B
  8
_________2
 62
     7
 10
166.97200000000001
 20
112.417
 30
0.0
 11
166.97200000000001
 21
61.980800000000002
 31
0.0
  0
LINE
  5
28C
  8
_________2
 62
     7
 10
290.16199999999998
 20
112.417
 30
0.0
 11
126.95699999999999
 21
112.417
 31
0.0
  0
LINE
  5
28D
  8
_________2
 62
     7
 10
126.95699999999999
 20
112.417
 30
0.0
 11
126.95699999999999
 21
61.980800000000002
 31
0.0
  0
LINE
  5
28E
  8
_________2
 62
     7
 10
126.95699999999999
 20
61.980800000000002
 30
0.0
 11
290.16199999999998
 21
61.980800000000002
 31
0.0
  0
LINE
  5
28F
  8
_________2
 62
     7
 10
290.16199999999998
 20
61.980800000000002
 30
0.0
 11
290.16199999999998
 21
112.417
 31
0.0
  0
TEXT
  5
290
  8
_________2
 62
     7
 10
147.41499999999999
 20
98.999600000000001
 30
0.0
 40
3.9357000000000002
  1
最低必要水圧
 41
0.5
  0
TEXT
  5
291
  8
_________2
 62
     7
 10
169.50999999999999
 20
98.999600000000001
 30
0.0
 40
3.9357000000000002
  1
0.05MPa（流動圧）
 41
0.5
  0
LINE
  5
292
  8
_________2
 62
     7
 10
126.95699999999999
 20
104.654
 30
0.0
 11
290.16199999999998
 21
104.654
 31
0.0
  0
TEXT
  5
293
  8
_________2
 62
     7
 10
129.49600000000001
 20
77.662899999999993
 30
0.0
 40
3.9357000000000002
  1
使用可能水質
 41
0.5
  0
TEXT
  5
294
  8
_________2
 62
     7
 10
169.50999999999999
 20
77.662899999999993
 30
0.0
 40
3.9357000000000002
  1
水道水
 41
0.5
  0
LINE
  5
295
  8
_________2
 62
     7
 10
126.95699999999999
 20
83.317400000000006
 30
0.0
 11
290.16199999999998
 21
83.317400000000006
 31
0.0
  0
TEXT
  5
296
  8
_________2
 62
     7
 10
147.41499999999999
 20
91.377600000000001
 30
0.0
 40
3.9357000000000002
  1
最高水圧
 41
0.5
  0
LINE
  5
297
  8
_________2
 62
     7
 10
145.64099999999999
 20
96.891499999999994
 30
0.0
 11
290.16199999999998
 21
96.891499999999994
 31
0.0
  0
TEXT
  5
298
  8
_________2
 62
     7
 10
129.49600000000001
 20
70.040999999999997
 30
0.0
 40
3.9357000000000002
  1
使用環境温度
 41
0.5
  0
LINE
  5
299
  8
_________2
 62
     7
 10
126.95699999999999
 20
75.554900000000004
 30
0.0
 11
290.16199999999998
 21
75.554900000000004
 31
0.0
  0
TEXT
  5
29A
  8
_________2
 62
     7
 10
176.501
 20
40.658200000000001
 30
0.0
 40
3.0923400000000001
  1
日付
 41
0.5
  0
TEXT
  5
29B
  8
_________2
 62
     7
 10
139.547
 20
40.658200000000001
 30
0.0
 40
3.0923400000000001
  1
検図
 41
0.5
  0
TEXT
  5
29C
  8
_________2
 62
     7
 10
127.929
 20
26.4588
 30
0.0
 40
3.0923400000000001
  1
備考
 41
0.5
  0
TEXT
  5
29D
  8
_________2
 62
     7
 10
127.929
 20
40.658200000000001
 30
0.0
 40
3.0923400000000001
  1
製図
 41
0.5
  0
TEXT
  5
29E
  8
_________2
 62
     7
 10
133.69596533333331
 20
49.184199999999997
 30
0.0
 40
4.4979399999999989
  1
セラトレーディング株式会社
 41
0.5
 72
     1
 11
151.08799999999999
 21
49.184199999999997
 31
0.0
  0
LINE
  5
29F
  8
_________2
 62
     7
 10
293.459
 20
17.156300000000002
 30
0.0
 11
-83.043899999999994
 21
17.156300000000002
 31
0.0
  0
LINE
  5
2A0
  8
_________2
 62
     7
 10
-83.043899999999994
 20
17.156300000000002
 30
0.0
 11
-83.043899999999994
 21
280.15800000000002
 31
0.0
  0
LINE
  5
2A1
  8
_________2
 62
     7
 10
-83.043899999999994
 20
280.15800000000002
 30
0.0
 11
293.459
 21
280.15800000000002
 31
0.0
  0
LINE
  5
2A2
  8
_________2
 62
     7
 10
293.459
 20
280.15800000000002
 30
0.0
 11
293.459
 21
17.156300000000002
 31
0.0
  0
LINE
  5
2A3
  8
_________2
 62
     7
 10
175.458
 20
30.656400000000001
 30
0.0
 11
175.458
 21
57.156199999999998
 31
0.0
  0
LINE
  5
2A4
  8
_________2
 62
     7
 10
194.458
 20
30.656400000000001
 30
0.0
 11
194.458
 21
57.156199999999998
 31
0.0
  0
LINE
  5
2A5
  8
_________2
 62
     7
 10
126.95699999999999
 20
17.156300000000002
 30
0.0
 11
126.95699999999999
 21
57.156199999999998
 31
0.0
  0
LINE
  5
2A6
  8
_________2
 62
     7
 10
213.458
 20
17.156300000000002
 30
0.0
 11
213.458
 21
57.156199999999998
 31
0.0
  0
LINE
  5
2A7
  8
_________2
 62
     7
 10
138.45699999999999
 20
30.656400000000001
 30
0.0
 11
138.45699999999999
 21
44.65659999999999
 31
0.0
  0
LINE
  5
2A8
  8
_________2
 62
     7
 10
126.95699999999999
 20
30.656400000000001
 30
0.0
 11
213.458
 21
30.656400000000001
 31
0.0
  0
LINE
  5
2A9
  8
_________2
 62
     7
 10
126.95699999999999
 20
44.65659999999999
 30
0.0
 11
213.458
 21
44.65659999999999
 31
0.0
  0
LINE
  5
2AA
  8
_________2
 62
     7
 10
213.458
 20
37.15590000000001
 30
0.0
 11
293.459
 21
37.15590000000001
 31
0.0
  0
LINE
  5
2AB
  8
_________2
 62
     7
 10
126.95699999999999
 20
57.156199999999998
 30
0.0
 11
293.459
 21
57.156199999999998
 31
0.0
  0
ENDSEC
  0
EOF
