  0
SECTION
  2
HEADER
  9
$ACADVER
  1
AC1009
  9
$INSBASE
 10
0.0
 20
0.0
 30
0.0
  9
$EXTMIN
 10
-4.7012099999999988
 20
-21.070999999999991
 30
0.0
  9
$EXTMAX
 10
205.30099999999999
 20
275.93099999999993
 30
0.0
  9
$LIMMIN
 10
0.0
 20
0.0
  9
$LIMMAX
 10
12.0
 20
9.0
  9
$ORTHOMODE
 70
     0
  9
$REGENMODE
 70
     1
  9
$FILLMODE
 70
     1
  9
$QTEXTMODE
 70
     0
  9
$MIRRTEXT
 70
     1
  9
$DRAGMODE
 70
     2
  9
$LTSCALE
 40
1.0
  9
$OSMODE
 70
    37
  9
$ATTMODE
 70
     1
  9
$TEXTSIZE
 40
0.0
  9
$TRACEWID
 40
0.05
  9
$TEXTSTYLE
  7
STANDARD
  9
$CLAYER
  8
0
  9
$CELTYPE
  6
CONTINUOUS
  9
$CECOLOR
 62
   256
  9
$DIMSCALE
 40
1.0
  9
$DIMASZ
 40
0.18
  9
$DIMEXO
 40
0.0625
  9
$DIMDLI
 40
0.38
  9
$DIMRND
 40
0.0
  9
$DIMDLE
 40
0.0
  9
$DIMEXE
 40
0.18
  9
$DIMTP
 40
0.0
  9
$DIMTM
 40
0.0
  9
$DIMTXT
 40
0.18
  9
$DIMCEN
 40
0.09
  9
$DIMTSZ
 40
0.0
  9
$DIMTOL
 70
     0
  9
$DIMLIM
 70
     0
  9
$DIMTIH
 70
     1
  9
$DIMTOH
 70
     1
  9
$DIMSE1
 70
     0
  9
$DIMSE2
 70
     0
  9
$DIMTAD
 70
     0
  9
$DIMZIN
 70
     0
  9
$DIMBLK
  1

  9
$DIMASO
 70
     1
  9
$DIMSHO
 70
     1
  9
$DIMPOST
  1

  9
$DIMAPOST
  1

  9
$DIMALT
 70
     0
  9
$DIMALTD
 70
     2
  9
$DIMALTF
 40
25.399999999999999
  9
$DIMLFAC
 40
1.0
  9
$DIMTOFL
 70
     0
  9
$DIMTVP
 40
0.0
  9
$DIMTIX
 70
     0
  9
$DIMSOXD
 70
     0
  9
$DIMSAH
 70
     0
  9
$DIMBLK1
  1

  9
$DIMBLK2
  1

  9
$DIMSTYLE
  2
STANDARD
  9
$DIMCLRD
 70
     0
  9
$DIMCLRE
 70
     0
  9
$DIMCLRT
 70
     0
  9
$DIMTFAC
 40
1.0
  9
$DIMGAP
 40
0.09
  9
$LUNITS
 70
     2
  9
$LUPREC
 70
     4
  9
$SKETCHINC
 40
0.1
  9
$FILLETRAD
 40
0.0
  9
$AUNITS
 70
     0
  9
$AUPREC
 70
     0
  9
$MENU
  1
.
  9
$ELEVATION
 40
0.0
  9
$PELEVATION
 40
0.0
  9
$THICKNESS
 40
0.0
  9
$LIMCHECK
 70
     0
  9
$BLIPMODE
 70
     0
  9
$CHAMFERA
 40
0.0
  9
$CHAMFERB
 40
0.0
  9
$SKPOLY
 70
     0
  9
$TDCREATE
 40
2444972.375
  9
$TDUPDATE
 40
2456675.2464487152
  9
$TDINDWG
 40
0.0000071412
  9
$TDUSRTIMER
 40
0.0000071412
  9
$USRTIMER
 70
     1
  9
$ANGBASE
 50
0.0
  9
$ANGDIR
 70
     0
  9
$PDMODE
 70
     0
  9
$PDSIZE
 40
0.0
  9
$PLINEWID
 40
0.0
  9
$COORDS
 70
     1
  9
$SPLFRAME
 70
     0
  9
$SPLINETYPE
 70
     6
  9
$SPLINESEGS
 70
     8
  9
$ATTDIA
 70
     0
  9
$ATTREQ
 70
     1
  9
$HANDLING
 70
     1
  9
$HANDSEED
  5
329
  9
$SURFTAB1
 70
     6
  9
$SURFTAB2
 70
     6
  9
$SURFTYPE
 70
     6
  9
$SURFU
 70
     6
  9
$SURFV
 70
     6
  9
$UCSNAME
  2

  9
$UCSORG
 10
0.0
 20
0.0
 30
0.0
  9
$UCSXDIR
 10
1.0
 20
0.0
 30
0.0
  9
$UCSYDIR
 10
0.0
 20
1.0
 30
0.0
  9
$PUCSNAME
  2

  9
$PUCSORG
 10
0.0
 20
0.0
 30
0.0
  9
$PUCSXDIR
 10
1.0
 20
0.0
 30
0.0
  9
$PUCSYDIR
 10
0.0
 20
1.0
 30
0.0
  9
$USERI1
 70
     0
  9
$USERI2
 70
     0
  9
$USERI3
 70
     0
  9
$USERI4
 70
     0
  9
$USERI5
 70
     0
  9
$USERR1
 40
0.0
  9
$USERR2
 40
0.0
  9
$USERR3
 40
0.0
  9
$USERR4
 40
0.0
  9
$USERR5
 40
0.0
  9
$WORLDVIEW
 70
     1
  9
$SHADEDGE
 70
     3
  9
$SHADEDIF
 70
    70
  9
$TILEMODE
 70
     1
  9
$MAXACTVP
 70
    48
  9
$PLIMCHECK
 70
     0
  9
$PEXTMIN
 10
1.0000000000000000E+020
 20
1.0000000000000000E+020
 30
1.0000000000000000E+020
  9
$PEXTMAX
 10
-1.0000000000000000E+020
 20
-1.0000000000000000E+020
 30
-1.0000000000000000E+020
  9
$PLIMMIN
 10
0.0
 20
0.0
  9
$PLIMMAX
 10
12.0
 20
9.0
  9
$UNITMODE
 70
     0
  9
$VISRETAIN
 70
     1
  9
$PLINEGEN
 70
     0
  9
$PSLTSCALE
 70
     1
  0
ENDSEC
  0
SECTION
  2
TABLES
  0
TABLE
  2
VPORT
 70
     2
  0
VPORT
  2
*ACTIVE
 70
     0
 10
0.0
 20
0.0
 11
1.0
 21
1.0
 12
202.006301769564
 22
127.42999999999989
 13
0.0
 23
0.0
 14
1.0
 24
1.0
 15
0.0
 25
0.0
 16
0.0
 26
0.0
 36
1.0
 17
0.0
 27
0.0
 37
0.0
 40
299.45318569463541
 41
2.2894736842105261
 42
50.0
 43
0.0
 44
0.0
 50
0.0
 51
0.0
 71
     0
 72
   100
 73
     1
 74
     1
 75
     0
 76
     0
 77
     0
 78
     0
  0
ENDTAB
  0
TABLE
  2
LTYPE
 70
     2
  0
LTYPE
  2
CONTINUOUS
 70
     0
  3
Solid line
 72
    65
 73
     0
 40
0.0
  0
LTYPE
  2
AIGENLINE001
 70
     0
  3
generate AI->DXF Converter
 72
    65
 73
     4
 40
5.8561449999999988
 49
3.5278
 49
-0.776115
 49
0.776115
 49
-0.776115
  0
ENDTAB
  0
TABLE
  2
LAYER
 70
     2
  0
LAYER
  2
0
 70
     0
 62
     7
  6
CONTINUOUS
  0
LAYER
  2
_________2
 70
     0
 62
     7
  6
CONTINUOUS
  0
ENDTAB
  0
TABLE
  2
STYLE
 70
     1
  0
STYLE
  2
STANDARD
 70
     0
 40
0.0
 41
0.0
 50
0.0
 71
     0
 42
0.0
  3
TXT
  4
EXTFONT.SHX
  0
ENDTAB
  0
TABLE
  2
VIEW
 70
     0
  0
ENDTAB
  0
TABLE
  2
UCS
 70
     0
  0
ENDTAB
  0
TABLE
  2
APPID
 70
     1
  0
APPID
  2
ACAD
 70
     0
  0
ENDTAB
  0
TABLE
  2
DIMSTYLE
 70
     1
  0
DIMSTYLE
  2
STANDARD
 70
     0
  3

  4

  5

  6

  7

 40
1.0
 41
0.18
 42
0.0625
 43
0.38
 44
0.18
 45
0.0
 46
0.0
 47
0.0
 48
0.0
140
0.18
141
0.09
142
0.0
143
25.399999999999999
144
1.0
145
0.0
146
1.0
147
0.09
 71
     0
 72
     0
 73
     1
 74
     1
 75
     0
 76
     0
 77
     0
 78
     0
170
     0
171
     2
172
     0
173
     0
174
     0
175
     0
176
     0
177
     0
178
     0
  0
ENDTAB
  0
ENDSEC
  0
SECTION
  2
BLOCKS
  0
BLOCK
  8
0
  2
$MODEL_SPACE
 70
     0
 10
0.0
 20
0.0
 30
0.0
  3
$MODEL_SPACE
  1

  0
ENDBLK
  5
1A
  8
0
  0
BLOCK
 67
     1
  8
0
  2
$PAPER_SPACE
 70
     0
 10
0.0
 20
0.0
 30
0.0
  3
$PAPER_SPACE
  1

  0
ENDBLK
  5
17
 67
     1
  8
0
  0
ENDSEC
  0
SECTION
  2
ENTITIES
  0
TEXT
  5
22
  8
0
 62
     7
 10
136.58199999999999
 20
97.63258549999999
 30
0.0
 40
3.0923400000000001
  1
6～30
 50
90.0
 41
0.5
 72
     1
 11
136.58199999999999
 21
100.4929999999999
 31
0.0
  0
TEXT
  5
23
  8
0
 62
     7
 10
129.970575
 20
114.7389999999999
 30
0.0
 40
3.0923400000000001
  1
%%c40
 41
0.5
 72
     2
 11
133.83600000000001
 21
114.7389999999999
 31
0.0
  0
TEXT
  5
24
  8
0
 62
     7
 10
102.88800000000001
 20
125.756135
 30
0.0
 40
3.0923400000000001
  1
129
 50
90.0
 41
0.5
 72
     1
 11
102.88800000000001
 21
127.56
 31
0.0
  0
TEXT
  5
25
  8
0
 62
     7
 10
78.090000000000003
 20
127.2731349999999
 30
0.0
 40
3.0923400000000001
  1
138
 50
90.0
 41
0.5
 72
     1
 11
78.090000000000003
 21
129.07699999999991
 31
0.0
  0
TEXT
  5
26
  8
0
 62
     7
 10
143.68700000000001
 20
95.605124999999987
 30
0.0
 40
3.0923400000000001
  1
55
 50
90.0
 41
0.5
 72
     1
 11
143.68700000000001
 21
96.893600000000006
 31
0.0
  0
TEXT
  5
27
  8
0
 62
     7
 10
143.68700000000001
 20
138.79328749999991
 30
0.0
 40
3.0923400000000001
  1
208
 50
90.0
 41
0.5
 72
     1
 11
143.68700000000001
 21
140.72599999999991
 31
0.0
  0
TEXT
  5
28
  8
0
 62
     7
 10
113.96752499999999
 20
187.13599999999991
 30
0.0
 40
3.0923400000000001
  1
35
 41
0.5
 72
     1
 11
115.256
 21
187.13599999999991
 31
0.0
  0
TEXT
  5
29
  8
0
 62
     7
 10
107.685
 20
96.539400000000001
 30
0.0
 40
1.686729999999999
  1
－3
 41
0.5
  0
TEXT
  5
2A
  8
0
 62
     7
 10
107.685
 20
98.598200000000006
 30
0.0
 40
1.686729999999999
  1
＋1
 41
0.5
  0
TEXT
  5
2B
  8
0
 62
     7
 10
97.556668000000002
 20
96.93010000000001
 30
0.0
 40
3.0923400000000001
  1
取付穴%%c28
 41
0.5
 72
     2
 11
107.246
 21
96.93010000000001
 31
0.0
  0
TEXT
  5
2C
  8
0
 62
     7
 10
86.334999999999994
 20
142.45400000000001
 30
0.0
 40
3.0923400000000001
  1
70%%d
 41
0.5
  0
TEXT
  5
2D
  8
0
 62
     7
 10
106.6753724999999
 20
139.70199999999991
 30
0.0
 40
3.0923400000000001
  1
80
 41
0.5
 72
     1
 11
107.83499999999989
 21
139.70199999999991
 31
0.0
  0
TEXT
  5
2E
  8
0
 62
     7
 10
96.172899999999998
 20
79.820599999999999
 30
0.0
 40
3.0923400000000001
  1
（JIS B 2061）
 41
0.5
  0
TEXT
  5
2F
  8
0
 62
     7
 10
96.172899999999998
 20
84.417799999999986
 30
0.0
 40
3.0923400000000001
  1
PJ1/2
 41
0.5
  0
TEXT
  5
30
  8
0
 62
     7
 10
64.625964999999994
 20
225.857
 30
0.0
 40
3.0923400000000001
  1
90%%d
 41
0.5
 72
     2
 11
67.975999999999999
 21
225.857
 31
0.0
  0
TEXT
  5
31
  8
0
 62
     7
 10
76.853683999999987
 20
219.18599999999989
 30
0.0
 40
3.0923400000000001
  1
レバー回転角度
 41
0.5
 72
     2
 11
89.429199999999994
 21
219.18599999999989
 31
0.0
  0
TEXT
  5
32
  8
0
 62
     7
 10
55.788353999999991
 20
199.059
 30
0.0
 40
3.0923400000000001
  1
閉
 41
0.5
 72
     1
 11
56.509900000000002
 21
199.059
 31
0.0
  0
TEXT
  5
33
  8
0
 62
     7
 10
74.426900000000003
 20
234.351
 30
0.0
 40
3.0923400000000001
  1
開
 41
0.5
  0
TEXT
  5
34
  8
0
 62
     7
 10
138.809
 20
58.421599999999991
 30
0.0
 40
3.0923400000000001
  1
（止水栓に接続）
 41
0.5
  0
TEXT
  5
35
  8
0
 62
     7
 10
156.98319900000001
 20
84.596900000000005
 30
0.0
 40
3.0923400000000001
  1
G 1/2
 41
0.5
 72
     1
 11
160.024
 21
84.596900000000005
 31
0.0
  0
TEXT
  5
36
  8
0
 62
     7
 10
138.809
 20
62.989800000000002
 30
0.0
 40
3.0923400000000001
  1
G 1/2
 41
0.5
  0
TEXT
  5
37
  8
0
 62
     7
 10
155.6431849999999
 20
96.570099999999996
 30
0.0
 40
3.0923400000000001
  1
水栓本体へ
 41
0.5
 72
     1
 11
160.024
 21
96.570099999999996
 31
0.0
  0
TEXT
  5
38
  8
0
 62
     7
 10
153.736242
 20
47.223599999999998
 30
0.0
 40
3.0923400000000001
  1
（定流量弁付）
 41
0.5
 72
     1
 11
160.024
 21
47.223599999999998
 31
0.0
  0
TEXT
  5
39
  8
0
 62
     7
 10
156.57088699999991
 20
52.60349999999999
 30
0.0
 40
3.0923400000000001
  1
ソケット
 41
0.5
 72
     1
 11
160.024
 21
52.60349999999999
 31
0.0
  0
LINE
  5
3A
  8
0
 62
     7
 10
161.30600000000001
 20
83.143100000000004
 30
0.0
 11
163.517
 21
83.735600000000005
 31
0.0
  0
LINE
  5
3B
  8
0
 62
     7
 10
163.517
 20
83.735600000000005
 30
0.0
 11
161.30600000000001
 21
84.328199999999995
 31
0.0
  0
LINE
  5
3C
  8
0
 62
     7
 10
161.30600000000001
 20
84.328199999999995
 30
0.0
 11
161.30600000000001
 21
83.143100000000004
 31
0.0
  0
LINE
  5
3D
  8
0
 62
     7
 10
158.74299999999991
 20
84.313699999999983
 30
0.0
 11
156.53200000000001
 21
83.721199999999996
 31
0.0
  0
LINE
  5
3E
  8
0
 62
     7
 10
156.53200000000001
 20
83.721199999999996
 30
0.0
 11
158.74299999999991
 21
83.128600000000006
 31
0.0
  0
LINE
  5
3F
  8
0
 62
     7
 10
158.74299999999991
 20
83.128600000000006
 30
0.0
 11
158.74299999999991
 21
84.313699999999983
 31
0.0
  0
LINE
  5
40
  8
0
 62
     7
 10
163.517
 20
83.721199999999996
 30
0.0
 11
156.53200000000001
 21
83.721199999999996
 31
0.0
  0
LINE
  5
41
  8
0
 62
     7
 10
156.53200000000001
 20
78.518999999999991
 30
0.0
 11
156.53200000000001
 21
84.435699999999997
 31
0.0
  0
LINE
  5
42
  8
0
 62
     7
 10
163.517
 20
78.518999999999991
 30
0.0
 11
163.517
 21
84.435699999999997
 31
0.0
  0
LINE
  5
43
  8
0
 62
     7
 10
160.61699999999999
 20
93.414400000000001
 30
0.0
 11
160.024
 21
95.625399999999999
 31
0.0
  0
LINE
  5
44
  8
0
 62
     7
 10
160.024
 20
95.625399999999999
 30
0.0
 11
159.43199999999999
 21
93.414400000000001
 31
0.0
  0
LINE
  5
45
  8
0
 62
     7
 10
159.43199999999999
 20
93.414400000000001
 30
0.0
 11
160.61699999999999
 21
93.414400000000001
 31
0.0
  0
LINE
  5
46
  8
0
 62
     7
 10
160.024
 20
95.625399999999999
 30
0.0
 11
160.024
 21
89.094200000000001
 31
0.0
  0
LINE
  5
47
  8
0
 62
     7
 10
161.30600000000001
 20
61.7117
 30
0.0
 11
163.517
 21
62.304299999999998
 31
0.0
  0
LINE
  5
48
  8
0
 62
     7
 10
163.517
 20
62.304299999999998
 30
0.0
 11
161.30600000000001
 21
62.896799999999999
 31
0.0
  0
LINE
  5
49
  8
0
 62
     7
 10
161.30600000000001
 20
62.896799999999999
 30
0.0
 11
161.30600000000001
 21
61.7117
 31
0.0
  0
LINE
  5
4A
  8
0
 62
     7
 10
158.74299999999991
 20
62.882300000000001
 30
0.0
 11
156.53200000000001
 21
62.289799999999993
 31
0.0
  0
LINE
  5
4B
  8
0
 62
     7
 10
156.53200000000001
 20
62.289799999999993
 30
0.0
 11
158.74299999999991
 21
61.697200000000002
 31
0.0
  0
LINE
  5
4C
  8
0
 62
     7
 10
158.74299999999991
 20
61.697200000000002
 30
0.0
 11
158.74299999999991
 21
62.882300000000001
 31
0.0
  0
LINE
  5
4D
  8
0
 62
     7
 10
167.61000000000001
 20
51.540999999999997
 30
0.0
 11
152.26400000000001
 21
51.540999999999997
 31
0.0
  0
LINE
  5
4E
  8
0
 62
     7
 10
163.517
 20
62.289799999999993
 30
0.0
 11
138.809
 21
62.289799999999993
 31
0.0
  0
ARC
  5
4F
  8
0
 62
     7
 10
94.818449999999984
 20
152.4409379999999
 30
0.0
 40
13.441188
 50
201.03973099999999
 51
268.98282299999988
  0
LINE
  5
50
  8
0
 62
     7
 10
51.843299999999999
 20
130.393
 30
0.0
 11
61.176699999999997
 21
130.393
 31
0.0
  0
LINE
  5
51
  8
0
 62
     7
 10
53.017400000000002
 20
88.302499999999995
 30
0.0
 11
60.002400000000002
 21
88.302499999999995
 31
0.0
  0
LINE
  5
52
  8
0
 62
     7
 10
53.404800000000002
 20
87.914599999999979
 30
0.0
 11
59.615200000000002
 21
87.914599999999979
 31
0.0
  0
LINE
  5
53
  8
0
 62
     7
 10
51.843299999999999
 20
107.0599999999999
 30
0.0
 11
61.176699999999997
 21
107.0599999999999
 31
0.0
  0
LINE
  5
54
  8
0
 62
     7
 10
53.017400000000002
 20
88.302499999999995
 30
0.0
 11
53.593299999999992
 21
87.726500000000001
 31
0.0
  0
LINE
  5
55
  8
0
 62
     7
 10
59.42669999999999
 20
87.726500000000001
 30
0.0
 11
60.002400000000002
 21
88.302499999999995
 31
0.0
  0
LINE
  5
56
  8
0
 62
     7
 10
60.002400000000002
 20
91.860299999999995
 30
0.0
 11
60.002400000000002
 21
88.302499999999995
 31
0.0
  0
LINE
  5
57
  8
0
 62
     7
 10
60.002400000000002
 20
94.265600000000006
 30
0.0
 11
60.002400000000002
 21
93.793699999999987
 31
0.0
  0
LINE
  5
58
  8
0
 62
     7
 10
60.002400000000002
 20
104.39399999999991
 30
0.0
 11
60.002400000000002
 21
94.847899999999996
 31
0.0
  0
LINE
  5
59
  8
0
 62
     7
 10
53.017400000000002
 20
94.847899999999996
 30
0.0
 11
53.017400000000002
 21
104.39399999999991
 31
0.0
  0
LINE
  5
5A
  8
0
 62
     7
 10
53.017400000000002
 20
93.793699999999987
 30
0.0
 11
53.017400000000002
 21
94.265600000000006
 31
0.0
  0
LINE
  5
5B
  8
0
 62
     7
 10
53.017400000000002
 20
88.302499999999995
 30
0.0
 11
53.017400000000002
 21
91.860299999999995
 31
0.0
  0
LINE
  5
5C
  8
0
 62
     7
 10
59.42669999999999
 20
87.726500000000001
 30
0.0
 11
53.593299999999992
 21
87.726500000000001
 31
0.0
  0
LINE
  5
5D
  8
0
 62
     7
 10
59.615200000000002
 20
91.860299999999995
 30
0.0
 11
59.615200000000002
 21
87.914599999999979
 31
0.0
  0
LINE
  5
5E
  8
0
 62
     7
 10
59.615200000000002
 20
94.193299999999994
 30
0.0
 11
59.615200000000002
 21
93.793699999999987
 31
0.0
  0
LINE
  5
5F
  8
0
 62
     7
 10
59.615200000000002
 20
104.39399999999991
 30
0.0
 11
59.615200000000002
 21
94.752099999999999
 31
0.0
  0
LINE
  5
60
  8
0
 62
     7
 10
53.404800000000002
 20
94.752099999999999
 30
0.0
 11
53.404800000000002
 21
104.39399999999991
 31
0.0
  0
LINE
  5
61
  8
0
 62
     7
 10
53.404800000000002
 20
93.793699999999987
 30
0.0
 11
53.404800000000002
 21
94.193299999999994
 31
0.0
  0
LINE
  5
62
  8
0
 62
     7
 10
53.404800000000002
 20
87.914599999999979
 30
0.0
 11
53.404800000000002
 21
91.860299999999995
 31
0.0
  0
LINE
  5
63
  8
0
 62
     7
 10
61.176699999999997
 20
107.0599999999999
 30
0.0
 11
61.176699999999997
 21
130.393
 31
0.0
  0
LINE
  5
64
  8
0
 62
     7
 10
51.843299999999999
 20
107.0599999999999
 30
0.0
 11
51.843299999999999
 21
130.393
 31
0.0
  0
ARC
  5
65
  8
0
 62
     7
 10
52.41665600000001
 20
105.39627299999989
 30
0.0
 40
0.343501
 50
1.2400690000000001
 51
74.238748000000001
  0
ARC
  5
66
  8
0
 62
     7
 10
60.602820999999999
 20
105.39667799999999
 30
0.0
 40
0.342969
 50
105.695503
 51
178.82563999999999
  0
LINE
  5
67
  8
0
 62
     7
 10
52.760100000000001
 20
104.39399999999991
 30
0.0
 11
52.760100000000001
 21
105.404
 31
0.0
  0
LINE
  5
68
  8
0
 62
     7
 10
60.259900000000002
 20
104.39399999999991
 30
0.0
 11
60.259900000000002
 21
105.404
 31
0.0
  0
LINE
  5
69
  8
0
 62
     7
 10
60.259900000000002
 20
104.39399999999991
 30
0.0
 11
52.760100000000001
 21
104.39399999999991
 31
0.0
  0
LINE
  5
6A
  8
0
 62
     7
 10
63.009999999999998
 20
107.0599999999999
 30
0.0
 11
50.009999999999998
 21
107.0599999999999
 31
0.0
  0
ARC
  5
6B
  8
0
 62
     7
 10
50.016193000000001
 20
106.88719399999989
 30
0.0
 40
0.173036
 50
92.047434999999993
 51
177.95253500000001
  0
LINE
  5
6C
  8
0
 62
     7
 10
49.843299999999992
 20
106.0599999999999
 30
0.0
 11
49.843299999999992
 21
106.8929999999999
 31
0.0
  0
LINE
  5
6D
  8
0
 62
     7
 10
50.510100000000001
 20
106.0599999999999
 30
0.0
 11
49.843299999999992
 21
106.0599999999999
 31
0.0
  0
LINE
  5
6E
  8
0
 62
     7
 10
62.509900000000002
 20
106.0599999999999
 30
0.0
 11
50.510100000000001
 21
106.0599999999999
 31
0.0
  0
LINE
  5
6F
  8
0
 62
     7
 10
63.176600000000001
 20
106.0599999999999
 30
0.0
 11
62.509900000000002
 21
106.0599999999999
 31
0.0
  0
ARC
  5
70
  8
0
 62
     7
 10
63.003259
 20
106.8868249999999
 30
0.0
 40
0.173426
 50
2.164928999999999
 51
87.775840000000002
  0
LINE
  5
71
  8
0
 62
     7
 10
63.176600000000001
 20
106.0599999999999
 30
0.0
 11
63.176600000000001
 21
106.8929999999999
 31
0.0
  0
LINE
  5
72
  8
0
 62
     7
 10
53.328299999999999
 20
155.04300000000001
 30
0.0
 11
53.259999999999998
 21
154.434
 31
0.0
  0
LINE
  5
73
  8
0
 62
     7
 10
53.530900000000003
 20
155.624
 30
0.0
 11
53.328299999999999
 21
155.04300000000001
 31
0.0
  0
LINE
  5
74
  8
0
 62
     7
 10
53.860999999999997
 20
156.15700000000001
 30
0.0
 11
53.530900000000003
 21
155.624
 31
0.0
  0
LINE
  5
75
  8
0
 62
     7
 10
54.303800000000003
 20
156.61699999999999
 30
0.0
 11
53.860999999999997
 21
156.15700000000001
 31
0.0
  0
LINE
  5
76
  8
0
 62
     7
 10
59.158999999999999
 20
156.15700000000001
 30
0.0
 11
58.716200000000001
 21
156.61699999999999
 31
0.0
  0
LINE
  5
77
  8
0
 62
     7
 10
59.489100000000001
 20
155.624
 30
0.0
 11
59.158999999999999
 21
156.15700000000001
 31
0.0
  0
LINE
  5
78
  8
0
 62
     7
 10
59.691699999999997
 20
155.04300000000001
 30
0.0
 11
59.489100000000001
 21
155.624
 31
0.0
  0
LINE
  5
79
  8
0
 62
     7
 10
59.759999999999991
 20
154.434
 30
0.0
 11
59.691699999999997
 21
155.04300000000001
 31
0.0
  0
ARC
  5
7A
  8
0
 62
     7
 10
54.220348999999992
 20
161.7298219999999
 30
0.0
 40
0.9604829999999999
 50
146.53122899999991
 51
179.18803600000001
  0
ARC
  5
7B
  8
0
 62
     7
 10
54.842542000000002
 20
161.31248400000001
 30
0.0
 40
1.70967
 50
124.232106
 51
146.363361
  0
ARC
  5
7C
  8
0
 62
     7
 10
55.664972999999989
 20
160.136988
 30
0.0
 40
3.1442410000000001
 50
109.8025149999999
 51
124.572598
  0
ARC
  5
7D
  8
0
 62
     7
 10
56.297941999999999
 20
158.46875600000001
 30
0.0
 40
4.9283539999999988
 50
99.25097700000002
 51
110.15567
  0
ARC
  5
7E
  8
0
 62
     7
 10
56.506253000000001
 20
157.26885899999999
 30
0.0
 40
6.1461449999999989
 50
89.965862000000016
 51
99.369427999999999
  0
ARC
  5
7F
  8
0
 62
     7
 10
56.507281999999989
 20
157.1896669999999
 30
0.0
 40
6.2253369999999997
 50
80.690499000000017
 51
89.975764999999996
  0
ARC
  5
80
  8
0
 62
     7
 10
56.735758999999987
 20
158.52097000000001
 30
0.0
 40
4.874619
 50
69.784020999999996
 51
80.809293000000011
  0
ARC
  5
81
  8
0
 62
     7
 10
57.339359999999992
 20
160.10648599999999
 30
0.0
 40
3.1782499999999989
 50
55.506839999999997
 51
70.118006999999992
  0
ARC
  5
82
  8
0
 62
     7
 10
58.179169000000002
 20
161.314177
 30
0.0
 40
1.707308
 50
33.621116000000001
 51
55.783377000000002
  0
ARC
  5
83
  8
0
 62
     7
 10
58.793925999999999
 20
161.72805600000001
 30
0.0
 40
0.966234
 50
0.9118229999999998
 51
33.368871999999989
  0
LINE
  5
84
  8
0
 62
     7
 10
53.259999999999998
 20
154.43199999999999
 30
0.0
 11
53.259999999999998
 21
161.74299999999991
 31
0.0
  0
LINE
  5
85
  8
0
 62
     7
 10
59.759999999999991
 20
154.43199999999999
 30
0.0
 11
59.759999999999991
 21
161.74299999999991
 31
0.0
  0
LINE
  5
86
  8
0
 62
     7
 10
51.843299999999999
 20
130.393
 30
0.0
 11
61.176699999999997
 21
130.393
 31
0.0
  0
LINE
  5
87
  8
0
 62
     7
 10
51.843299999999999
 20
167.893
 30
0.0
 11
61.176699999999997
 21
167.893
 31
0.0
  0
LINE
  5
88
  8
0
 62
     7
 10
61.176699999999997
 20
130.393
 30
0.0
 11
61.176699999999997
 21
167.893
 31
0.0
  0
LINE
  5
89
  8
0
 62
     7
 10
51.843299999999999
 20
130.393
 30
0.0
 11
51.843299999999999
 21
167.893
 31
0.0
  0
LINE
  5
8A
  8
0
 62
     7
 10
56.114100000000001
 20
168.06
 30
0.0
 11
52.67669999999999
 21
168.06
 31
0.0
  0
LINE
  5
8B
  8
0
 62
     7
 10
60.343299999999999
 20
168.06
 30
0.0
 11
56.905900000000003
 21
168.06
 31
0.0
  0
LINE
  5
8C
  8
0
 62
     7
 10
52.67669999999999
 20
167.893
 30
0.0
 11
52.67669999999999
 21
168.06
 31
0.0
  0
LINE
  5
8D
  8
0
 62
     7
 10
60.343299999999999
 20
167.893
 30
0.0
 11
60.343299999999999
 21
168.06
 31
0.0
  0
ARC
  5
8E
  8
0
 62
     7
 10
54.760052999999999
 20
184.69711699999991
 30
0.0
 40
16.637129999999988
 50
265.33181500000001
 51
274.66820499999989
  0
ARC
  5
8F
  8
0
 62
     7
 10
58.25994699999999
 20
184.70130599999999
 30
0.0
 40
16.641304999999988
 50
265.332989
 51
274.66703100000001
  0
LINE
  5
90
  8
0
 62
     7
 10
53.009999999999998
 20
168.06
 30
0.0
 11
53.009999999999998
 21
168.1929999999999
 31
0.0
  0
LINE
  5
91
  8
0
 62
     7
 10
53.406000000000013
 20
168.11500000000001
 30
0.0
 11
53.406000000000013
 21
168.1929999999999
 31
0.0
  0
LINE
  5
92
  8
0
 62
     7
 10
60.009999999999998
 20
168.06
 30
0.0
 11
60.009999999999998
 21
168.1929999999999
 31
0.0
  0
LINE
  5
93
  8
0
 62
     7
 10
59.613999999999997
 20
168.11500000000001
 30
0.0
 11
59.613999999999997
 21
168.1929999999999
 31
0.0
  0
LINE
  5
94
  8
0
 62
     7
 10
56.114100000000001
 20
168.06
 30
0.0
 11
56.114100000000001
 21
168.1929999999999
 31
0.0
  0
LINE
  5
95
  8
0
 62
     7
 10
56.905900000000003
 20
168.06
 30
0.0
 11
56.905900000000003
 21
168.1929999999999
 31
0.0
  0
LINE
  5
96
  8
0
 62
     7
 10
60.496099999999998
 20
167.893
 30
0.0
 11
52.523899999999998
 21
167.893
 31
0.0
  0
ARC
  5
97
  8
0
 62
     7
 10
56.509999999999991
 20
172.7267239999999
 30
0.0
 40
1.3333469999999989
 50
0.003711
 51
90.003680999999986
  0
ARC
  5
98
  8
0
 62
     7
 10
56.509914000000002
 20
172.72681099999991
 30
0.0
 40
1.333261
 50
90.0
 51
179.99996999999991
  0
ARC
  5
99
  8
0
 62
     7
 10
56.509999999999991
 20
172.7267239999999
 30
0.0
 40
1.333345999999999
 50
179.9962689999999
 51
269.99631899999991
  0
ARC
  5
9A
  8
0
 62
     7
 10
56.509914000000002
 20
172.72681099999991
 30
0.0
 40
1.3334330000000001
 50
270.00002000000001
 51
359.99998999999991
  0
ARC
  5
9B
  8
0
 62
     7
 10
61.072851999999997
 20
168.29719900000001
 30
0.0
 40
0.103885
 50
272.06169499999999
 51
357.93831399999999
  0
ARC
  5
9C
  8
0
 62
     7
 10
51.947220000000002
 20
168.29727
 30
0.0
 40
0.103959
 50
182.0995739999999
 51
267.90045600000002
  0
LINE
  5
9D
  8
0
 62
     7
 10
61.176699999999997
 20
175.06
 30
0.0
 11
61.176699999999997
 21
168.29299999999989
 31
0.0
  0
LINE
  5
9E
  8
0
 62
     7
 10
61.076599999999999
 20
168.1929999999999
 30
0.0
 11
51.943399999999997
 21
168.1929999999999
 31
0.0
  0
LINE
  5
9F
  8
0
 62
     7
 10
61.176699999999997
 20
175.06
 30
0.0
 11
51.843299999999999
 21
175.06
 31
0.0
  0
LINE
  5
A0
  8
0
 62
     7
 10
51.843299999999999
 20
175.06
 30
0.0
 11
51.843299999999999
 21
168.29299999999989
 31
0.0
  0
LINE
  5
A1
  8
0
 62
     7
 10
60.509999999999998
 20
91.860299999999995
 30
0.0
 11
60.509999999999998
 21
93.793699999999987
 31
0.0
  0
LINE
  5
A2
  8
0
 62
     7
 10
60.509999999999998
 20
93.793699999999987
 30
0.0
 11
52.509999999999998
 21
93.793699999999987
 31
0.0
  0
LINE
  5
A3
  8
0
 62
     7
 10
52.509999999999998
 20
91.860299999999995
 30
0.0
 11
52.509999999999998
 21
93.793699999999987
 31
0.0
  0
LINE
  5
A4
  8
0
 62
     7
 10
60.509999999999998
 20
91.860299999999995
 30
0.0
 11
52.509999999999998
 21
91.860299999999995
 31
0.0
  0
LINE
  5
A5
  8
0
 62
     7
 10
56.509900000000002
 20
91.860299999999995
 30
0.0
 11
56.509900000000002
 21
93.793699999999987
 31
0.0
  0
LINE
  5
A6
  8
0
 62
     7
 10
50.510100000000001
 20
106.0599999999999
 30
0.0
 11
50.510100000000001
 21
105.727
 31
0.0
  0
LINE
  5
A7
  8
0
 62
     7
 10
50.510100000000001
 20
106.0599999999999
 30
0.0
 11
62.509900000000002
 21
106.0599999999999
 31
0.0
  0
LINE
  5
A8
  8
0
 62
     7
 10
50.510100000000001
 20
105.727
 30
0.0
 11
62.509900000000002
 21
105.727
 31
0.0
  0
LINE
  5
A9
  8
0
 62
     7
 10
62.509900000000002
 20
106.0599999999999
 30
0.0
 11
62.509900000000002
 21
105.727
 31
0.0
  0
ARC
  5
AA
  8
0
 62
     7
 10
56.610671000000004
 20
152.979083
 30
0.0
 40
1.405518
 50
322.62387299999989
 51
341.02448299999998
  0
ARC
  5
AB
  8
0
 62
     7
 10
56.570606999999988
 20
153.01599400000001
 30
0.0
 40
1.459770999999999
 50
304.39903399999992
 51
322.42716899999999
  0
ARC
  5
AC
  8
0
 62
     7
 10
56.533687999999991
 20
153.06535500000001
 30
0.0
 40
1.521358999999999
 50
286.88990799999988
 51
304.49606399999988
  0
ARC
  5
AD
  8
0
 62
     7
 10
56.511320999999988
 20
153.10862299999991
 30
0.0
 40
1.5692839999999999
 50
269.94864699999999
 51
287.21235899999999
  0
ARC
  5
AE
  8
0
 62
     7
 10
56.506281000000008
 20
153.09273599999989
 30
0.0
 40
1.553399999999999
 50
252.6987649999999
 51
270.13401399999998
  0
ARC
  5
AF
  8
0
 62
     7
 10
56.490334999999988
 20
153.07371599999991
 30
0.0
 40
1.530529
 50
235.55711099999999
 51
253.0569569999999
  0
ARC
  5
B0
  8
0
 62
     7
 10
56.457223999999997
 20
153.024271
 30
0.0
 40
1.471025
 50
217.642383
 51
235.531454
  0
ARC
  5
B1
  8
0
 62
     7
 10
56.411349000000001
 20
152.980165
 30
0.0
 40
1.4077789999999999
 50
198.99044199999989
 51
217.36124100000001
  0
ARC
  5
B2
  8
0
 62
     7
 10
56.341394999999991
 20
152.09322
 30
0.0
 40
1.331485
 50
160.86662100000001
 51
179.95886599999989
  0
ARC
  5
B3
  8
0
 62
     7
 10
56.378856999999989
 20
152.08247899999989
 30
0.0
 40
1.3704000000000001
 50
142.16485099999991
 51
160.955724
  0
ARC
  5
B4
  8
0
 62
     7
 10
56.432375
 20
152.045537
 30
0.0
 40
1.4353320000000001
 50
124.0693009999999
 51
142.31061
  0
ARC
  5
B5
  8
0
 62
     7
 10
56.494574999999998
 20
151.96401
 30
0.0
 40
1.537720999999999
 50
106.9393459999999
 51
124.287392
  0
ARC
  5
B6
  8
0
 62
     7
 10
56.508505999999997
 20
151.920862
 30
0.0
 40
1.583056
 50
89.949016999999984
 51
106.96664799999991
  0
ARC
  5
B7
  8
0
 62
     7
 10
56.509500000000003
 20
151.90744599999991
 30
0.0
 40
1.596471999999999
 50
73.105363999999994
 51
89.985125999999994
  0
ARC
  5
B8
  8
0
 62
     7
 10
56.519489
 20
151.95162799999991
 30
0.0
 40
1.5512980000000001
 50
55.789076999999992
 51
72.984145000000012
  0
ARC
  5
B9
  8
0
 62
     7
 10
56.569569999999999
 20
152.02630300000001
 30
0.0
 40
1.461384999999999
 50
37.853319999999997
 51
55.76673000000001
  0
ARC
  5
BA
  8
0
 62
     7
 10
56.629992999999999
 20
152.07643999999999
 30
0.0
 40
1.3829119999999999
 50
19.130023000000001
 51
37.749363000000002
  0
ARC
  5
BB
  8
0
 62
     7
 10
56.676124999999999
 20
152.09332900000001
 30
0.0
 40
1.333793
 50
0.036373
 51
19.094024999999991
  0
ARC
  5
BC
  8
0
 62
     7
 10
56.681556999999991
 20
152.09393499999999
 30
0.0
 40
1.3283609999999999
 50
340.86664400000001
 51
0.010383
  0
ARC
  5
BD
  8
0
 62
     7
 10
56.637796999999999
 20
152.10898999999989
 30
0.0
 40
1.3746389999999991
 50
322.16481700000003
 51
340.871644
  0
ARC
  5
BE
  8
0
 62
     7
 10
56.560803999999997
 20
152.16921499999989
 30
0.0
 40
1.472388
 50
304.35464000000002
 51
322.15168699999998
  0
ARC
  5
BF
  8
0
 62
     7
 10
56.534155000000013
 20
152.21096799999989
 30
0.0
 40
1.5218969999999989
 50
286.77733199999989
 51
304.29584299999999
  0
ARC
  5
C0
  8
0
 62
     7
 10
56.515850999999998
 20
152.2386939999999
 30
0.0
 40
1.5537549999999991
 50
269.78107499999987
 51
287.12843599999991
  0
ARC
  5
C1
  8
0
 62
     7
 10
56.506092000000002
 20
152.251777
 30
0.0
 40
1.5668319999999989
 50
252.94457700000001
 51
270.13975699999992
  0
ARC
  5
C2
  8
0
 62
     7
 10
56.492277000000001
 20
152.22443000000001
 30
0.0
 40
1.5366439999999999
 50
235.78889100000001
 51
253.1379729999999
  0
ARC
  5
C3
  8
0
 62
     7
 10
56.459788000000003
 20
152.1698429999999
 30
0.0
 40
1.473239999999999
 50
217.85352
 51
235.64019300000001
  0
ARC
  5
C4
  8
0
 62
     7
 10
56.382401000000002
 20
152.10909699999991
 30
0.0
 40
1.3748599999999991
 50
199.12989400000001
 51
217.83368499999989
  0
ARC
  5
C5
  8
0
 62
     7
 10
56.354078999999999
 20
152.09710000000001
 30
0.0
 40
1.344171999999999
 50
180.12467599999991
 51
199.042395
  0
ARC
  5
C6
  8
0
 62
     7
 10
56.148084999999988
 20
154.37275099999999
 30
0.0
 40
2.8881229999999989
 50
160.88964599999991
 51
179.96871899999999
  0
ARC
  5
C7
  8
0
 62
     7
 10
56.249293000000009
 20
154.33507599999999
 30
0.0
 40
2.9960879999999999
 50
142.23575199999999
 51
160.84252299999989
  0
ARC
  5
C8
  8
0
 62
     7
 10
56.379362999999991
 20
154.22984700000001
 30
0.0
 40
3.1633589999999989
 50
124.2333289999999
 51
142.17179299999989
  0
ARC
  5
C9
  8
0
 62
     7
 10
56.474769999999992
 20
154.09451499999989
 30
0.0
 40
3.328919
 50
106.924876
 51
124.280581
  0
ARC
  5
CA
  8
0
 62
     7
 10
56.511515000000003
 20
153.97068200000001
 30
0.0
 40
3.4580860000000002
 50
90.026515000000018
 51
106.91002400000001
  0
ARC
  5
CB
  8
0
 62
     7
 10
56.509118999999991
 20
153.9749379999999
 30
0.0
 40
3.4538289999999998
 50
73.079479000000006
 51
89.986804000000006
  0
ARC
  5
CC
  8
0
 62
     7
 10
56.538426999999999
 20
154.08031699999989
 30
0.0
 40
3.3444839999999991
 50
55.760093000000012
 51
73.034409999999994
  0
ARC
  5
CD
  8
0
 62
     7
 10
56.638494999999992
 20
154.227566
 30
0.0
 40
3.166450999999999
 50
37.837015999999998
 51
55.757821999999997
  0
ARC
  5
CE
  8
0
 62
     7
 10
56.77292099999999
 20
154.33627599999991
 30
0.0
 40
2.9936029999999989
 50
19.149665999999989
 51
37.772019
  0
ARC
  5
CF
  8
0
 62
     7
 10
56.860250999999998
 20
154.37078399999999
 30
0.0
 40
2.8997889999999988
 50
0.069994
 51
19.0716
  0
ARC
  5
D0
  8
0
 62
     7
 10
56.164155999999998
 20
152.08988999999991
 30
0.0
 40
2.9041959999999989
 50
160.94293099999999
 51
179.915434
  0
ARC
  5
D1
  8
0
 62
     7
 10
56.238656000000013
 20
152.059211
 30
0.0
 40
2.9846339999999998
 50
142.18618699999999
 51
160.85322099999991
  0
ARC
  5
D2
  8
0
 62
     7
 10
56.373275
 20
151.95881299999991
 30
0.0
 40
3.1525400000000001
 50
124.233311
 51
142.24470500000001
  0
ARC
  5
D3
  8
0
 62
     7
 10
56.487335999999992
 20
151.7883129999999
 30
0.0
 40
3.357667999999999
 50
106.9997429999999
 51
124.2057139999999
  0
ARC
  5
D4
  8
0
 62
     7
 10
56.511515000000003
 20
151.69070400000001
 30
0.0
 40
3.4580860000000002
 50
90.026515000000018
 51
106.91002400000001
  0
ARC
  5
D5
  8
0
 62
     7
 10
56.509118999999991
 20
151.69496000000001
 30
0.0
 40
3.4538289999999998
 50
73.079479000000006
 51
89.986804000000006
  0
ARC
  5
D6
  8
0
 62
     7
 10
56.538426999999999
 20
151.8003379999999
 30
0.0
 40
3.3444839999999991
 50
55.760093000000012
 51
73.034409999999994
  0
ARC
  5
D7
  8
0
 62
     7
 10
56.638787000000001
 20
151.9503709999999
 30
0.0
 40
3.1639849999999989
 50
37.788123999999989
 51
55.733820999999999
  0
ARC
  5
D8
  8
0
 62
     7
 10
56.765313999999996
 20
152.05051399999999
 30
0.0
 40
3.0026320000000002
 50
19.203200999999989
 51
37.757351
  0
ARC
  5
D9
  8
0
 62
     7
 10
56.860165000000002
 20
152.090619
 30
0.0
 40
2.8998740000000001
 50
0.070277
 51
19.071317999999991
  0
ARC
  5
DA
  8
0
 62
     7
 10
56.871919999999989
 20
152.0962679999999
 30
0.0
 40
2.888118
 50
340.88963100000001
 51
359.95848399999988
  0
ARC
  5
DB
  8
0
 62
     7
 10
56.770706999999987
 20
152.1339429999999
 30
0.0
 40
2.9960879999999999
 50
322.235772
 51
340.84254299999998
  0
ARC
  5
DC
  8
0
 62
     7
 10
56.62403900000001
 20
152.25416200000001
 30
0.0
 40
3.185662999999999
 50
304.32152400000001
 51
322.14195999999993
  0
ARC
  5
DD
  8
0
 62
     7
 10
56.541564999999999
 20
152.38654
 30
0.0
 40
3.3415010000000001
 50
286.92494900000003
 51
304.20964399999991
  0
ARC
  5
DE
  8
0
 62
     7
 10
56.508318000000003
 20
152.4994659999999
 30
0.0
 40
3.459214999999999
 50
270.026453
 51
286.907264
  0
ARC
  5
DF
  8
0
 62
     7
 10
56.510880999999998
 20
152.494079
 30
0.0
 40
3.4538269999999991
 50
253.07949099999999
 51
269.983969
  0
ARC
  5
E0
  8
0
 62
     7
 10
56.469721999999997
 20
152.36832699999999
 30
0.0
 40
3.3215419999999991
 50
235.738045
 51
253.12740199999999
  0
ARC
  5
E1
  8
0
 62
     7
 10
56.378897999999992
 20
152.23601099999999
 30
0.0
 40
3.161054
 50
217.78812300000001
 51
235.74843300000001
  0
ARC
  5
E2
  8
0
 62
     7
 10
56.236271000000002
 20
152.12688399999999
 30
0.0
 40
2.9814720000000001
 50
199.11145999999999
 51
217.81026499999999
  0
ARC
  5
E3
  8
0
 62
     7
 10
56.156722999999992
 20
152.09772699999991
 30
0.0
 40
2.8967629999999991
 50
180.07025200000001
 51
199.08167299999991
  0
LINE
  5
E4
  8
0
 62
     7
 10
59.759999999999991
 20
152.09399999999991
 30
0.0
 11
59.759999999999991
 21
154.37399999999991
 31
0.0
  0
LINE
  5
E5
  8
0
 62
     7
 10
53.259999999999998
 20
152.09399999999991
 30
0.0
 11
53.259999999999998
 21
154.37399999999991
 31
0.0
  0
ARC
  5
E6
  8
0
 62
     7
 10
52.016252000000001
 20
175.220583
 30
0.0
 40
0.173032
 50
92.046005000000008
 51
177.9539649999999
  0
ARC
  5
E7
  8
0
 62
     7
 10
61.003351999999992
 20
175.22018600000001
 30
0.0
 40
0.173443
 50
2.172350999999999
 51
87.827639000000005
  0
LINE
  5
E8
  8
0
 62
     7
 10
61.176699999999997
 20
175.06
 30
0.0
 11
61.176699999999997
 21
175.227
 31
0.0
  0
LINE
  5
E9
  8
0
 62
     7
 10
51.843299999999999
 20
175.06
 30
0.0
 11
61.176699999999997
 21
175.06
 31
0.0
  0
LINE
  5
EA
  8
0
 62
     7
 10
51.843299999999999
 20
175.06
 30
0.0
 11
51.843299999999999
 21
175.227
 31
0.0
  0
LINE
  5
EB
  8
0
 62
     7
 10
52.010100000000001
 20
175.39400000000001
 30
0.0
 11
61.009900000000002
 21
175.39400000000001
 31
0.0
  0
LINE
  5
EC
  8
0
 62
     7
 10
56.93
 20
95.126900000000006
 30
0.0
 11
57.111899999999999
 21
94.876099999999994
 31
0.0
  0
LINE
  5
ED
  8
0
 62
     7
 10
56.090000000000003
 20
95.126900000000006
 30
0.0
 11
55.908099999999997
 21
94.876099999999994
 31
0.0
  0
LINE
  5
EE
  8
0
 62
     7
 10
59.463900000000002
 20
94.752099999999999
 30
0.0
 11
58.535600000000002
 21
95.126900000000006
 31
0.0
  0
LINE
  5
EF
  8
0
 62
     7
 10
59.008299999999998
 20
94.193299999999994
 30
0.0
 11
59.0989
 21
94.296000000000006
 31
0.0
  0
LINE
  5
F0
  8
0
 62
     7
 10
54.47829999999999
 20
95.126900000000006
 30
0.0
 11
54.279499999999999
 21
94.997399999999999
 31
0.0
  0
LINE
  5
F1
  8
0
 62
     7
 10
56.090000000000003
 20
95.126900000000006
 30
0.0
 11
56.93
 21
95.126900000000006
 31
0.0
  0
LINE
  5
F2
  8
0
 62
     7
 10
55.927900000000001
 20
94.306299999999979
 30
0.0
 11
55.815199999999997
 21
94.193299999999994
 31
0.0
  0
LINE
  5
F3
  8
0
 62
     7
 10
54.011699999999998
 20
94.193299999999994
 30
0.0
 11
53.926200000000001
 21
94.297999999999973
 31
0.0
  0
LINE
  5
F4
  8
0
 62
     7
 10
58.271599999999999
 20
94.593599999999995
 30
0.0
 11
58.758899999999997
 21
94.193299999999994
 31
0.0
  0
LINE
  5
F5
  8
0
 62
     7
 10
57.528500000000001
 20
94.193299999999994
 30
0.0
 11
57.938600000000001
 21
94.593599999999995
 31
0.0
  0
LINE
  5
F6
  8
0
 62
     7
 10
57.204799999999999
 20
94.193299999999994
 30
0.0
 11
57.092100000000002
 21
94.306299999999979
 31
0.0
  0
LINE
  5
F7
  8
0
 62
     7
 10
55.081400000000002
 20
94.593599999999995
 30
0.0
 11
55.491500000000002
 21
94.193299999999994
 31
0.0
  0
LINE
  5
F8
  8
0
 62
     7
 10
54.261099999999999
 20
94.193299999999994
 30
0.0
 11
54.748399999999997
 21
94.593599999999995
 31
0.0
  0
LINE
  5
F9
  8
0
 62
     7
 10
54.261099999999999
 20
94.193299999999994
 30
0.0
 11
54.011699999999998
 21
94.193299999999994
 31
0.0
  0
LINE
  5
FA
  8
0
 62
     7
 10
55.815199999999997
 20
94.193299999999994
 30
0.0
 11
55.491500000000002
 21
94.193299999999994
 31
0.0
  0
LINE
  5
FB
  8
0
 62
     7
 10
58.758899999999997
 20
94.193299999999994
 30
0.0
 11
59.008299999999998
 21
94.193299999999994
 31
0.0
  0
LINE
  5
FC
  8
0
 62
     7
 10
57.204799999999999
 20
94.193299999999994
 30
0.0
 11
57.528500000000001
 21
94.193299999999994
 31
0.0
  0
LINE
  5
FD
  8
0
 62
     7
 10
50.219499999999996
 20
94.597099999999983
 30
0.0
 11
49.926600000000001
 21
94.193299999999994
 31
0.0
  0
LINE
  5
FE
  8
0
 62
     7
 10
50.885399999999997
 20
94.193299999999994
 30
0.0
 11
50.337600000000002
 21
94.597099999999983
 31
0.0
  0
LINE
  5
FF
  8
0
 62
     7
 10
51.965800000000002
 20
94.597099999999983
 30
0.0
 11
51.169299999999993
 21
94.193299999999994
 31
0.0
  0
LINE
  5
100
  8
0
 62
     7
 10
53.192799999999998
 20
94.193299999999994
 30
0.0
 11
52.215400000000002
 21
94.597099999999983
 31
0.0
  0
LINE
  5
101
  8
0
 62
     7
 10
54.748399999999997
 20
94.593599999999995
 30
0.0
 11
53.635300000000001
 21
94.193299999999994
 31
0.0
  0
LINE
  5
102
  8
0
 62
     7
 10
53.556100000000001
 20
94.752099999999999
 30
0.0
 11
54.660699999999999
 21
95.126900000000006
 31
0.0
  0
LINE
  5
103
  8
0
 62
     7
 10
52.289299999999997
 20
95.126900000000006
 30
0.0
 11
53.269399999999997
 21
94.752099999999999
 31
0.0
  0
LINE
  5
104
  8
0
 62
     7
 10
51.116900000000001
 20
94.752099999999999
 30
0.0
 11
51.897100000000002
 21
95.126900000000006
 31
0.0
  0
LINE
  5
105
  8
0
 62
     7
 10
50.374499999999991
 20
95.126900000000006
 30
0.0
 11
50.933100000000003
 21
94.752099999999999
 31
0.0
  0
LINE
  5
106
  8
0
 62
     7
 10
49.843299999999992
 20
94.726600000000005
 30
0.0
 11
50.188800000000001
 21
95.126900000000006
 31
0.0
  0
LINE
  5
107
  8
0
 62
     7
 10
60.804600000000001
 20
94.597099999999983
 30
0.0
 11
59.827199999999998
 21
94.193299999999994
 31
0.0
  0
LINE
  5
108
  8
0
 62
     7
 10
61.850700000000003
 20
94.193299999999994
 30
0.0
 11
61.054200000000002
 21
94.597099999999983
 31
0.0
  0
LINE
  5
109
  8
0
 62
     7
 10
62.682400000000001
 20
94.597099999999983
 30
0.0
 11
62.134599999999999
 21
94.193299999999994
 31
0.0
  0
LINE
  5
10A
  8
0
 62
     7
 10
62.0869
 20
94.752099999999999
 30
0.0
 11
62.646000000000001
 21
95.126900000000006
 31
0.0
  0
LINE
  5
10B
  8
0
 62
     7
 10
62.8005
 20
94.597099999999983
 30
0.0
 11
63.093200000000003
 21
94.193299999999994
 31
0.0
  0
LINE
  5
10C
  8
0
 62
     7
 10
62.831699999999998
 20
95.126900000000006
 30
0.0
 11
63.176600000000001
 21
94.726600000000005
 31
0.0
  0
LINE
  5
10D
  8
0
 62
     7
 10
61.124000000000002
 20
95.126900000000006
 30
0.0
 11
61.902900000000002
 21
94.752099999999999
 31
0.0
  0
LINE
  5
10E
  8
0
 62
     7
 10
59.750599999999999
 20
94.752099999999999
 30
0.0
 11
60.731900000000003
 21
95.126900000000006
 31
0.0
  0
LINE
  5
10F
  8
0
 62
     7
 10
50.337600000000002
 20
94.597099999999983
 30
0.0
 11
50.219499999999996
 21
94.597099999999983
 31
0.0
  0
LINE
  5
110
  8
0
 62
     7
 10
52.215400000000002
 20
94.597099999999983
 30
0.0
 11
51.965800000000002
 21
94.597099999999983
 31
0.0
  0
LINE
  5
111
  8
0
 62
     7
 10
62.682400000000001
 20
94.597099999999983
 30
0.0
 11
62.8005
 21
94.597099999999983
 31
0.0
  0
LINE
  5
112
  8
0
 62
     7
 10
60.804600000000001
 20
94.597099999999983
 30
0.0
 11
61.054200000000002
 21
94.597099999999983
 31
0.0
  0
LINE
  5
113
  8
0
 62
     7
 10
50.374499999999991
 20
95.126900000000006
 30
0.0
 11
50.188800000000001
 21
95.126900000000006
 31
0.0
  0
LINE
  5
114
  8
0
 62
     7
 10
52.289299999999997
 20
95.126900000000006
 30
0.0
 11
51.897100000000002
 21
95.126900000000006
 31
0.0
  0
LINE
  5
115
  8
0
 62
     7
 10
62.646000000000001
 20
95.126900000000006
 30
0.0
 11
62.831699999999998
 21
95.126900000000006
 31
0.0
  0
LINE
  5
116
  8
0
 62
     7
 10
60.731900000000003
 20
95.126900000000006
 30
0.0
 11
61.124000000000002
 21
95.126900000000006
 31
0.0
  0
LINE
  5
117
  8
0
 62
     7
 10
55.228200000000001
 20
95.126900000000006
 30
0.0
 11
54.484400000000001
 21
95.126900000000006
 31
0.0
  0
LINE
  5
118
  8
0
 62
     7
 10
55.081699999999991
 20
94.593599999999995
 30
0.0
 11
54.748399999999997
 21
94.593599999999995
 31
0.0
  0
LINE
  5
119
  8
0
 62
     7
 10
58.271599999999999
 20
94.593599999999995
 30
0.0
 11
59.384700000000002
 21
94.193299999999994
 31
0.0
  0
LINE
  5
11A
  8
0
 62
     7
 10
51.116900000000001
 20
94.752099999999999
 30
0.0
 11
50.933100000000003
 21
94.752099999999999
 31
0.0
  0
LINE
  5
11B
  8
0
 62
     7
 10
53.556100000000001
 20
94.752099999999999
 30
0.0
 11
53.269399999999997
 21
94.752099999999999
 31
0.0
  0
LINE
  5
11C
  8
0
 62
     7
 10
59.750599999999999
 20
94.752099999999999
 30
0.0
 11
59.463900000000002
 21
94.752099999999999
 31
0.0
  0
LINE
  5
11D
  8
0
 62
     7
 10
61.902900000000002
 20
94.752099999999999
 30
0.0
 11
62.0869
 21
94.752099999999999
 31
0.0
  0
LINE
  5
11E
  8
0
 62
     7
 10
49.843299999999992
 20
94.193299999999994
 30
0.0
 11
49.926600000000001
 21
94.193299999999994
 31
0.0
  0
LINE
  5
11F
  8
0
 62
     7
 10
53.192799999999998
 20
94.193299999999994
 30
0.0
 11
53.635300000000001
 21
94.193299999999994
 31
0.0
  0
LINE
  5
120
  8
0
 62
     7
 10
50.885399999999997
 20
94.193299999999994
 30
0.0
 11
51.169299999999993
 21
94.193299999999994
 31
0.0
  0
LINE
  5
121
  8
0
 62
     7
 10
63.093200000000003
 20
94.193299999999994
 30
0.0
 11
63.176600000000001
 21
94.193299999999994
 31
0.0
  0
LINE
  5
122
  8
0
 62
     7
 10
61.850700000000003
 20
94.193299999999994
 30
0.0
 11
62.134599999999999
 21
94.193299999999994
 31
0.0
  0
LINE
  5
123
  8
0
 62
     7
 10
59.384700000000002
 20
94.193299999999994
 30
0.0
 11
59.827199999999998
 21
94.193299999999994
 31
0.0
  0
LINE
  5
124
  8
0
 62
     7
 10
55.081400000000002
 20
94.593599999999995
 30
0.0
 11
56.260100000000001
 21
94.193299999999994
 31
0.0
  0
LINE
  5
125
  8
0
 62
     7
 10
55.169400000000003
 20
95.126900000000006
 30
0.0
 11
56.348199999999999
 21
94.726600000000005
 31
0.0
  0
LINE
  5
126
  8
0
 62
     7
 10
56.759900000000002
 20
94.193299999999994
 30
0.0
 11
57.948900000000002
 21
94.597099999999983
 31
0.0
  0
LINE
  5
127
  8
0
 62
     7
 10
56.671799999999998
 20
94.726600000000005
 30
0.0
 11
57.8506
 21
95.126900000000006
 31
0.0
  0
LINE
  5
128
  8
0
 62
     7
 10
57.938299999999991
 20
94.593599999999995
 30
0.0
 11
58.271599999999999
 21
94.593599999999995
 31
0.0
  0
LINE
  5
129
  8
0
 62
     7
 10
56.348199999999999
 20
94.726600000000005
 30
0.0
 11
56.671799999999998
 21
94.726600000000005
 31
0.0
  0
LINE
  5
12A
  8
0
 62
     7
 10
57.791800000000002
 20
95.126900000000006
 30
0.0
 11
58.535600000000002
 21
95.126900000000006
 31
0.0
  0
LINE
  5
12B
  8
0
 62
     7
 10
56.260100000000001
 20
94.193299999999994
 30
0.0
 11
56.759900000000002
 21
94.193299999999994
 31
0.0
  0
LINE
  5
12C
  8
0
 62
     7
 10
49.843299999999992
 20
94.726600000000005
 30
0.0
 11
49.843299999999992
 21
94.193299999999994
 31
0.0
  0
LINE
  5
12D
  8
0
 62
     7
 10
63.176600000000001
 20
94.726600000000005
 30
0.0
 11
63.176600000000001
 21
94.193299999999994
 31
0.0
  0
LINE
  5
12E
  8
0
  6
AIGENLINE001
 62
     7
 10
56.509900000000002
 20
84.071200000000005
 30
0.0
 11
56.509900000000002
 21
180.393
 31
0.0
  0
LINE
  5
12F
  8
0
 62
     7
 10
114.4229999999999
 20
107.5929999999999
 30
0.0
 11
114.4229999999999
 21
114.178
 31
0.0
  0
LINE
  5
130
  8
0
 62
     7
 10
127.756
 20
107.5929999999999
 30
0.0
 11
127.756
 21
114.178
 31
0.0
  0
LINE
  5
131
  8
0
 62
     7
 10
116.63499999999991
 20
114.06999999999999
 30
0.0
 11
114.4229999999999
 21
113.47799999999989
 31
0.0
  0
LINE
  5
132
  8
0
 62
     7
 10
114.4229999999999
 20
113.47799999999989
 30
0.0
 11
116.63499999999991
 21
112.88500000000001
 31
0.0
  0
LINE
  5
133
  8
0
 62
     7
 10
116.63499999999991
 20
112.88500000000001
 30
0.0
 11
116.63499999999991
 21
114.06999999999999
 31
0.0
  0
LINE
  5
134
  8
0
 62
     7
 10
125.5449999999999
 20
112.88500000000001
 30
0.0
 11
127.756
 21
113.47799999999989
 31
0.0
  0
LINE
  5
135
  8
0
 62
     7
 10
127.756
 20
113.47799999999989
 30
0.0
 11
125.5449999999999
 21
114.06999999999999
 31
0.0
  0
LINE
  5
136
  8
0
 62
     7
 10
125.5449999999999
 20
114.06999999999999
 30
0.0
 11
125.5449999999999
 21
112.88500000000001
 31
0.0
  0
LINE
  5
137
  8
0
 62
     7
 10
114.4229999999999
 20
113.47799999999989
 30
0.0
 11
133.83600000000001
 21
113.47799999999989
 31
0.0
  0
LINE
  5
138
  8
0
 62
     7
 10
94.579800000000006
 20
152.09399999999991
 30
0.0
 11
78.090000000000003
 21
152.09399999999991
 31
0.0
  0
LINE
  5
139
  8
0
 62
     7
 10
104.289
 20
149.06
 30
0.0
 11
98.230599999999995
 21
149.06
 31
0.0
  0
LINE
  5
13A
  8
0
 62
     7
 10
113.7229999999999
 20
106.0599999999999
 30
0.0
 11
78.090000000000003
 21
106.0599999999999
 31
0.0
  0
LINE
  5
13B
  8
0
 62
     7
 10
103.01000000000001
 20
108.271
 30
0.0
 11
103.60299999999999
 21
106.0599999999999
 31
0.0
  0
LINE
  5
13C
  8
0
 62
     7
 10
103.60299999999999
 20
106.0599999999999
 30
0.0
 11
104.1959999999999
 21
108.271
 31
0.0
  0
LINE
  5
13D
  8
0
 62
     7
 10
104.1959999999999
 20
108.271
 30
0.0
 11
103.01000000000001
 21
108.271
 31
0.0
  0
LINE
  5
13E
  8
0
 62
     7
 10
104.1809999999999
 20
146.8489999999999
 30
0.0
 11
103.58799999999989
 21
149.06
 31
0.0
  0
LINE
  5
13F
  8
0
 62
     7
 10
103.58799999999989
 20
149.06
 30
0.0
 11
102.996
 21
146.8489999999999
 31
0.0
  0
LINE
  5
140
  8
0
 62
     7
 10
102.996
 20
146.8489999999999
 30
0.0
 11
104.1809999999999
 21
146.8489999999999
 31
0.0
  0
LINE
  5
141
  8
0
 62
     7
 10
103.58799999999989
 20
106.0599999999999
 30
0.0
 11
103.58799999999989
 21
149.06
 31
0.0
  0
LINE
  5
142
  8
0
 62
     7
 10
78.2119
 20
108.271
 30
0.0
 11
78.804500000000004
 21
106.0599999999999
 31
0.0
  0
LINE
  5
143
  8
0
 62
     7
 10
78.804500000000004
 20
106.0599999999999
 30
0.0
 11
79.396999999999991
 21
108.271
 31
0.0
  0
LINE
  5
144
  8
0
 62
     7
 10
79.396999999999991
 20
108.271
 30
0.0
 11
78.2119
 21
108.271
 31
0.0
  0
LINE
  5
145
  8
0
 62
     7
 10
79.382599999999996
 20
149.8829999999999
 30
0.0
 11
78.790000000000006
 21
152.09399999999991
 31
0.0
  0
LINE
  5
146
  8
0
 62
     7
 10
78.790000000000006
 20
152.09399999999991
 30
0.0
 11
78.197400000000002
 21
149.8829999999999
 31
0.0
  0
LINE
  5
147
  8
0
 62
     7
 10
78.197400000000002
 20
149.8829999999999
 30
0.0
 11
79.382599999999996
 21
149.8829999999999
 31
0.0
  0
LINE
  5
148
  8
0
 62
     7
 10
78.790000000000006
 20
106.0599999999999
 30
0.0
 11
78.790000000000006
 21
152.09399999999991
 31
0.0
  0
LINE
  5
149
  8
0
 62
     7
 10
124.706
 20
87.726500000000001
 30
0.0
 11
145.08699999999999
 21
87.726500000000001
 31
0.0
  0
LINE
  5
14A
  8
0
 62
     7
 10
128.45599999999999
 20
106.0599999999999
 30
0.0
 11
145.08699999999999
 21
106.0599999999999
 31
0.0
  0
LINE
  5
14B
  8
0
 62
     7
 10
144.9789999999999
 20
103.848
 30
0.0
 11
144.38699999999989
 21
106.0599999999999
 31
0.0
  0
LINE
  5
14C
  8
0
 62
     7
 10
144.38699999999989
 20
106.0599999999999
 30
0.0
 11
143.7939999999999
 21
103.848
 31
0.0
  0
LINE
  5
14D
  8
0
 62
     7
 10
143.7939999999999
 20
103.848
 30
0.0
 11
144.9789999999999
 21
103.848
 31
0.0
  0
LINE
  5
14E
  8
0
 62
     7
 10
144.9789999999999
 20
173.18199999999999
 30
0.0
 11
144.38699999999989
 21
175.39400000000001
 31
0.0
  0
LINE
  5
14F
  8
0
 62
     7
 10
144.38699999999989
 20
175.39400000000001
 30
0.0
 11
143.7939999999999
 21
173.18199999999999
 31
0.0
  0
LINE
  5
150
  8
0
 62
     7
 10
143.7939999999999
 20
173.18199999999999
 30
0.0
 11
144.9789999999999
 21
173.18199999999999
 31
0.0
  0
LINE
  5
151
  8
0
 62
     7
 10
143.809
 20
89.938199999999995
 30
0.0
 11
144.40100000000001
 21
87.726500000000001
 31
0.0
  0
LINE
  5
152
  8
0
 62
     7
 10
144.40100000000001
 20
87.726500000000001
 30
0.0
 11
144.99399999999989
 21
89.938199999999995
 31
0.0
  0
LINE
  5
153
  8
0
 62
     7
 10
144.99399999999989
 20
89.938199999999995
 30
0.0
 11
143.809
 21
89.938199999999995
 31
0.0
  0
LINE
  5
154
  8
0
 62
     7
 10
144.38699999999989
 20
175.39400000000001
 30
0.0
 11
144.38699999999989
 21
87.726500000000001
 31
0.0
  0
LINE
  5
155
  8
0
 62
     7
 10
116.4229999999999
 20
95.626499999999993
 30
0.0
 11
116.4229999999999
 21
105.027
 31
0.0
  0
LINE
  5
156
  8
0
 62
     7
 10
125.756
 20
95.626499999999993
 30
0.0
 11
125.756
 21
105.027
 31
0.0
  0
LINE
  5
157
  8
0
 62
     7
 10
128.75
 20
94.926399999999987
 30
0.0
 11
138.08699999999999
 21
94.926399999999987
 31
0.0
  0
LINE
  5
158
  8
0
 62
     7
 10
143.7939999999999
 20
108.271
 30
0.0
 11
144.38699999999989
 21
106.0599999999999
 31
0.0
  0
LINE
  5
159
  8
0
 62
     7
 10
144.38699999999989
 20
106.0599999999999
 30
0.0
 11
144.9789999999999
 21
108.271
 31
0.0
  0
LINE
  5
15A
  8
0
 62
     7
 10
144.9789999999999
 20
108.271
 30
0.0
 11
143.7939999999999
 21
108.271
 31
0.0
  0
LINE
  5
15B
  8
0
 62
     7
 10
136.809
 20
97.138199999999998
 30
0.0
 11
137.40199999999999
 21
94.926399999999987
 31
0.0
  0
LINE
  5
15C
  8
0
 62
     7
 10
137.40199999999999
 20
94.926399999999987
 30
0.0
 11
137.99399999999989
 21
97.138199999999998
 31
0.0
  0
LINE
  5
15D
  8
0
 62
     7
 10
137.99399999999989
 20
97.138199999999998
 30
0.0
 11
136.809
 21
97.138199999999998
 31
0.0
  0
LINE
  5
15E
  8
0
 62
     7
 10
137.9799999999999
 20
103.8489999999999
 30
0.0
 11
137.38699999999989
 21
106.0599999999999
 31
0.0
  0
LINE
  5
15F
  8
0
 62
     7
 10
137.38699999999989
 20
106.0599999999999
 30
0.0
 11
136.7949999999999
 21
103.8489999999999
 31
0.0
  0
LINE
  5
160
  8
0
 62
     7
 10
136.7949999999999
 20
103.8489999999999
 30
0.0
 11
137.9799999999999
 21
103.8489999999999
 31
0.0
  0
LINE
  5
161
  8
0
 62
     7
 10
137.38699999999989
 20
94.926399999999987
 30
0.0
 11
137.38699999999989
 21
106.0599999999999
 31
0.0
  0
LINE
  5
162
  8
0
 62
     7
 10
125.59
 20
175.39400000000001
 30
0.0
 11
145.08699999999999
 21
175.39400000000001
 31
0.0
  0
LINE
  5
163
  8
0
 62
     7
 10
116.4229999999999
 20
130.393
 30
0.0
 11
125.756
 21
130.393
 31
0.0
  0
LINE
  5
164
  8
0
 62
     7
 10
117.59699999999999
 20
88.302499999999995
 30
0.0
 11
124.58199999999999
 21
88.302499999999995
 31
0.0
  0
LINE
  5
165
  8
0
 62
     7
 10
117.9839999999999
 20
87.914599999999979
 30
0.0
 11
124.19499999999989
 21
87.914599999999979
 31
0.0
  0
LINE
  5
166
  8
0
 62
     7
 10
116.4229999999999
 20
107.0599999999999
 30
0.0
 11
125.756
 21
107.0599999999999
 31
0.0
  0
LINE
  5
167
  8
0
 62
     7
 10
117.59699999999999
 20
88.302499999999995
 30
0.0
 11
118.1729999999999
 21
87.726500000000001
 31
0.0
  0
LINE
  5
168
  8
0
 62
     7
 10
124.0059999999999
 20
87.726500000000001
 30
0.0
 11
124.58199999999999
 21
88.302499999999995
 31
0.0
  0
LINE
  5
169
  8
0
 62
     7
 10
124.58199999999999
 20
92.060100000000006
 30
0.0
 11
124.58199999999999
 21
88.302499999999995
 31
0.0
  0
LINE
  5
16A
  8
0
 62
     7
 10
124.58199999999999
 20
94.065799999999996
 30
0.0
 11
124.58199999999999
 21
93.993499999999997
 31
0.0
  0
LINE
  5
16B
  8
0
 62
     7
 10
124.58199999999999
 20
104.39399999999991
 30
0.0
 11
124.58199999999999
 21
94.648099999999985
 31
0.0
  0
LINE
  5
16C
  8
0
 62
     7
 10
117.59699999999999
 20
94.648099999999985
 30
0.0
 11
117.59699999999999
 21
104.39399999999991
 31
0.0
  0
LINE
  5
16D
  8
0
 62
     7
 10
117.59699999999999
 20
93.993499999999997
 30
0.0
 11
117.59699999999999
 21
94.065799999999996
 31
0.0
  0
LINE
  5
16E
  8
0
 62
     7
 10
117.59699999999999
 20
88.302499999999995
 30
0.0
 11
117.59699999999999
 21
92.060100000000006
 31
0.0
  0
LINE
  5
16F
  8
0
 62
     7
 10
124.0059999999999
 20
87.726500000000001
 30
0.0
 11
118.1729999999999
 21
87.726500000000001
 31
0.0
  0
LINE
  5
170
  8
0
 62
     7
 10
124.19499999999989
 20
92.060100000000006
 30
0.0
 11
124.19499999999989
 21
87.914599999999979
 31
0.0
  0
LINE
  5
171
  8
0
 62
     7
 10
124.19499999999989
 20
104.39399999999991
 30
0.0
 11
124.19499999999989
 21
94.551599999999993
 31
0.0
  0
LINE
  5
172
  8
0
 62
     7
 10
117.9839999999999
 20
94.551599999999993
 30
0.0
 11
117.9839999999999
 21
104.39399999999991
 31
0.0
  0
LINE
  5
173
  8
0
 62
     7
 10
117.9839999999999
 20
87.914599999999979
 30
0.0
 11
117.9839999999999
 21
92.060100000000006
 31
0.0
  0
LINE
  5
174
  8
0
 62
     7
 10
125.756
 20
107.0599999999999
 30
0.0
 11
125.756
 21
130.393
 31
0.0
  0
LINE
  5
175
  8
0
 62
     7
 10
116.4229999999999
 20
107.0599999999999
 30
0.0
 11
116.4229999999999
 21
130.393
 31
0.0
  0
LINE
  5
176
  8
0
 62
     7
 10
119.69799999999989
 20
104.39399999999991
 30
0.0
 11
119.69799999999989
 21
105.727
 31
0.0
  0
LINE
  5
177
  8
0
 62
     7
 10
122.48099999999999
 20
104.39399999999991
 30
0.0
 11
122.48099999999999
 21
105.727
 31
0.0
  0
LINE
  5
178
  8
0
 62
     7
 10
125.089
 20
104.39399999999991
 30
0.0
 11
117.09
 21
104.39399999999991
 31
0.0
  0
LINE
  5
179
  8
0
 62
     7
 10
125.089
 20
104.39399999999991
 30
0.0
 11
125.089
 21
105.727
 31
0.0
  0
LINE
  5
17A
  8
0
 62
     7
 10
117.09
 20
104.39399999999991
 30
0.0
 11
117.09
 21
105.727
 31
0.0
  0
LINE
  5
17B
  8
0
 62
     7
 10
127.59
 20
107.0599999999999
 30
0.0
 11
114.589
 21
107.0599999999999
 31
0.0
  0
ARC
  5
17C
  8
0
 62
     7
 10
114.595634
 20
106.887879
 30
0.0
 40
0.172353
 50
92.064910999999995
 51
178.17230799999999
  0
LINE
  5
17D
  8
0
 62
     7
 10
114.4229999999999
 20
106.0599999999999
 30
0.0
 11
114.4229999999999
 21
106.8929999999999
 31
0.0
  0
LINE
  5
17E
  8
0
 62
     7
 10
115.09
 20
106.0599999999999
 30
0.0
 11
114.4229999999999
 21
106.0599999999999
 31
0.0
  0
LINE
  5
17F
  8
0
 62
     7
 10
127.09
 20
106.0599999999999
 30
0.0
 11
115.09
 21
106.0599999999999
 31
0.0
  0
LINE
  5
180
  8
0
 62
     7
 10
127.756
 20
106.0599999999999
 30
0.0
 11
127.09
 21
106.0599999999999
 31
0.0
  0
ARC
  5
181
  8
0
 62
     7
 10
127.5830779999999
 20
106.88725100000001
 30
0.0
 40
0.173003
 50
2.0287389999999998
 51
87.734001000000006
  0
LINE
  5
182
  8
0
 62
     7
 10
127.756
 20
106.0599999999999
 30
0.0
 11
127.756
 21
106.8929999999999
 31
0.0
  0
LINE
  5
183
  8
0
 62
     7
 10
101.871
 20
151.55500000000001
 30
0.0
 11
99.818100000000015
 21
157.1939999999999
 31
0.0
  0
LINE
  5
184
  8
0
 62
     7
 10
99.880200000000002
 20
157.024
 30
0.0
 11
100.11199999999999
 21
157.30099999999999
 31
0.0
  0
LINE
  5
185
  8
0
 62
     7
 10
100.13199999999991
 20
157.30699999999999
 30
0.0
 11
99.818100000000015
 21
157.1939999999999
 31
0.0
  0
LINE
  5
186
  8
0
 62
     7
 10
101.8089999999999
 20
151.72499999999991
 30
0.0
 11
102.164
 21
151.66200000000001
 31
0.0
  0
LINE
  5
187
  8
0
 62
     7
 10
102.184
 20
151.6699999999999
 30
0.0
 11
101.871
 21
151.55500000000001
 31
0.0
  0
ARC
  5
188
  8
0
 62
     7
 10
114.75608099999999
 20
154.206118
 30
0.0
 40
1.666833999999999
 50
359.997049
 51
89.997019999999992
  0
ARC
  5
189
  8
0
 62
     7
 10
114.75858100000001
 20
154.19513399999991
 30
0.0
 40
1.6778209999999989
 50
90.082425999999998
 51
109.941416
  0
ARC
  5
18A
  8
0
 62
     7
 10
115.7393289999999
 20
163.98217500000001
 30
0.0
 40
0.683688
 50
291.031857
 51
359.00949600000001
  0
LINE
  5
18B
  8
0
 62
     7
 10
114.18600000000001
 20
155.77199999999999
 30
0.0
 11
102.26899999999991
 21
151.435
 31
0.0
  0
LINE
  5
18C
  8
0
 62
     7
 10
115.985
 20
163.34399999999999
 30
0.0
 11
100.04600000000001
 21
157.542
 31
0.0
  0
LINE
  5
18D
  8
0
 62
     7
 10
116.55500000000001
 20
157.37100000000001
 30
0.0
 11
115.8009999999999
 21
156.0
 31
0.0
  0
LINE
  5
18E
  8
0
 62
     7
 10
117.113
 20
158.5739999999999
 30
0.0
 11
116.55500000000001
 21
157.37100000000001
 31
0.0
  0
LINE
  5
18F
  8
0
 62
     7
 10
117.4829999999999
 20
159.61600000000001
 30
0.0
 11
117.113
 21
158.5739999999999
 31
0.0
  0
LINE
  5
190
  8
0
 62
     7
 10
117.66199999999991
 20
160.49600000000001
 30
0.0
 11
117.4829999999999
 21
159.61600000000001
 31
0.0
  0
LINE
  5
191
  8
0
 62
     7
 10
117.6809999999999
 20
160.88999999999999
 30
0.0
 11
117.66199999999991
 21
160.49600000000001
 31
0.0
  0
LINE
  5
192
  8
0
 62
     7
 10
117.6549999999999
 20
161.27099999999999
 30
0.0
 11
117.6809999999999
 21
160.88999999999999
 31
0.0
  0
LINE
  5
193
  8
0
 62
     7
 10
117.5829999999999
 20
161.63800000000001
 30
0.0
 11
117.6549999999999
 21
161.27099999999999
 31
0.0
  0
LINE
  5
194
  8
0
 62
     7
 10
117.467
 20
161.99100000000001
 30
0.0
 11
117.5829999999999
 21
161.63800000000001
 31
0.0
  0
LINE
  5
195
  8
0
 62
     7
 10
117.30500000000001
 20
162.33000000000001
 30
0.0
 11
117.467
 21
161.99100000000001
 31
0.0
  0
LINE
  5
196
  8
0
 62
     7
 10
117.0979999999999
 20
162.65499999999989
 30
0.0
 11
117.30500000000001
 21
162.33000000000001
 31
0.0
  0
LINE
  5
197
  8
0
 62
     7
 10
116.846
 20
162.96700000000001
 30
0.0
 11
117.0979999999999
 21
162.65499999999989
 31
0.0
  0
LINE
  5
198
  8
0
 62
     7
 10
116.54600000000001
 20
163.268
 30
0.0
 11
116.846
 21
162.96700000000001
 31
0.0
  0
LINE
  5
199
  8
0
 62
     7
 10
125.756
 20
130.393
 30
0.0
 11
116.4229999999999
 21
130.393
 31
0.0
  0
LINE
  5
19A
  8
0
 62
     7
 10
102.26899999999991
 20
151.435
 30
0.0
 11
100.04600000000001
 21
157.542
 31
0.0
  0
LINE
  5
19B
  8
0
 62
     7
 10
125.756
 20
167.893
 30
0.0
 11
116.4229999999999
 21
167.893
 31
0.0
  0
LINE
  5
19C
  8
0
 62
     7
 10
116.4229999999999
 20
163.96999999999991
 30
0.0
 11
116.4229999999999
 21
167.893
 31
0.0
  0
LINE
  5
19D
  8
0
 62
     7
 10
116.4229999999999
 20
130.393
 30
0.0
 11
116.4229999999999
 21
154.20599999999999
 31
0.0
  0
LINE
  5
19E
  8
0
 62
     7
 10
125.756
 20
130.393
 30
0.0
 11
125.756
 21
167.893
 31
0.0
  0
LINE
  5
19F
  8
0
 62
     7
 10
125.626
 20
174.727
 30
0.0
 11
125.756
 21
174.727
 31
0.0
  0
LINE
  5
1A0
  8
0
 62
     7
 10
125.626
 20
174.727
 30
0.0
 11
125.626
 21
175.06
 31
0.0
  0
ARC
  5
1A1
  8
0
 62
     7
 10
111.9235189999999
 20
172.7267249999999
 30
0.0
 40
4.6928000000000001
 50
343.49339099999997
 51
16.506609000000001
  0
ARC
  5
1A2
  8
0
 62
     7
 10
116.526799
 20
168.29725799999991
 30
0.0
 40
0.103953
 50
182.0929809999999
 51
267.80834800000002
  0
ARC
  5
1A3
  8
0
 62
     7
 10
125.65271899999991
 20
168.29708199999999
 30
0.0
 40
0.103771
 50
272.09821599999998
 51
358.000494
  0
ARC
  5
1A4
  8
0
 62
     7
 10
109.69997600000001
 20
171.67022900000001
 30
0.0
 40
0.277038
 50
182.10972899999999
 51
267.89030000000002
  0
ARC
  5
1A5
  8
0
 62
     7
 10
109.6999659999999
 20
173.78322999999989
 30
0.0
 40
0.277028
 50
92.107718000000006
 51
177.89225200000001
  0
LINE
  5
1A6
  8
0
 62
     7
 10
109.4229999999999
 20
173.79300000000001
 30
0.0
 11
109.4229999999999
 21
171.65999999999991
 31
0.0
  0
ARC
  5
1A7
  8
0
 62
     7
 10
116.076453
 20
171.04691
 30
0.0
 40
0.346711
 50
2.1741579999999998
 51
87.855435000000014
  0
ARC
  5
1A8
  8
0
 62
     7
 10
116.076291
 20
174.40670199999991
 30
0.0
 40
0.34688
 50
272.170389
 51
357.80001900000002
  0
LINE
  5
1A9
  8
0
 62
     7
 10
116.4229999999999
 20
171.06
 30
0.0
 11
116.4229999999999
 21
168.29299999999989
 31
0.0
  0
LINE
  5
1AA
  8
0
 62
     7
 10
116.4229999999999
 20
175.06
 30
0.0
 11
116.4229999999999
 21
174.39299999999989
 31
0.0
  0
LINE
  5
1AB
  8
0
 62
     7
 10
109.6899999999999
 20
171.39299999999989
 30
0.0
 11
116.0889999999999
 21
171.39299999999989
 31
0.0
  0
LINE
  5
1AC
  8
0
 62
     7
 10
109.6899999999999
 20
174.06
 30
0.0
 11
116.0889999999999
 21
174.06
 31
0.0
  0
LINE
  5
1AD
  8
0
 62
     7
 10
116.5229999999999
 20
168.1929999999999
 30
0.0
 11
125.657
 21
168.1929999999999
 31
0.0
  0
LINE
  5
1AE
  8
0
 62
     7
 10
116.4229999999999
 20
175.06
 30
0.0
 11
125.626
 21
175.06
 31
0.0
  0
LINE
  5
1AF
  8
0
 62
     7
 10
125.756
 20
174.727
 30
0.0
 11
125.756
 21
168.29299999999989
 31
0.0
  0
LINE
  5
1B0
  8
0
 62
     7
 10
121.09
 20
179.702
 30
0.0
 11
121.09
 21
187.13599999999991
 31
0.0
  0
LINE
  5
1B1
  8
0
 62
     7
 10
109.4229999999999
 20
174.59399999999999
 30
0.0
 11
109.4229999999999
 21
187.13599999999991
 31
0.0
  0
LINE
  5
1B2
  8
0
 62
     7
 10
118.8779999999999
 20
185.858
 30
0.0
 11
121.09
 21
186.4499999999999
 31
0.0
  0
LINE
  5
1B3
  8
0
 62
     7
 10
121.09
 20
186.4499999999999
 30
0.0
 11
118.8779999999999
 21
187.04299999999989
 31
0.0
  0
LINE
  5
1B4
  8
0
 62
     7
 10
118.8779999999999
 20
187.04299999999989
 30
0.0
 11
118.8779999999999
 21
185.858
 31
0.0
  0
LINE
  5
1B5
  8
0
 62
     7
 10
111.634
 20
187.02799999999991
 30
0.0
 11
109.4229999999999
 21
186.43599999999989
 31
0.0
  0
LINE
  5
1B6
  8
0
 62
     7
 10
109.4229999999999
 20
186.43599999999989
 30
0.0
 11
111.634
 21
185.84299999999999
 31
0.0
  0
LINE
  5
1B7
  8
0
 62
     7
 10
111.634
 20
185.84299999999999
 30
0.0
 11
111.634
 21
187.02799999999991
 31
0.0
  0
LINE
  5
1B8
  8
0
 62
     7
 10
121.09
 20
186.43599999999989
 30
0.0
 11
109.4229999999999
 21
186.43599999999989
 31
0.0
  0
LINE
  5
1B9
  8
0
 62
     7
 10
110.85299999999999
 20
95.644400000000005
 30
0.0
 11
95.291899999999984
 21
95.644400000000005
 31
0.0
  0
LINE
  5
1BA
  8
0
 62
     7
 10
119.54600000000001
 20
100.5029999999999
 30
0.0
 11
121.09
 21
102.194
 31
0.0
  0
LINE
  5
1BB
  8
0
 62
     7
 10
121.09
 20
102.194
 30
0.0
 11
118.9079999999999
 21
101.50099999999991
 31
0.0
  0
LINE
  5
1BC
  8
0
 62
     7
 10
118.9079999999999
 20
101.50099999999991
 30
0.0
 11
119.54600000000001
 21
100.5029999999999
 31
0.0
  0
LINE
  5
1BD
  8
0
 62
     7
 10
121.09
 20
102.194
 30
0.0
 11
110.85299999999999
 21
95.644400000000005
 31
0.0
  0
LINE
  5
1BE
  8
0
 62
     7
 10
118.63500000000001
 20
102.7859999999999
 30
0.0
 11
116.4229999999999
 21
102.194
 31
0.0
  0
LINE
  5
1BF
  8
0
 62
     7
 10
116.4229999999999
 20
102.194
 30
0.0
 11
118.63500000000001
 21
101.601
 31
0.0
  0
LINE
  5
1C0
  8
0
 62
     7
 10
118.63500000000001
 20
101.601
 30
0.0
 11
118.63500000000001
 21
102.7859999999999
 31
0.0
  0
LINE
  5
1C1
  8
0
 62
     7
 10
123.5449999999999
 20
101.6149999999999
 30
0.0
 11
125.756
 21
102.208
 31
0.0
  0
LINE
  5
1C2
  8
0
 62
     7
 10
125.756
 20
102.208
 30
0.0
 11
123.5449999999999
 21
102.801
 31
0.0
  0
LINE
  5
1C3
  8
0
 62
     7
 10
123.5449999999999
 20
102.801
 30
0.0
 11
123.5449999999999
 21
101.6149999999999
 31
0.0
  0
LINE
  5
1C4
  8
0
 62
     7
 10
116.4229999999999
 20
102.194
 30
0.0
 11
125.756
 21
102.194
 31
0.0
  0
LINE
  5
1C5
  8
0
 62
     7
 10
89.881399999999985
 20
150.3839999999999
 30
0.0
 11
81.705100000000002
 21
147.4079999999999
 31
0.0
  0
LINE
  5
1C6
  8
0
 62
     7
 10
94.579800000000006
 20
151.39400000000001
 30
0.0
 11
94.579800000000006
 21
138.393
 31
0.0
  0
LINE
  5
1C7
  8
0
 62
     7
 10
118.879
 20
138.42400000000001
 30
0.0
 11
121.09
 21
139.01599999999991
 31
0.0
  0
LINE
  5
1C8
  8
0
 62
     7
 10
121.09
 20
139.01599999999991
 30
0.0
 11
118.879
 21
139.60900000000001
 31
0.0
  0
LINE
  5
1C9
  8
0
 62
     7
 10
118.879
 20
139.60900000000001
 30
0.0
 11
118.879
 21
138.42400000000001
 31
0.0
  0
LINE
  5
1CA
  8
0
 62
     7
 10
92.334000000000003
 20
138.55699999999999
 30
0.0
 11
94.579800000000006
 21
139.00200000000001
 31
0.0
  0
LINE
  5
1CB
  8
0
 62
     7
 10
94.579800000000006
 20
139.00200000000001
 30
0.0
 11
92.412499999999994
 21
139.74000000000001
 31
0.0
  0
LINE
  5
1CC
  8
0
 62
     7
 10
92.412499999999994
 20
139.74000000000001
 30
0.0
 11
92.334000000000003
 21
138.55699999999999
 31
0.0
  0
LINE
  5
1CD
  8
0
 62
     7
 10
83.747900000000001
 20
145.864
 30
0.0
 11
82.273399999999995
 21
147.61500000000001
 31
0.0
  0
LINE
  5
1CE
  8
0
 62
     7
 10
82.273399999999995
 20
147.61500000000001
 30
0.0
 11
82.674400000000006
 21
145.36199999999991
 31
0.0
  0
LINE
  5
1CF
  8
0
 62
     7
 10
82.674400000000006
 20
145.36199999999991
 30
0.0
 11
83.747900000000001
 21
145.864
 31
0.0
  0
LINE
  5
1D0
  8
0
 62
     7
 10
96.791300000000007
 20
139.59399999999991
 30
0.0
 11
94.579800000000006
 21
139.00200000000001
 31
0.0
  0
LINE
  5
1D1
  8
0
 62
     7
 10
94.579800000000006
 20
139.00200000000001
 30
0.0
 11
96.791300000000007
 21
138.40899999999999
 31
0.0
  0
LINE
  5
1D2
  8
0
 62
     7
 10
96.791300000000007
 20
138.40899999999999
 30
0.0
 11
96.791300000000007
 21
139.59399999999991
 31
0.0
  0
LINE
  5
1D3
  8
0
 62
     7
 10
121.09
 20
139.00200000000001
 30
0.0
 11
94.579800000000006
 21
139.00200000000001
 31
0.0
  0
LINE
  5
1D4
  8
0
 62
     7
 10
111.00700000000001
 20
83.717699999999994
 30
0.0
 11
96.172899999999998
 21
83.717699999999994
 31
0.0
  0
LINE
  5
1D5
  8
0
 62
     7
 10
116.4379999999999
 20
88.239099999999993
 30
0.0
 11
117.59699999999999
 21
90.213200000000015
 31
0.0
  0
LINE
  5
1D6
  8
0
 62
     7
 10
117.59699999999999
 20
90.213200000000015
 30
0.0
 11
115.60599999999999
 21
89.083200000000005
 31
0.0
  0
LINE
  5
1D7
  8
0
 62
     7
 10
115.60599999999999
 20
89.083200000000005
 30
0.0
 11
116.4379999999999
 21
88.239099999999993
 31
0.0
  0
LINE
  5
1D8
  8
0
 62
     7
 10
117.59699999999999
 20
90.213200000000015
 30
0.0
 11
111.00700000000001
 21
83.717699999999994
 31
0.0
  0
LINE
  5
1D9
  8
0
 62
     7
 10
127.09
 20
106.0599999999999
 30
0.0
 11
127.09
 21
105.727
 31
0.0
  0
LINE
  5
1DA
  8
0
 62
     7
 10
127.09
 20
106.0599999999999
 30
0.0
 11
115.09
 21
106.0599999999999
 31
0.0
  0
LINE
  5
1DB
  8
0
 62
     7
 10
127.09
 20
105.727
 30
0.0
 11
115.09
 21
105.727
 31
0.0
  0
LINE
  5
1DC
  8
0
 62
     7
 10
115.09
 20
106.0599999999999
 30
0.0
 11
115.09
 21
105.727
 31
0.0
  0
LINE
  5
1DD
  8
0
 62
     7
 10
123.401
 20
92.060100000000006
 30
0.0
 11
123.401
 21
93.993499999999997
 31
0.0
  0
LINE
  5
1DE
  8
0
 62
     7
 10
118.78100000000001
 20
92.060100000000006
 30
0.0
 11
118.78100000000001
 21
93.993499999999997
 31
0.0
  0
LINE
  5
1DF
  8
0
 62
     7
 10
117.59699999999999
 20
92.060100000000006
 30
0.0
 11
124.58199999999999
 21
92.060100000000006
 31
0.0
  0
LINE
  5
1E0
  8
0
 62
     7
 10
117.7729999999999
 20
93.993499999999997
 30
0.0
 11
117.59699999999999
 21
93.993499999999997
 31
0.0
  0
LINE
  5
1E1
  8
0
 62
     7
 10
118.215
 20
93.993499999999997
 30
0.0
 11
117.7729999999999
 21
93.993499999999997
 31
0.0
  0
LINE
  5
1E2
  8
0
 62
     7
 10
118.59099999999999
 20
93.993499999999997
 30
0.0
 11
118.215
 21
93.993499999999997
 31
0.0
  0
LINE
  5
1E3
  8
0
 62
     7
 10
118.84099999999999
 20
93.993499999999997
 30
0.0
 11
118.59099999999999
 21
93.993499999999997
 31
0.0
  0
LINE
  5
1E4
  8
0
 62
     7
 10
120.0709999999999
 20
93.993499999999997
 30
0.0
 11
118.84099999999999
 21
93.993499999999997
 31
0.0
  0
LINE
  5
1E5
  8
0
 62
     7
 10
120.395
 20
93.993499999999997
 30
0.0
 11
120.0709999999999
 21
93.993499999999997
 31
0.0
  0
LINE
  5
1E6
  8
0
 62
     7
 10
120.84
 20
93.993499999999997
 30
0.0
 11
120.395
 21
93.993499999999997
 31
0.0
  0
LINE
  5
1E7
  8
0
 62
     7
 10
121.34
 20
93.993499999999997
 30
0.0
 11
120.84
 21
93.993499999999997
 31
0.0
  0
LINE
  5
1E8
  8
0
 62
     7
 10
121.78400000000001
 20
93.993499999999997
 30
0.0
 11
121.34
 21
93.993499999999997
 31
0.0
  0
LINE
  5
1E9
  8
0
 62
     7
 10
122.1079999999999
 20
93.993499999999997
 30
0.0
 11
121.78400000000001
 21
93.993499999999997
 31
0.0
  0
LINE
  5
1EA
  8
0
 62
     7
 10
123.3389999999999
 20
93.993499999999997
 30
0.0
 11
122.1079999999999
 21
93.993499999999997
 31
0.0
  0
LINE
  5
1EB
  8
0
 62
     7
 10
123.58799999999989
 20
93.993499999999997
 30
0.0
 11
123.3389999999999
 21
93.993499999999997
 31
0.0
  0
LINE
  5
1EC
  8
0
 62
     7
 10
123.964
 20
93.993499999999997
 30
0.0
 11
123.58799999999989
 21
93.993499999999997
 31
0.0
  0
LINE
  5
1ED
  8
0
 62
     7
 10
124.407
 20
93.993499999999997
 30
0.0
 11
123.964
 21
93.993499999999997
 31
0.0
  0
LINE
  5
1EE
  8
0
 62
     7
 10
124.58199999999999
 20
93.993499999999997
 30
0.0
 11
124.407
 21
93.993499999999997
 31
0.0
  0
LINE
  5
1EF
  8
0
 62
     7
 10
125.706
 20
92.060100000000006
 30
0.0
 11
116.473
 21
92.060100000000006
 31
0.0
  0
LINE
  5
1F0
  8
0
 62
     7
 10
117.7729999999999
 20
93.993499999999997
 30
0.0
 11
116.473
 21
93.993499999999997
 31
0.0
  0
LINE
  5
1F1
  8
0
 62
     7
 10
118.215
 20
93.993499999999997
 30
0.0
 11
117.7729999999999
 21
93.993499999999997
 31
0.0
  0
LINE
  5
1F2
  8
0
 62
     7
 10
118.59099999999999
 20
93.993499999999997
 30
0.0
 11
118.215
 21
93.993499999999997
 31
0.0
  0
LINE
  5
1F3
  8
0
 62
     7
 10
118.84099999999999
 20
93.993499999999997
 30
0.0
 11
118.59099999999999
 21
93.993499999999997
 31
0.0
  0
LINE
  5
1F4
  8
0
 62
     7
 10
120.0709999999999
 20
93.993499999999997
 30
0.0
 11
118.84099999999999
 21
93.993499999999997
 31
0.0
  0
LINE
  5
1F5
  8
0
 62
     7
 10
120.395
 20
93.993499999999997
 30
0.0
 11
120.0709999999999
 21
93.993499999999997
 31
0.0
  0
LINE
  5
1F6
  8
0
 62
     7
 10
120.84
 20
93.993499999999997
 30
0.0
 11
120.395
 21
93.993499999999997
 31
0.0
  0
LINE
  5
1F7
  8
0
 62
     7
 10
121.34
 20
93.993499999999997
 30
0.0
 11
120.84
 21
93.993499999999997
 31
0.0
  0
LINE
  5
1F8
  8
0
 62
     7
 10
121.78400000000001
 20
93.993499999999997
 30
0.0
 11
121.34
 21
93.993499999999997
 31
0.0
  0
LINE
  5
1F9
  8
0
 62
     7
 10
122.1079999999999
 20
93.993499999999997
 30
0.0
 11
121.78400000000001
 21
93.993499999999997
 31
0.0
  0
LINE
  5
1FA
  8
0
 62
     7
 10
123.3389999999999
 20
93.993499999999997
 30
0.0
 11
122.1079999999999
 21
93.993499999999997
 31
0.0
  0
LINE
  5
1FB
  8
0
 62
     7
 10
123.58799999999989
 20
93.993499999999997
 30
0.0
 11
123.3389999999999
 21
93.993499999999997
 31
0.0
  0
LINE
  5
1FC
  8
0
 62
     7
 10
123.964
 20
93.993499999999997
 30
0.0
 11
123.58799999999989
 21
93.993499999999997
 31
0.0
  0
LINE
  5
1FD
  8
0
 62
     7
 10
124.407
 20
93.993499999999997
 30
0.0
 11
123.964
 21
93.993499999999997
 31
0.0
  0
LINE
  5
1FE
  8
0
 62
     7
 10
125.706
 20
93.993499999999997
 30
0.0
 11
124.407
 21
93.993499999999997
 31
0.0
  0
LINE
  5
1FF
  8
0
 62
     7
 10
125.706
 20
92.060100000000006
 30
0.0
 11
125.706
 21
93.993499999999997
 31
0.0
  0
LINE
  5
200
  8
0
 62
     7
 10
116.473
 20
92.060100000000006
 30
0.0
 11
116.473
 21
93.993499999999997
 31
0.0
  0
LINE
  5
201
  8
0
 62
     7
 10
120.669
 20
94.926399999999987
 30
0.0
 11
120.48699999999999
 21
94.676299999999983
 31
0.0
  0
LINE
  5
202
  8
0
 62
     7
 10
121.509
 20
94.926399999999987
 30
0.0
 11
121.691
 21
94.676299999999983
 31
0.0
  0
LINE
  5
203
  8
0
 62
     7
 10
118.136
 20
94.551599999999993
 30
0.0
 11
119.06399999999989
 21
94.926399999999987
 31
0.0
  0
LINE
  5
204
  8
0
 62
     7
 10
118.59099999999999
 20
93.993499999999997
 30
0.0
 11
118.501
 21
94.096100000000007
 31
0.0
  0
LINE
  5
205
  8
0
 62
     7
 10
123.122
 20
94.926399999999987
 30
0.0
 11
123.31999999999989
 21
94.797600000000003
 31
0.0
  0
LINE
  5
206
  8
0
 62
     7
 10
121.509
 20
94.926399999999987
 30
0.0
 11
120.669
 21
94.926399999999987
 31
0.0
  0
LINE
  5
207
  8
0
 62
     7
 10
121.672
 20
94.105800000000016
 30
0.0
 11
121.78400000000001
 21
93.993499999999997
 31
0.0
  0
LINE
  5
208
  8
0
 62
     7
 10
123.58799999999989
 20
93.993499999999997
 30
0.0
 11
123.67399999999989
 21
94.098200000000006
 31
0.0
  0
LINE
  5
209
  8
0
 62
     7
 10
119.3279999999999
 20
94.393100000000004
 30
0.0
 11
118.84099999999999
 21
93.993499999999997
 31
0.0
  0
LINE
  5
20A
  8
0
 62
     7
 10
120.0709999999999
 20
93.993499999999997
 30
0.0
 11
119.6609999999999
 21
94.393100000000004
 31
0.0
  0
LINE
  5
20B
  8
0
 62
     7
 10
120.395
 20
93.993499999999997
 30
0.0
 11
120.50700000000001
 21
94.105800000000016
 31
0.0
  0
LINE
  5
20C
  8
0
 62
     7
 10
122.5179999999999
 20
94.393100000000004
 30
0.0
 11
122.1079999999999
 21
93.993499999999997
 31
0.0
  0
LINE
  5
20D
  8
0
 62
     7
 10
123.3389999999999
 20
93.993499999999997
 30
0.0
 11
122.852
 21
94.393100000000004
 31
0.0
  0
LINE
  5
20E
  8
0
 62
     7
 10
123.3389999999999
 20
93.993499999999997
 30
0.0
 11
123.58799999999989
 21
93.993499999999997
 31
0.0
  0
LINE
  5
20F
  8
0
 62
     7
 10
121.78400000000001
 20
93.993499999999997
 30
0.0
 11
122.1079999999999
 21
93.993499999999997
 31
0.0
  0
LINE
  5
210
  8
0
 62
     7
 10
118.84099999999999
 20
93.993499999999997
 30
0.0
 11
118.59099999999999
 21
93.993499999999997
 31
0.0
  0
LINE
  5
211
  8
0
 62
     7
 10
120.395
 20
93.993499999999997
 30
0.0
 11
120.0709999999999
 21
93.993499999999997
 31
0.0
  0
LINE
  5
212
  8
0
 62
     7
 10
127.38
 20
94.396600000000007
 30
0.0
 11
127.6729999999999
 21
93.993499999999997
 31
0.0
  0
LINE
  5
213
  8
0
 62
     7
 10
126.7139999999999
 20
93.993499999999997
 30
0.0
 11
127.262
 21
94.396600000000007
 31
0.0
  0
LINE
  5
214
  8
0
 62
     7
 10
125.634
 20
94.396600000000007
 30
0.0
 11
126.43000000000001
 21
93.993499999999997
 31
0.0
  0
LINE
  5
215
  8
0
 62
     7
 10
124.407
 20
93.993499999999997
 30
0.0
 11
125.384
 21
94.396600000000007
 31
0.0
  0
LINE
  5
216
  8
0
 62
     7
 10
122.852
 20
94.393100000000004
 30
0.0
 11
123.964
 21
93.993499999999997
 31
0.0
  0
LINE
  5
217
  8
0
 62
     7
 10
124.0439999999999
 20
94.551599999999993
 30
0.0
 11
122.93899999999989
 21
94.926399999999987
 31
0.0
  0
LINE
  5
218
  8
0
 62
     7
 10
125.31100000000001
 20
94.926399999999987
 30
0.0
 11
124.33
 21
94.551599999999993
 31
0.0
  0
LINE
  5
219
  8
0
 62
     7
 10
126.4829999999999
 20
94.551599999999993
 30
0.0
 11
125.7029999999999
 21
94.926399999999987
 31
0.0
  0
LINE
  5
21A
  8
0
 62
     7
 10
127.22499999999989
 20
94.926399999999987
 30
0.0
 11
126.6669999999999
 21
94.551599999999993
 31
0.0
  0
LINE
  5
21B
  8
0
 62
     7
 10
127.756
 20
94.526799999999994
 30
0.0
 11
127.411
 21
94.926399999999987
 31
0.0
  0
LINE
  5
21C
  8
0
 62
     7
 10
116.795
 20
94.396600000000007
 30
0.0
 11
117.7729999999999
 21
93.993499999999997
 31
0.0
  0
LINE
  5
21D
  8
0
 62
     7
 10
115.7489999999999
 20
93.993499999999997
 30
0.0
 11
116.54600000000001
 21
94.396600000000007
 31
0.0
  0
LINE
  5
21E
  8
0
 62
     7
 10
114.917
 20
94.396600000000007
 30
0.0
 11
115.4649999999999
 21
93.993499999999997
 31
0.0
  0
LINE
  5
21F
  8
0
 62
     7
 10
115.51299999999991
 20
94.551599999999993
 30
0.0
 11
114.95399999999999
 21
94.926399999999987
 31
0.0
  0
LINE
  5
220
  8
0
 62
     7
 10
114.79899999999989
 20
94.396600000000007
 30
0.0
 11
114.50700000000001
 21
93.993499999999997
 31
0.0
  0
LINE
  5
221
  8
0
 62
     7
 10
114.7679999999999
 20
94.926399999999987
 30
0.0
 11
114.4229999999999
 21
94.526799999999994
 31
0.0
  0
LINE
  5
222
  8
0
 62
     7
 10
116.476
 20
94.926399999999987
 30
0.0
 11
115.697
 21
94.551599999999993
 31
0.0
  0
LINE
  5
223
  8
0
 62
     7
 10
117.8489999999999
 20
94.551599999999993
 30
0.0
 11
116.8679999999999
 21
94.926399999999987
 31
0.0
  0
LINE
  5
224
  8
0
 62
     7
 10
127.262
 20
94.396600000000007
 30
0.0
 11
127.38
 21
94.396600000000007
 31
0.0
  0
LINE
  5
225
  8
0
 62
     7
 10
125.384
 20
94.396600000000007
 30
0.0
 11
125.634
 21
94.396600000000007
 31
0.0
  0
LINE
  5
226
  8
0
 62
     7
 10
114.917
 20
94.396600000000007
 30
0.0
 11
114.79899999999989
 21
94.396600000000007
 31
0.0
  0
LINE
  5
227
  8
0
 62
     7
 10
116.795
 20
94.396600000000007
 30
0.0
 11
116.54600000000001
 21
94.396600000000007
 31
0.0
  0
LINE
  5
228
  8
0
 62
     7
 10
127.22499999999989
 20
94.926399999999987
 30
0.0
 11
127.411
 21
94.926399999999987
 31
0.0
  0
LINE
  5
229
  8
0
 62
     7
 10
125.31100000000001
 20
94.926399999999987
 30
0.0
 11
125.7029999999999
 21
94.926399999999987
 31
0.0
  0
LINE
  5
22A
  8
0
 62
     7
 10
114.95399999999999
 20
94.926399999999987
 30
0.0
 11
114.7679999999999
 21
94.926399999999987
 31
0.0
  0
LINE
  5
22B
  8
0
 62
     7
 10
116.8679999999999
 20
94.926399999999987
 30
0.0
 11
116.476
 21
94.926399999999987
 31
0.0
  0
LINE
  5
22C
  8
0
 62
     7
 10
122.371
 20
94.926399999999987
 30
0.0
 11
123.1149999999999
 21
94.926399999999987
 31
0.0
  0
LINE
  5
22D
  8
0
 62
     7
 10
122.5179999999999
 20
94.393100000000004
 30
0.0
 11
122.852
 21
94.393100000000004
 31
0.0
  0
LINE
  5
22E
  8
0
 62
     7
 10
119.3279999999999
 20
94.393100000000004
 30
0.0
 11
118.215
 21
93.993499999999997
 31
0.0
  0
LINE
  5
22F
  8
0
 62
     7
 10
126.4829999999999
 20
94.551599999999993
 30
0.0
 11
126.6669999999999
 21
94.551599999999993
 31
0.0
  0
LINE
  5
230
  8
0
 62
     7
 10
124.0439999999999
 20
94.551599999999993
 30
0.0
 11
124.33
 21
94.551599999999993
 31
0.0
  0
LINE
  5
231
  8
0
 62
     7
 10
117.8489999999999
 20
94.551599999999993
 30
0.0
 11
118.136
 21
94.551599999999993
 31
0.0
  0
LINE
  5
232
  8
0
 62
     7
 10
115.697
 20
94.551599999999993
 30
0.0
 11
115.51299999999991
 21
94.551599999999993
 31
0.0
  0
LINE
  5
233
  8
0
 62
     7
 10
127.756
 20
93.993499999999997
 30
0.0
 11
127.6729999999999
 21
93.993499999999997
 31
0.0
  0
LINE
  5
234
  8
0
 62
     7
 10
124.407
 20
93.993499999999997
 30
0.0
 11
123.964
 21
93.993499999999997
 31
0.0
  0
LINE
  5
235
  8
0
 62
     7
 10
126.7139999999999
 20
93.993499999999997
 30
0.0
 11
126.43000000000001
 21
93.993499999999997
 31
0.0
  0
LINE
  5
236
  8
0
 62
     7
 10
114.50700000000001
 20
93.993499999999997
 30
0.0
 11
114.4229999999999
 21
93.993499999999997
 31
0.0
  0
LINE
  5
237
  8
0
 62
     7
 10
115.7489999999999
 20
93.993499999999997
 30
0.0
 11
115.4649999999999
 21
93.993499999999997
 31
0.0
  0
LINE
  5
238
  8
0
 62
     7
 10
118.215
 20
93.993499999999997
 30
0.0
 11
117.7729999999999
 21
93.993499999999997
 31
0.0
  0
LINE
  5
239
  8
0
 62
     7
 10
122.5179999999999
 20
94.393100000000004
 30
0.0
 11
121.34
 21
93.993499999999997
 31
0.0
  0
LINE
  5
23A
  8
0
 62
     7
 10
122.431
 20
94.926399999999987
 30
0.0
 11
121.252
 21
94.526799999999994
 31
0.0
  0
LINE
  5
23B
  8
0
 62
     7
 10
120.84
 20
93.993499999999997
 30
0.0
 11
119.65000000000001
 21
94.396600000000007
 31
0.0
  0
LINE
  5
23C
  8
0
 62
     7
 10
120.9279999999999
 20
94.526799999999994
 30
0.0
 11
119.7489999999999
 21
94.926399999999987
 31
0.0
  0
LINE
  5
23D
  8
0
 62
     7
 10
119.6609999999999
 20
94.393100000000004
 30
0.0
 11
119.3279999999999
 21
94.393100000000004
 31
0.0
  0
LINE
  5
23E
  8
0
 62
     7
 10
121.252
 20
94.526799999999994
 30
0.0
 11
120.9279999999999
 21
94.526799999999994
 31
0.0
  0
LINE
  5
23F
  8
0
 62
     7
 10
119.8069999999999
 20
94.926399999999987
 30
0.0
 11
119.06399999999989
 21
94.926399999999987
 31
0.0
  0
LINE
  5
240
  8
0
 62
     7
 10
121.34
 20
93.993499999999997
 30
0.0
 11
120.84
 21
93.993499999999997
 31
0.0
  0
LINE
  5
241
  8
0
 62
     7
 10
127.756
 20
94.526799999999994
 30
0.0
 11
127.756
 21
93.993499999999997
 31
0.0
  0
LINE
  5
242
  8
0
 62
     7
 10
114.4229999999999
 20
94.526799999999994
 30
0.0
 11
114.4229999999999
 21
93.993499999999997
 31
0.0
  0
LINE
  5
243
  8
0
 62
     7
 10
101.956
 20
151.31999999999991
 30
0.0
 11
99.732699999999994
 21
157.42899999999989
 31
0.0
  0
ARC
  5
244
  8
0
 62
     7
 10
93.689293999999975
 20
155.0452469999999
 30
0.0
 40
0.172529
 50
111.932661
 51
198.08415899999989
  0
ARC
  5
245
  8
0
 62
     7
 10
95.794723000000005
 20
149.26230100000001
 30
0.0
 40
0.173251
 50
202.264185
 51
287.90458399999989
  0
LINE
  5
246
  8
0
 62
     7
 10
101.956
 20
151.31999999999991
 30
0.0
 11
95.847999999999985
 21
149.09700000000001
 31
0.0
  0
LINE
  5
247
  8
0
 62
     7
 10
99.732699999999994
 20
157.42899999999989
 30
0.0
 11
93.624899999999997
 21
155.20500000000001
 31
0.0
  0
LINE
  5
248
  8
0
 62
     7
 10
95.634399999999985
 20
149.197
 30
0.0
 11
93.525299999999987
 21
154.99199999999999
 31
0.0
  0
LINE
  5
249
  8
0
 62
     7
 10
117.25700000000001
 20
168.06
 30
0.0
 11
124.9229999999999
 21
168.06
 31
0.0
  0
ARC
  5
24A
  8
0
 62
     7
 10
121.0896709999999
 20
184.710508
 30
0.0
 40
16.650459999999999
 50
264.61228899999998
 51
275.38773099999997
  0
ARC
  5
24B
  8
0
 62
     7
 10
124.13067599999999
 20
172.370859
 30
0.0
 40
4.3106390000000001
 50
259.41238900000002
 51
280.58763099999999
  0
ARC
  5
24C
  8
0
 62
     7
 10
118.048321
 20
172.36533499999999
 30
0.0
 40
4.3051459999999988
 50
259.40338800000001
 51
280.59663199999989
  0
LINE
  5
24D
  8
0
 62
     7
 10
118.84
 20
168.13399999999999
 30
0.0
 11
118.84
 21
168.1929999999999
 31
0.0
  0
LINE
  5
24E
  8
0
 62
     7
 10
119.526
 20
168.13399999999999
 30
0.0
 11
119.526
 21
168.1929999999999
 31
0.0
  0
LINE
  5
24F
  8
0
 62
     7
 10
123.3389999999999
 20
168.13399999999999
 30
0.0
 11
123.3389999999999
 21
168.1929999999999
 31
0.0
  0
LINE
  5
250
  8
0
 62
     7
 10
122.65299999999991
 20
168.13399999999999
 30
0.0
 11
122.65299999999991
 21
168.1929999999999
 31
0.0
  0
LINE
  5
251
  8
0
 62
     7
 10
124.9229999999999
 20
167.893
 30
0.0
 11
124.9229999999999
 21
168.1929999999999
 31
0.0
  0
LINE
  5
252
  8
0
 62
     7
 10
117.25700000000001
 20
167.893
 30
0.0
 11
117.25700000000001
 21
168.1929999999999
 31
0.0
  0
LINE
  5
253
  8
0
 62
     7
 10
117.104
 20
167.893
 30
0.0
 11
125.07599999999999
 21
167.893
 31
0.0
  0
ARC
  5
254
  8
0
 62
     7
 10
125.5835009999999
 20
175.2205779999999
 30
0.0
 40
0.173036
 50
2.047461999999999
 51
87.952528000000015
  0
ARC
  5
255
  8
0
 62
     7
 10
116.595832
 20
175.22058699999999
 30
0.0
 40
0.173027
 50
92.044578000000001
 51
177.9553919999999
  0
LINE
  5
256
  8
0
 62
     7
 10
116.4229999999999
 20
175.06
 30
0.0
 11
116.4229999999999
 21
175.227
 31
0.0
  0
LINE
  5
257
  8
0
 62
     7
 10
125.626
 20
175.06
 30
0.0
 11
116.4229999999999
 21
175.06
 31
0.0
  0
LINE
  5
258
  8
0
 62
     7
 10
125.756
 20
175.06
 30
0.0
 11
125.626
 21
175.06
 31
0.0
  0
LINE
  5
259
  8
0
 62
     7
 10
125.756
 20
175.06
 30
0.0
 11
125.756
 21
175.227
 31
0.0
  0
LINE
  5
25A
  8
0
 62
     7
 10
125.59
 20
175.39400000000001
 30
0.0
 11
116.59
 21
175.39400000000001
 31
0.0
  0
LINE
  5
25B
  8
0
  6
AIGENLINE001
 62
     7
 10
89.881399999999985
 20
150.3839999999999
 30
0.0
 11
121.09
 21
161.74299999999991
 31
0.0
  0
LINE
  5
25C
  8
0
  6
AIGENLINE001
 62
     7
 10
121.09
 20
84.419200000000004
 30
0.0
 11
121.09
 21
179.00200000000001
 31
0.0
  0
ARC
  5
25D
  8
0
 62
     7
 10
56.37133399999999
 20
235.758568
 30
0.0
 40
6.8057109999999987
 50
299.86252899999999
 51
359.31641200000001
  0
ARC
  5
25E
  8
0
 62
     7
 10
56.509912999999997
 20
235.67737
 30
0.0
 40
6.6666479999999986
 50
0.00001
 51
89.999980000000008
  0
ARC
  5
25F
  8
0
 62
     7
 10
56.509914999999992
 20
235.67737
 30
0.0
 40
6.6666479999999986
 50
90.0
 51
179.99996999999991
  0
ARC
  5
260
  8
0
 62
     7
 10
56.648015000000001
 20
235.758387
 30
0.0
 40
6.805229999999999
 50
180.68213600000001
 51
240.14148499999999
  0
LINE
  5
261
  8
0
 62
     7
 10
59.509900000000002
 20
215.30000000000001
 30
0.0
 11
59.509900000000002
 21
215.00399999999999
 31
0.0
  0
LINE
  5
262
  8
0
 62
     7
 10
53.510100000000001
 20
215.30000000000001
 30
0.0
 11
53.510100000000001
 21
215.00399999999999
 31
0.0
  0
LINE
  5
263
  8
0
 62
     7
 10
59.698
 20
215.505
 30
0.0
 11
59.759999999999991
 21
215.71700000000001
 31
0.0
  0
LINE
  5
264
  8
0
 62
     7
 10
59.513899999999992
 20
215.303
 30
0.0
 11
59.698
 21
215.505
 31
0.0
  0
LINE
  5
265
  8
0
 62
     7
 10
59.213299999999997
 20
215.11500000000001
 30
0.0
 11
59.513899999999992
 21
215.303
 31
0.0
  0
LINE
  5
266
  8
0
 62
     7
 10
58.808199999999992
 20
214.95099999999991
 30
0.0
 11
59.213299999999997
 21
215.11500000000001
 31
0.0
  0
LINE
  5
267
  8
0
 62
     7
 10
58.314500000000002
 20
214.81599999999989
 30
0.0
 11
58.808199999999992
 21
214.95099999999991
 31
0.0
  0
LINE
  5
268
  8
0
 62
     7
 10
57.752899999999997
 20
214.71599999999989
 30
0.0
 11
58.314500000000002
 21
214.81599999999989
 31
0.0
  0
LINE
  5
269
  8
0
 62
     7
 10
57.144799999999996
 20
214.654
 30
0.0
 11
57.752899999999997
 21
214.71599999999989
 31
0.0
  0
LINE
  5
26A
  8
0
 62
     7
 10
56.509900000000002
 20
214.63399999999999
 30
0.0
 11
57.144799999999996
 21
214.654
 31
0.0
  0
LINE
  5
26B
  8
0
 62
     7
 10
55.8752
 20
214.654
 30
0.0
 11
56.509900000000002
 21
214.63399999999999
 31
0.0
  0
LINE
  5
26C
  8
0
 62
     7
 10
55.267099999999999
 20
214.71599999999989
 30
0.0
 11
55.8752
 21
214.654
 31
0.0
  0
LINE
  5
26D
  8
0
 62
     7
 10
54.70539999999999
 20
214.81599999999989
 30
0.0
 11
55.267099999999999
 21
214.71599999999989
 31
0.0
  0
LINE
  5
26E
  8
0
 62
     7
 10
54.21179999999999
 20
214.95099999999991
 30
0.0
 11
54.70539999999999
 21
214.81599999999989
 31
0.0
  0
LINE
  5
26F
  8
0
 62
     7
 10
53.8065
 20
215.11500000000001
 30
0.0
 11
54.21179999999999
 21
214.95099999999991
 31
0.0
  0
LINE
  5
270
  8
0
 62
     7
 10
53.506100000000004
 20
215.303
 30
0.0
 11
53.8065
 21
215.11500000000001
 31
0.0
  0
LINE
  5
271
  8
0
 62
     7
 10
53.322000000000003
 20
215.505
 30
0.0
 11
53.506100000000004
 21
215.303
 31
0.0
  0
LINE
  5
272
  8
0
 62
     7
 10
53.259999999999998
 20
215.71700000000001
 30
0.0
 11
53.322000000000003
 21
215.505
 31
0.0
  0
LINE
  5
273
  8
0
 62
     7
 10
53.259999999999998
 20
232.328
 30
0.0
 11
53.259999999999998
 21
215.71700000000001
 31
0.0
  0
LINE
  5
274
  8
0
 62
     7
 10
59.759999999999991
 20
232.328
 30
0.0
 11
59.759999999999991
 21
215.71700000000001
 31
0.0
  0
ARC
  5
275
  8
0
 62
     7
 10
56.634110999999997
 20
235.76515099999989
 30
0.0
 40
4.7915849999999987
 50
181.04970399999991
 51
249.479342
  0
ARC
  5
276
  8
0
 62
     7
 10
56.509914999999992
 20
235.67737
 30
0.0
 40
4.6666369999999997
 50
75.522110999999995
 51
165.52208099999999
  0
ARC
  5
277
  8
0
 62
     7
 10
56.511780999999999
 20
235.67734599999989
 30
0.0
 40
4.6684510000000001
 50
165.52751299999991
 51
179.99966199999989
  0
ARC
  5
278
  8
0
 62
     7
 10
56.510187000000002
 20
235.67719600000001
 30
0.0
 40
4.6664240000000001
 50
289.46986399999997
 51
19.473445000000002
  0
ARC
  5
279
  8
0
 62
     7
 10
56.446332999999989
 20
235.60801599999999
 30
0.0
 40
4.7498909999999999
 50
20.003432
 51
74.988658999999998
  0
ARC
  5
27A
  8
0
 62
     7
 10
55.453504000000002
 20
224.287677
 30
0.0
 40
0.277038
 50
182.10972899999999
 51
267.89030000000002
  0
ARC
  5
27B
  8
0
 62
     7
 10
57.566495999999987
 20
224.287677
 30
0.0
 40
0.277039
 50
272.10973699999988
 51
357.89027299999992
  0
LINE
  5
27C
  8
0
 62
     7
 10
55.443300000000001
 20
224.011
 30
0.0
 11
57.576700000000002
 21
224.011
 31
0.0
  0
ARC
  5
27D
  8
0
 62
     7
 10
54.834564999999998
 20
230.95715499999989
 30
0.0
 40
0.342146
 50
1.0488399999999991
 51
69.489866000000006
  0
ARC
  5
27E
  8
0
 62
     7
 10
58.185853000000002
 20
230.95685900000001
 30
0.0
 40
0.342569
 50
110.55825900000001
 51
178.90299399999989
  0
LINE
  5
27F
  8
0
 62
     7
 10
55.17669999999999
 20
230.96299999999991
 30
0.0
 11
55.17669999999999
 21
224.27699999999999
 31
0.0
  0
LINE
  5
280
  8
0
 62
     7
 10
57.843299999999999
 20
230.96299999999991
 30
0.0
 11
57.843299999999999
 21
224.27699999999999
 31
0.0
  0
ARC
  5
281
  8
0
 62
     7
 10
56.509999000000001
 20
235.67728500000001
 30
0.0
 40
4.666671
 50
0.001067
 51
90.001037999999994
  0
ARC
  5
282
  8
0
 62
     7
 10
56.509914999999992
 20
235.67737099999999
 30
0.0
 40
4.6665839999999994
 50
90.0
 51
179.99996999999991
  0
ARC
  5
283
  8
0
 62
     7
 10
56.509999000000001
 20
235.67728500000001
 30
0.0
 40
4.6666689999999997
 50
179.9989129999999
 51
269.99896200000001
  0
ARC
  5
284
  8
0
 62
     7
 10
56.509912999999997
 20
235.67737199999999
 30
0.0
 40
4.6667569999999987
 50
270.00002000000001
 51
359.99998999999991
  0
LINE
  5
285
  8
0
 62
     7
 10
68.713200000000001
 20
235.67699999999999
 30
0.0
 11
73.510000000000005
 21
235.67699999999999
 31
0.0
  0
ARC
  5
286
  8
0
 62
     7
 10
56.317501999999998
 20
235.75693599999991
 30
0.0
 40
16.192592999999992
 50
315.282352
 51
359.71846699999992
  0
ARC
  5
287
  8
0
 62
     7
 10
56.431227
 20
235.86766399999999
 30
0.0
 40
16.190470000000001
 50
270.27847300000002
 51
314.72072700000001
  0
LINE
  5
288
  8
0
 62
     7
 10
71.469300000000004
 20
218.48599999999999
 30
0.0
 11
89.429199999999994
 21
218.48599999999999
 31
0.0
  0
LINE
  5
289
  8
0
 62
     7
 10
69.187600000000003
 20
222.53099999999989
 30
0.0
 11
67.389600000000002
 21
223.9489999999999
 31
0.0
  0
LINE
  5
28A
  8
0
 62
     7
 10
67.389600000000002
 20
223.9489999999999
 30
0.0
 11
68.238
 21
221.822
 31
0.0
  0
LINE
  5
28B
  8
0
 62
     7
 10
68.238
 20
221.822
 30
0.0
 11
69.187600000000003
 21
222.53099999999989
 31
0.0
  0
LINE
  5
28C
  8
0
 62
     7
 10
58.692100000000003
 20
220.36999999999989
 30
0.0
 11
56.509900000000002
 21
219.67699999999999
 31
0.0
  0
LINE
  5
28D
  8
0
 62
     7
 10
56.509900000000002
 20
219.67699999999999
 30
0.0
 11
58.746299999999991
 21
219.18599999999989
 31
0.0
  0
LINE
  5
28E
  8
0
 62
     7
 10
58.746299999999991
 20
219.18599999999989
 30
0.0
 11
58.692100000000003
 21
220.36999999999989
 31
0.0
  0
LINE
  5
28F
  8
0
 62
     7
 10
72.935000000000002
 20
233.428
 30
0.0
 11
72.509900000000002
 21
235.678
 31
0.0
  0
LINE
  5
290
  8
0
 62
     7
 10
72.509900000000002
 20
235.678
 30
0.0
 11
71.753
 21
233.51599999999999
 31
0.0
  0
LINE
  5
291
  8
0
 62
     7
 10
71.753
 20
233.51599999999999
 30
0.0
 11
72.935000000000002
 21
233.428
 31
0.0
  0
LINE
  5
292
  8
0
 62
     7
 10
67.389600000000002
 20
223.9489999999999
 30
0.0
 11
71.469300000000004
 21
218.48599999999999
 31
0.0
  0
ARC
  5
293
  8
0
 62
     7
 10
59.249952999999998
 20
215.45971900000001
 30
0.0
 40
0.510839
 50
313.38905699999998
 51
356.88586299999992
  0
ARC
  5
294
  8
0
 62
     7
 10
58.529882999999991
 20
216.18515699999989
 30
0.0
 40
1.532872999999999
 50
293.42312199999998
 51
314.32133900000002
  0
ARC
  5
295
  8
0
 62
     7
 10
57.507606999999993
 20
218.37667799999991
 30
0.0
 40
3.950739
 50
283.35601999999989
 51
294.39288499999998
  0
ARC
  5
296
  8
0
 62
     7
 10
56.755913999999997
 20
221.40103099999999
 30
0.0
 40
7.0670119999999992
 50
276.16079400000001
 51
283.62140899999991
  0
ARC
  5
297
  8
0
 62
     7
 10
56.51372099999999
 20
223.54445299999989
 30
0.0
 40
9.2240539999999989
 50
269.97636399999999
 51
276.2276589999999
  0
ARC
  5
298
  8
0
 62
     7
 10
56.493082000000001
 20
223.300974
 30
0.0
 40
8.9805890000000002
 50
263.68755499999992
 51
270.10739999999993
  0
ARC
  5
299
  8
0
 62
     7
 10
56.235588999999997
 20
221.23759899999999
 30
0.0
 40
6.9014740000000003
 50
256.28900499999992
 51
263.92883099999989
  0
ARC
  5
29A
  8
0
 62
     7
 10
55.510418999999992
 20
218.37090299999991
 30
0.0
 40
3.9446650000000001
 50
245.59861000000001
 51
256.65252400000003
  0
ARC
  5
29B
  8
0
 62
     7
 10
54.495404000000001
 20
216.1930319999999
 30
0.0
 40
1.5422020000000001
 50
225.742591
 51
246.51298799999989
  0
ARC
  5
29C
  8
0
 62
     7
 10
53.767932999999999
 20
215.45873900000001
 30
0.0
 40
0.508676
 50
183.01692199999991
 51
226.70819800000001
  0
LINE
  5
29D
  8
0
 62
     7
 10
59.759999999999991
 20
209.167
 30
0.0
 11
59.759999999999991
 21
215.43199999999999
 31
0.0
  0
LINE
  5
29E
  8
0
 62
     7
 10
53.259999999999998
 20
209.167
 30
0.0
 11
53.259999999999998
 21
215.43199999999999
 31
0.0
  0
ARC
  5
29F
  8
0
 62
     7
 10
59.249952999999998
 20
209.19511799999989
 30
0.0
 40
0.510839
 50
313.38905699999998
 51
356.88586299999992
  0
ARC
  5
2A0
  8
0
 62
     7
 10
58.529882999999991
 20
209.920556
 30
0.0
 40
1.532872999999999
 50
293.42312199999998
 51
314.32133900000002
  0
ARC
  5
2A1
  8
0
 62
     7
 10
57.507606999999993
 20
212.112077
 30
0.0
 40
3.950739
 50
283.35601999999989
 51
294.39288499999998
  0
ARC
  5
2A2
  8
0
 62
     7
 10
56.755913999999997
 20
215.13642899999999
 30
0.0
 40
7.0670119999999992
 50
276.16079400000001
 51
283.62140899999991
  0
ARC
  5
2A3
  8
0
 62
     7
 10
56.51372099999999
 20
217.27985200000001
 30
0.0
 40
9.2240539999999989
 50
269.97636399999999
 51
276.2276589999999
  0
ARC
  5
2A4
  8
0
 62
     7
 10
56.493082000000001
 20
217.036372
 30
0.0
 40
8.9805890000000002
 50
263.68755499999992
 51
270.10739999999993
  0
ARC
  5
2A5
  8
0
 62
     7
 10
56.235588999999997
 20
214.97299799999999
 30
0.0
 40
6.9014740000000003
 50
256.28900499999992
 51
263.92883099999989
  0
ARC
  5
2A6
  8
0
 62
     7
 10
55.510418999999992
 20
212.106302
 30
0.0
 40
3.9446650000000001
 50
245.59861000000001
 51
256.65252400000003
  0
ARC
  5
2A7
  8
0
 62
     7
 10
54.495404000000001
 20
209.92843099999999
 30
0.0
 40
1.5422020000000001
 50
225.742591
 51
246.51298799999989
  0
ARC
  5
2A8
  8
0
 62
     7
 10
53.767932999999999
 20
209.1941379999999
 30
0.0
 40
0.508676
 50
183.01692199999991
 51
226.70819800000001
  0
LINE
  5
2A9
  8
0
  6
AIGENLINE001
 62
     7
 10
44.843400000000003
 20
235.67699999999999
 30
0.0
 11
68.176599999999993
 21
235.67699999999999
 31
0.0
  0
LINE
  5
2AA
  8
0
  6
AIGENLINE001
 62
     7
 10
56.509900000000002
 20
247.34399999999999
 30
0.0
 11
56.509900000000002
 21
203.0559999999999
 31
0.0
  0
ARC
  5
2AB
  8
0
 62
     7
 10
56.509912999999997
 20
235.67737099999999
 30
0.0
 40
4.500013
 50
0.00001
 51
89.999980000000008
  0
ARC
  5
2AC
  8
0
 62
     7
 10
56.510001000000003
 20
235.67745699999989
 30
0.0
 40
4.4999269999999987
 50
90.001097000000016
 51
180.00110699999999
  0
ARC
  5
2AD
  8
0
 62
     7
 10
56.509999000000001
 20
235.67728500000001
 30
0.0
 40
4.4999250000000002
 50
179.998874
 51
269.99892299999988
  0
ARC
  5
2AE
  8
0
 62
     7
 10
56.509912999999997
 20
235.67737199999999
 30
0.0
 40
4.500013
 50
270.00002000000001
 51
359.99998999999991
  0
ARC
  5
2AF
  8
0
 62
     7
 10
56.509999000000001
 20
235.67728500000001
 30
0.0
 40
4.666671
 50
0.001067
 51
90.001037999999994
  0
ARC
  5
2B0
  8
0
 62
     7
 10
56.509914999999992
 20
235.67737099999999
 30
0.0
 40
4.6665839999999994
 50
90.0
 51
179.99996999999991
  0
ARC
  5
2B1
  8
0
 62
     7
 10
56.509999000000001
 20
235.67728500000001
 30
0.0
 40
4.6666689999999997
 50
179.9989129999999
 51
269.99896200000001
  0
ARC
  5
2B2
  8
0
 62
     7
 10
56.509912999999997
 20
235.67737199999999
 30
0.0
 40
4.6667569999999987
 50
270.00002000000001
 51
359.99998999999991
  0
LINE
  5
2B3
  8
0
  6
AIGENLINE001
 62
     7
 10
160.024
 20
66.539699999999996
 30
0.0
 11
160.024
 21
79.873000000000005
 31
0.0
  0
LINE
  5
2B4
  8
0
 62
     7
 10
156.53200000000001
 20
77.819000000000003
 30
0.0
 11
163.517
 21
77.819000000000003
 31
0.0
  0
LINE
  5
2B5
  8
0
 62
     7
 10
161.86000000000001
 20
73.203199999999995
 30
0.0
 11
162.42599999999999
 21
73.203199999999995
 31
0.0
  0
LINE
  5
2B6
  8
0
 62
     7
 10
157.62200000000001
 20
73.203199999999995
 30
0.0
 11
158.18899999999999
 21
73.203199999999995
 31
0.0
  0
LINE
  5
2B7
  8
0
 62
     7
 10
161.86000000000001
 20
68.543400000000005
 30
0.0
 11
162.42599999999999
 21
68.543400000000005
 31
0.0
  0
LINE
  5
2B8
  8
0
 62
     7
 10
157.62200000000001
 20
68.543400000000005
 30
0.0
 11
158.18899999999999
 21
68.543400000000005
 31
0.0
  0
ARC
  5
2B9
  8
0
 62
     7
 10
163.34403399999999
 20
72.059732999999994
 30
0.0
 40
1.466254999999999
 50
51.249189000000001
 51
128.75079099999991
  0
ARC
  5
2BA
  8
0
 62
     7
 10
160.02466299999989
 20
68.30912099999999
 30
0.0
 40
5.2268829999999991
 50
69.444732999999999
 51
110.55524699999989
  0
ARC
  5
2BB
  8
0
 62
     7
 10
156.70460399999999
 20
72.059732999999994
 30
0.0
 40
1.466254999999999
 50
51.249189000000001
 51
128.75079099999991
  0
ARC
  5
2BC
  8
0
 62
     7
 10
163.34403399999999
 20
69.687027999999984
 30
0.0
 40
1.4663859999999991
 50
231.25331799999989
 51
308.74670099999992
  0
ARC
  5
2BD
  8
0
 62
     7
 10
160.02466299999989
 20
73.430068000000006
 30
0.0
 40
5.219949999999999
 50
249.41621699999999
 51
290.58380299999988
  0
ARC
  5
2BE
  8
0
 62
     7
 10
156.70460399999999
 20
69.687027999999984
 30
0.0
 40
1.4663859999999991
 50
231.25331799999989
 51
308.74670099999992
  0
LINE
  5
2BF
  8
0
 62
     7
 10
162.42599999999999
 20
73.203199999999995
 30
0.0
 11
162.42599999999999
 21
68.543400000000005
 31
0.0
  0
LINE
  5
2C0
  8
0
 62
     7
 10
161.86000000000001
 20
73.203199999999995
 30
0.0
 11
161.86000000000001
 21
68.543400000000005
 31
0.0
  0
LINE
  5
2C1
  8
0
 62
     7
 10
158.18899999999999
 20
73.203199999999995
 30
0.0
 11
158.18899999999999
 21
68.543400000000005
 31
0.0
  0
LINE
  5
2C2
  8
0
 62
     7
 10
157.62200000000001
 20
73.203199999999995
 30
0.0
 11
157.62200000000001
 21
68.543400000000005
 31
0.0
  0
LINE
  5
2C3
  8
0
 62
     7
 10
163.52500000000001
 20
73.539500000000004
 30
0.0
 11
163.52500000000001
 21
73.868799999999993
 31
0.0
  0
LINE
  5
2C4
  8
0
 62
     7
 10
156.52499999999989
 20
73.539500000000004
 30
0.0
 11
156.52499999999989
 21
73.868799999999993
 31
0.0
  0
LINE
  5
2C5
  8
0
 62
     7
 10
156.35799999999989
 20
73.539500000000004
 30
0.0
 11
163.691
 21
73.539500000000004
 31
0.0
  0
LINE
  5
2C6
  8
0
 62
     7
 10
156.9199999999999
 20
74.539900000000003
 30
0.0
 11
156.53200000000001
 21
73.868799999999993
 31
0.0
  0
LINE
  5
2C7
  8
0
 62
     7
 10
163.12999999999991
 20
74.539900000000003
 30
0.0
 11
163.517
 21
73.868799999999993
 31
0.0
  0
LINE
  5
2C8
  8
0
 62
     7
 10
156.53200000000001
 20
74.539900000000003
 30
0.0
 11
163.517
 21
74.539900000000003
 31
0.0
  0
LINE
  5
2C9
  8
0
 62
     7
 10
156.9199999999999
 20
78.206199999999995
 30
0.0
 11
156.53200000000001
 21
77.819000000000003
 31
0.0
  0
LINE
  5
2CA
  8
0
 62
     7
 10
163.12999999999991
 20
78.206199999999995
 30
0.0
 11
163.517
 21
77.819000000000003
 31
0.0
  0
LINE
  5
2CB
  8
0
 62
     7
 10
156.9199999999999
 20
74.539900000000003
 30
0.0
 11
156.9199999999999
 21
78.206199999999995
 31
0.0
  0
LINE
  5
2CC
  8
0
 62
     7
 10
163.12999999999991
 20
74.539900000000003
 30
0.0
 11
163.12999999999991
 21
78.206199999999995
 31
0.0
  0
LINE
  5
2CD
  8
0
 62
     7
 10
156.53200000000001
 20
61.589700000000001
 30
0.0
 11
156.53200000000001
 21
67.506399999999999
 31
0.0
  0
LINE
  5
2CE
  8
0
 62
     7
 10
163.517
 20
61.589700000000001
 30
0.0
 11
163.517
 21
67.506399999999999
 31
0.0
  0
LINE
  5
2CF
  8
0
 62
     7
 10
156.53200000000001
 20
73.868799999999993
 30
0.0
 11
156.53200000000001
 21
77.819000000000003
 31
0.0
  0
LINE
  5
2D0
  8
0
 62
     7
 10
163.517
 20
73.868799999999993
 30
0.0
 11
163.517
 21
77.819000000000003
 31
0.0
  0
LINE
  5
2D1
  8
0
 62
     7
 10
163.691
 20
73.540199999999999
 30
0.0
 11
164.274
 21
73.203199999999995
 31
0.0
  0
LINE
  5
2D2
  8
0
 62
     7
 10
163.691
 20
68.206400000000002
 30
0.0
 11
164.274
 21
68.543400000000005
 31
0.0
  0
LINE
  5
2D3
  8
0
 62
     7
 10
164.274
 20
68.543400000000005
 30
0.0
 11
164.274
 21
73.203199999999995
 31
0.0
  0
LINE
  5
2D4
  8
0
 62
     7
 10
156.35799999999989
 20
73.539500000000004
 30
0.0
 11
155.774
 21
73.203199999999995
 31
0.0
  0
LINE
  5
2D5
  8
0
 62
     7
 10
156.35799999999989
 20
68.206400000000002
 30
0.0
 11
155.774
 21
68.543400000000005
 31
0.0
  0
LINE
  5
2D6
  8
0
 62
     7
 10
155.774
 20
68.543400000000005
 30
0.0
 11
155.774
 21
73.203199999999995
 31
0.0
  0
LINE
  5
2D7
  8
0
 62
     7
 10
156.35799999999989
 20
68.206400000000002
 30
0.0
 11
163.691
 21
68.206400000000002
 31
0.0
  0
LINE
  5
2D8
  8
0
 62
     7
 10
156.9199999999999
 20
78.206199999999995
 30
0.0
 11
163.12999999999991
 21
78.206199999999995
 31
0.0
  0
TEXT
  5
2D9
  8
_________2
 62
     7
 10
24.586400000000001
 20
0.707627
 30
0.0
 40
3.9357000000000002
  1
（JIS）
 41
0.5
  0
TEXT
  5
2DA
  8
_________2
 62
     7
 10
109.179
 20
24.226099999999999
 30
0.0
 40
3.9357000000000002
  1
立水栓
 41
0.5
  0
LINE
  5
2DB
  8
_________2
 62
     7
 10
205.30099999999999
 20
127.411
 30
0.0
 11
183.55099999999999
 21
127.411
 31
0.0
  0
LINE
  5
2DC
  8
_________2
 62
     7
 10
100.2999999999999
 20
-4.0910799999999998
 30
0.0
 11
100.2999999999999
 21
-21.070999999999991
 31
0.0
  0
LINE
  5
2DD
  8
_________2
 62
     7
 10
100.2999999999999
 20
275.93099999999993
 30
0.0
 11
100.2999999999999
 21
258.911
 31
0.0
  0
LINE
  5
2DE
  8
_________2
 62
     7
 10
17.049199999999988
 20
127.411
 30
0.0
 11
-4.7012099999999988
 21
127.411
 31
0.0
  0
LINE
  5
2DF
  8
_________2
 62
     7
 10
76.740700000000004
 20
29.8047
 30
0.0
 11
74.554400000000001
 21
29.8047
 31
0.0
  0
LINE
  5
2E0
  8
_________2
 62
     7
 10
77.2333
 20
29.8047
 30
0.0
 11
76.981099999999984
 21
29.8047
 31
0.0
  0
LINE
  5
2E1
  8
_________2
 62
     7
 10
77.725999999999999
 20
29.8047
 30
0.0
 11
80.650899999999993
 21
29.8047
 31
0.0
  0
LINE
  5
2E2
  8
_________2
 62
     7
 10
77.2333
 20
29.8047
 30
0.0
 11
77.485500000000002
 21
29.8047
 31
0.0
  0
LINE
  5
2E3
  8
_________2
 62
     7
 10
70.837100000000007
 20
29.8047
 30
0.0
 11
68.650199999999998
 21
29.8047
 31
0.0
  0
LINE
  5
2E4
  8
_________2
 62
     7
 10
71.329099999999997
 20
29.8047
 30
0.0
 11
71.077600000000004
 21
29.8047
 31
0.0
  0
LINE
  5
2E5
  8
_________2
 62
     7
 10
71.329099999999997
 20
30.2974
 30
0.0
 11
71.329099999999997
 21
32.484400000000001
 31
0.0
  0
LINE
  5
2E6
  8
_________2
 62
     7
 10
71.329099999999997
 20
29.8047
 30
0.0
 11
71.329099999999997
 21
30.057300000000001
 31
0.0
  0
LINE
  5
2E7
  8
_________2
 62
     7
 10
71.821700000000007
 20
29.8047
 30
0.0
 11
74.008700000000005
 21
29.8047
 31
0.0
  0
LINE
  5
2E8
  8
_________2
 62
     7
 10
71.329099999999997
 20
29.8047
 30
0.0
 11
71.581299999999985
 21
29.8047
 31
0.0
  0
LINE
  5
2E9
  8
_________2
 62
     7
 10
71.329099999999997
 20
29.312799999999999
 30
0.0
 11
71.329099999999997
 21
27.126200000000001
 31
0.0
  0
LINE
  5
2EA
  8
_________2
 62
     7
 10
71.329099999999997
 20
29.8047
 30
0.0
 11
71.329099999999997
 21
29.5532
 31
0.0
  0
LINE
  5
2EB
  8
_________2
 62
     7
 10
75.040199999999999
 20
28.5852
 30
0.0
 11
80.218199999999996
 21
27.720400000000001
 31
0.0
  0
LINE
  5
2EC
  8
_________2
 62
     7
 10
75.040199999999999
 20
31.024699999999999
 30
0.0
 11
80.218199999999996
 21
31.8901
 31
0.0
  0
LINE
  5
2ED
  8
_________2
 62
     7
 10
80.218199999999996
 20
27.720400000000001
 30
0.0
 11
80.218199999999996
 21
31.8901
 31
0.0
  0
LINE
  5
2EE
  8
_________2
 62
     7
 10
75.040199999999999
 20
28.5852
 30
0.0
 11
75.040199999999999
 21
31.024699999999999
 31
0.0
  0
ARC
  5
2EF
  8
_________2
 62
     7
 10
71.282501999999994
 20
29.757801000000001
 30
0.0
 40
1.267714
 50
2.1220840000000001
 51
87.894083999999992
  0
ARC
  5
2F0
  8
_________2
 62
     7
 10
71.375640000000004
 20
29.758545999999999
 30
0.0
 40
1.2669680000000001
 50
92.105782999999988
 51
177.91037
  0
ARC
  5
2F1
  8
_________2
 62
     7
 10
71.376013999999998
 20
29.851671
 30
0.0
 40
1.2673680000000001
 50
182.12203600000001
 51
267.877993
  0
ARC
  5
2F2
  8
_________2
 62
     7
 10
71.282195999999999
 20
29.852347999999999
 30
0.0
 40
1.2680439999999991
 50
272.11916400000001
 51
357.84848499999993
  0
ARC
  5
2F3
  8
_________2
 62
     7
 10
71.248716999999985
 20
29.724731999999989
 30
0.0
 40
2.1668310000000002
 50
2.1161439999999989
 51
87.874379000000005
  0
ARC
  5
2F4
  8
_________2
 62
     7
 10
71.408756000000011
 20
29.726146
 30
0.0
 40
2.165392999999999
 50
92.108508999999998
 51
177.91986499999999
  0
ARC
  5
2F5
  8
_________2
 62
     7
 10
71.409094999999994
 20
29.884751999999999
 30
0.0
 40
2.1657829999999998
 50
182.117133
 51
267.88289700000001
  0
ARC
  5
2F6
  8
_________2
 62
     7
 10
71.249115000000003
 20
29.885429999999989
 30
0.0
 40
2.1664590000000001
 50
272.11546800000002
 51
357.86560400000002
  0
TEXT
  5
2F7
  8
_________2
 62
     7
 10
104.605
 20
1.6794899999999999
 30
0.0
 40
3.0923400000000001
  1
図番
 41
0.5
  0
LINE
  5
2F8
  8
_________2
 62
     7
 10
103.55
 20
5.9087199999999989
 30
0.0
 11
183.55099999999999
 21
5.9087199999999989
 31
0.0
  0
TEXT
  5
2F9
  8
_________2
 62
     7
 10
104.605
 20
11.679299999999991
 30
0.0
 40
3.0923400000000001
  1
品番
 41
0.5
  0
TEXT
  5
2FA
  8
_________2
 62
     7
 10
104.605
 20
31.8184
 30
0.0
 40
3.0923400000000001
  1
名称
 41
0.5
  0
TEXT
  5
2FB
  8
_________2
 62
     7
 10
91.844758333333345
 20
26.822299999999998
 30
0.0
 40
3.6545800000000002
  1
mm
 41
0.5
 72
     1
 11
93.367500000000007
 21
26.822299999999998
 31
0.0
  0
TEXT
  5
2FC
  8
_________2
 62
     7
 10
85.642899999999983
 20
31.8184
 30
0.0
 40
3.0923400000000001
  1
単位
 41
0.5
  0
TEXT
  5
2FD
  8
_________2
 62
     7
 10
85.642899999999983
 20
19.410799999999991
 30
0.0
 40
3.0923400000000001
  1
尺度
 41
0.5
  0
TEXT
  5
2FE
  8
_________2
 62
     7
 10
90.548458666666676
 20
13.218199999999991
 30
0.0
 40
3.6545800000000002
  1
1 ： 3
 41
0.5
 72
     1
 11
93.959400000000016
 21
13.218199999999991
 31
0.0
  0
TEXT
  5
2FF
  8
_________2
 62
     7
 10
137.31847500000001
 20
9.1082000000000001
 30
0.0
 40
3.9357000000000002
  1
CET6500
 41
0.5
 72
     1
 11
143.55000000000001
 21
9.1082000000000001
 31
0.0
  0
TEXT
  5
300
  8
_________2
 62
     7
 10
137.31847500000001
 20
-0.8926299999999999
 30
0.0
 40
3.9357000000000002
  1
CET6500
 41
0.5
 72
     1
 11
143.55000000000001
 21
-0.8926299999999999
 31
0.0
  0
TEXT
  5
301
  8
_________2
 62
     7
 10
39.42500033333333
 20
13.603400000000001
 30
0.0
 40
3.6545800000000002
  1
早川
 41
0.5
 72
     1
 11
41.313200000000002
 21
13.603400000000001
 31
0.0
  0
TEXT
  5
302
  8
_________2
 62
     7
 10
20.790090666666661
 20
13.603400000000001
 30
0.0
 40
3.6545800000000002
  1
石原
 41
0.5
 72
     1
 11
22.73919999999999
 21
13.603400000000001
 31
0.0
  0
TEXT
  5
303
  8
_________2
 62
     7
 10
67.785399999999996
 20
13.218199999999991
 30
0.0
 40
3.6545800000000002
  1
14.01.13
 41
0.5
  0
TEXT
  5
304
  8
_________2
 62
     7
 10
66.592699999999994
 20
19.410799999999991
 30
0.0
 40
3.0923400000000001
  1
日付
 41
0.5
  0
TEXT
  5
305
  8
_________2
 62
     7
 10
29.638999999999999
 20
19.410799999999991
 30
0.0
 40
3.0923400000000001
  1
検図
 41
0.5
  0
TEXT
  5
306
  8
_________2
 62
     7
 10
18.020700000000001
 20
5.21143
 30
0.0
 40
3.0923400000000001
  1
備考
 41
0.5
  0
TEXT
  5
307
  8
_________2
 62
     7
 10
18.020700000000001
 20
19.410799999999991
 30
0.0
 40
3.0923400000000001
  1
製図
 41
0.5
  0
TEXT
  5
308
  8
_________2
 62
     7
 10
23.788165333333328
 20
27.936800000000002
 30
0.0
 40
4.4979399999999989
  1
セラトレーディング株式会社
 41
0.5
 72
     1
 11
41.180199999999999
 21
27.936800000000002
 31
0.0
  0
LINE
  5
309
  8
_________2
 62
     7
 10
183.55099999999999
 20
-4.0910799999999998
 30
0.0
 11
17.049199999999988
 21
-4.0910799999999998
 31
0.0
  0
LINE
  5
30A
  8
_________2
 62
     7
 10
17.049199999999988
 20
-4.0910799999999998
 30
0.0
 11
17.049199999999988
 21
258.911
 31
0.0
  0
LINE
  5
30B
  8
_________2
 62
     7
 10
17.049199999999988
 20
258.911
 30
0.0
 11
183.55099999999999
 21
258.911
 31
0.0
  0
LINE
  5
30C
  8
_________2
 62
     7
 10
183.55099999999999
 20
258.911
 30
0.0
 11
183.55099999999999
 21
-4.0910799999999998
 31
0.0
  0
LINE
  5
30D
  8
_________2
 62
     7
 10
65.549599999999998
 20
9.4092999999999982
 30
0.0
 11
65.549599999999998
 21
35.909100000000002
 31
0.0
  0
LINE
  5
30E
  8
_________2
 62
     7
 10
84.549400000000006
 20
9.4092999999999982
 30
0.0
 11
84.549400000000006
 21
35.909100000000002
 31
0.0
  0
LINE
  5
30F
  8
_________2
 62
     7
 10
103.55
 20
-4.0910799999999998
 30
0.0
 11
103.55
 21
35.909100000000002
 31
0.0
  0
LINE
  5
310
  8
_________2
 62
     7
 10
28.548999999999999
 20
9.4092999999999982
 30
0.0
 11
28.548999999999999
 21
23.409199999999998
 31
0.0
  0
LINE
  5
311
  8
_________2
 62
     7
 10
17.049199999999988
 20
9.4092999999999982
 30
0.0
 11
103.55
 21
9.4092999999999982
 31
0.0
  0
LINE
  5
312
  8
_________2
 62
     7
 10
17.049199999999988
 20
23.409199999999998
 30
0.0
 11
103.55
 21
23.409199999999998
 31
0.0
  0
LINE
  5
313
  8
_________2
 62
     7
 10
103.55
 20
15.9085
 30
0.0
 11
183.55099999999999
 21
15.9085
 31
0.0
  0
LINE
  5
314
  8
_________2
 62
     7
 10
17.049199999999988
 20
35.909100000000002
 30
0.0
 11
183.55099999999999
 21
35.909100000000002
 31
0.0
  0
ENDSEC
  0
EOF
