  0
SECTION
  2
HEADER
  9
$ACADVER
  1
AC1009
  9
$INSBASE
 10
0.0
 20
0.0
 30
0.0
  9
$EXTMIN
 10
-4.7006899999999989
 20
-21.070999999999991
 30
0.0
  9
$EXTMAX
 10
205.30099999999999
 20
275.93099999999993
 30
0.0
  9
$LIMMIN
 10
0.0
 20
0.0
  9
$LIMMAX
 10
12.0
 20
9.0
  9
$ORTHOMODE
 70
     0
  9
$REGENMODE
 70
     1
  9
$FILLMODE
 70
     1
  9
$QTEXTMODE
 70
     0
  9
$MIRRTEXT
 70
     1
  9
$DRAGMODE
 70
     2
  9
$LTSCALE
 40
1.0
  9
$OSMODE
 70
    37
  9
$ATTMODE
 70
     1
  9
$TEXTSIZE
 40
0.0
  9
$TRACEWID
 40
0.05
  9
$TEXTSTYLE
  7
STANDARD
  9
$CLAYER
  8
0
  9
$CELTYPE
  6
CONTINUOUS
  9
$CECOLOR
 62
   256
  9
$DIMSCALE
 40
1.0
  9
$DIMASZ
 40
0.18
  9
$DIMEXO
 40
0.0625
  9
$DIMDLI
 40
0.38
  9
$DIMRND
 40
0.0
  9
$DIMDLE
 40
0.0
  9
$DIMEXE
 40
0.18
  9
$DIMTP
 40
0.0
  9
$DIMTM
 40
0.0
  9
$DIMTXT
 40
0.18
  9
$DIMCEN
 40
0.09
  9
$DIMTSZ
 40
0.0
  9
$DIMTOL
 70
     0
  9
$DIMLIM
 70
     0
  9
$DIMTIH
 70
     1
  9
$DIMTOH
 70
     1
  9
$DIMSE1
 70
     0
  9
$DIMSE2
 70
     0
  9
$DIMTAD
 70
     0
  9
$DIMZIN
 70
     0
  9
$DIMBLK
  1

  9
$DIMASO
 70
     1
  9
$DIMSHO
 70
     1
  9
$DIMPOST
  1

  9
$DIMAPOST
  1

  9
$DIMALT
 70
     0
  9
$DIMALTD
 70
     2
  9
$DIMALTF
 40
25.399999999999999
  9
$DIMLFAC
 40
1.0
  9
$DIMTOFL
 70
     0
  9
$DIMTVP
 40
0.0
  9
$DIMTIX
 70
     0
  9
$DIMSOXD
 70
     0
  9
$DIMSAH
 70
     0
  9
$DIMBLK1
  1

  9
$DIMBLK2
  1

  9
$DIMSTYLE
  2
STANDARD
  9
$DIMCLRD
 70
     0
  9
$DIMCLRE
 70
     0
  9
$DIMCLRT
 70
     0
  9
$DIMTFAC
 40
1.0
  9
$DIMGAP
 40
0.09
  9
$LUNITS
 70
     2
  9
$LUPREC
 70
     4
  9
$SKETCHINC
 40
0.1
  9
$FILLETRAD
 40
0.0
  9
$AUNITS
 70
     0
  9
$AUPREC
 70
     0
  9
$MENU
  1
.
  9
$ELEVATION
 40
0.0
  9
$PELEVATION
 40
0.0
  9
$THICKNESS
 40
0.0
  9
$LIMCHECK
 70
     0
  9
$BLIPMODE
 70
     0
  9
$CHAMFERA
 40
0.0
  9
$CHAMFERB
 40
0.0
  9
$SKPOLY
 70
     0
  9
$TDCREATE
 40
2444972.375
  9
$TDUPDATE
 40
2456175.246040937
  9
$TDINDWG
 40
0.0000087153
  9
$TDUSRTIMER
 40
0.0000087153
  9
$USRTIMER
 70
     1
  9
$ANGBASE
 50
0.0
  9
$ANGDIR
 70
     0
  9
$PDMODE
 70
     0
  9
$PDSIZE
 40
0.0
  9
$PLINEWID
 40
0.0
  9
$COORDS
 70
     1
  9
$SPLFRAME
 70
     0
  9
$SPLINETYPE
 70
     6
  9
$SPLINESEGS
 70
     8
  9
$ATTDIA
 70
     0
  9
$ATTREQ
 70
     1
  9
$HANDLING
 70
     1
  9
$HANDSEED
  5
231
  9
$SURFTAB1
 70
     6
  9
$SURFTAB2
 70
     6
  9
$SURFTYPE
 70
     6
  9
$SURFU
 70
     6
  9
$SURFV
 70
     6
  9
$UCSNAME
  2

  9
$UCSORG
 10
0.0
 20
0.0
 30
0.0
  9
$UCSXDIR
 10
1.0
 20
0.0
 30
0.0
  9
$UCSYDIR
 10
0.0
 20
1.0
 30
0.0
  9
$PUCSNAME
  2

  9
$PUCSORG
 10
0.0
 20
0.0
 30
0.0
  9
$PUCSXDIR
 10
1.0
 20
0.0
 30
0.0
  9
$PUCSYDIR
 10
0.0
 20
1.0
 30
0.0
  9
$USERI1
 70
     0
  9
$USERI2
 70
     0
  9
$USERI3
 70
     0
  9
$USERI4
 70
     0
  9
$USERI5
 70
     0
  9
$USERR1
 40
0.0
  9
$USERR2
 40
0.0
  9
$USERR3
 40
0.0
  9
$USERR4
 40
0.0
  9
$USERR5
 40
0.0
  9
$WORLDVIEW
 70
     1
  9
$SHADEDGE
 70
     3
  9
$SHADEDIF
 70
    70
  9
$TILEMODE
 70
     1
  9
$MAXACTVP
 70
    48
  9
$PLIMCHECK
 70
     0
  9
$PEXTMIN
 10
1.0000000000000000E+020
 20
1.0000000000000000E+020
 30
1.0000000000000000E+020
  9
$PEXTMAX
 10
-1.0000000000000000E+020
 20
-1.0000000000000000E+020
 30
-1.0000000000000000E+020
  9
$PLIMMIN
 10
0.0
 20
0.0
  9
$PLIMMAX
 10
12.0
 20
9.0
  9
$UNITMODE
 70
     0
  9
$VISRETAIN
 70
     1
  9
$PLINEGEN
 70
     0
  9
$PSLTSCALE
 70
     1
  0
ENDSEC
  0
SECTION
  2
TABLES
  0
TABLE
  2
VPORT
 70
     2
  0
VPORT
  2
*ACTIVE
 70
     0
 10
0.0
 20
0.0
 11
1.0
 21
1.0
 12
205.31045906752431
 22
127.42999999999989
 13
0.0
 23
0.0
 14
1.0
 24
1.0
 15
0.0
 25
0.0
 16
0.0
 26
0.0
 36
1.0
 17
0.0
 27
0.0
 37
0.0
 40
299.24634760705283
 41
2.2894736842105261
 42
50.0
 43
0.0
 44
0.0
 50
0.0
 51
0.0
 71
     0
 72
   100
 73
     1
 74
     1
 75
     0
 76
     0
 77
     0
 78
     0
  0
ENDTAB
  0
TABLE
  2
LTYPE
 70
     2
  0
LTYPE
  2
CONTINUOUS
 70
     0
  3
Solid line
 72
    65
 73
     0
 40
0.0
  0
LTYPE
  2
AIGENLINE001
 70
     0
  3
generate AI->DXF Converter
 72
    65
 73
     4
 40
5.8561449999999988
 49
3.5278
 49
-0.776115
 49
0.776115
 49
-0.776115
  0
ENDTAB
  0
TABLE
  2
LAYER
 70
     2
  0
LAYER
  2
0
 70
     0
 62
     7
  6
CONTINUOUS
  0
LAYER
  2
_________2
 70
     0
 62
     7
  6
CONTINUOUS
  0
ENDTAB
  0
TABLE
  2
STYLE
 70
     1
  0
STYLE
  2
STANDARD
 70
     0
 40
0.0
 41
0.0
 50
0.0
 71
     0
 42
0.0
  3
TXT
  4
EXTFONT.SHX
  0
ENDTAB
  0
TABLE
  2
VIEW
 70
     0
  0
ENDTAB
  0
TABLE
  2
UCS
 70
     0
  0
ENDTAB
  0
TABLE
  2
APPID
 70
     1
  0
APPID
  2
ACAD
 70
     0
  0
ENDTAB
  0
TABLE
  2
DIMSTYLE
 70
     1
  0
DIMSTYLE
  2
STANDARD
 70
     0
  3

  4

  5

  6

  7

 40
1.0
 41
0.18
 42
0.0625
 43
0.38
 44
0.18
 45
0.0
 46
0.0
 47
0.0
 48
0.0
140
0.18
141
0.09
142
0.0
143
25.399999999999999
144
1.0
145
0.0
146
1.0
147
0.09
 71
     0
 72
     0
 73
     1
 74
     1
 75
     0
 76
     0
 77
     0
 78
     0
170
     0
171
     2
172
     0
173
     0
174
     0
175
     0
176
     0
177
     0
178
     0
  0
ENDTAB
  0
ENDSEC
  0
SECTION
  2
BLOCKS
  0
BLOCK
  8
0
  2
$MODEL_SPACE
 70
     0
 10
0.0
 20
0.0
 30
0.0
  3
$MODEL_SPACE
  1

  0
ENDBLK
  5
1A
  8
0
  0
BLOCK
 67
     1
  8
0
  2
$PAPER_SPACE
 70
     0
 10
0.0
 20
0.0
 30
0.0
  3
$PAPER_SPACE
  1

  0
ENDBLK
  5
17
 67
     1
  8
0
  0
ENDSEC
  0
SECTION
  2
ENTITIES
  0
TEXT
  5
22
  8
0
 62
     7
 10
113.9894399999999
 20
61.608999999999988
 30
0.0
 40
3.0923400000000001
  1
372
 41
0.5
 72
     1
 11
116.051
 21
61.608999999999988
 31
0.0
  0
TEXT
  5
23
  8
0
 62
     7
 10
79.209824999999995
 20
69.178600000000003
 30
0.0
 40
3.0923400000000001
  1
82
 41
0.5
 72
     1
 11
80.4983
 21
69.178600000000003
 31
0.0
  0
TEXT
  5
24
  8
0
 62
     7
 10
58.332700000000003
 20
95.087982499999995
 30
0.0
 40
3.0923400000000001
  1
140
 50
90.0
 41
0.5
 72
     1
 11
58.332700000000003
 21
96.762999999999991
 31
0.0
  0
TEXT
  5
25
  8
0
 62
     7
 10
106.857
 20
90.034324999999995
 30
0.0
 40
3.0923400000000001
  1
98
 50
90.0
 41
0.5
 72
     1
 11
106.857
 21
91.322799999999987
 31
0.0
  0
TEXT
  5
26
  8
0
 62
     7
 10
68.277439999999999
 20
120.41800000000001
 30
0.0
 40
3.0923400000000001
  1
%%c32
 41
0.5
 72
     1
 11
70.338999999999999
 21
120.41800000000001
 31
0.0
  0
TEXT
  5
27
  8
0
 62
     7
 10
149.474525
 20
121.577
 30
0.0
 40
3.0923400000000001
  1
32
 41
0.5
 72
     1
 11
150.76299999999989
 21
121.577
 31
0.0
  0
TEXT
  5
28
  8
0
 62
     7
 10
175.999
 20
101.33444
 30
0.0
 40
3.0923400000000001
  1
%%c75
 50
90.0
 41
0.5
 72
     1
 11
175.999
 21
103.3959999999999
 31
0.0
  0
TEXT
  5
29
  8
0
 62
     7
 10
169.10199999999989
 20
101.51544
 30
0.0
 40
3.0923400000000001
  1
%%c32
 50
90.0
 41
0.5
 72
     1
 11
169.10199999999989
 21
103.577
 31
0.0
  0
ARC
  5
2A
  8
0
 62
     7
 10
41.006765999999992
 20
103.7530569999999
 30
0.0
 40
5.057218999999999
 50
0.118163
 51
37.11738900000001
  0
ARC
  5
2B
  8
0
 62
     7
 10
40.997148000000003
 20
103.7775029999999
 30
0.0
 40
5.0668449999999989
 50
322.91901000000001
 51
359.84151099999991
  0
ARC
  5
2C
  8
0
 62
     7
 10
41.070239999999998
 20
103.7734029999999
 30
0.0
 40
5.0563719999999996
 50
180.1123869999999
 51
217.11737599999989
  0
ARC
  5
2D
  8
0
 62
     7
 10
41.082089000000003
 20
103.74946799999999
 30
0.0
 40
5.0682299999999998
 50
142.92101199999999
 51
179.84149500000001
  0
ARC
  5
2E
  8
0
 62
     7
 10
41.241630000000001
 20
103.88490400000001
 30
0.0
 40
8.9575700000000005
 50
180.776669
 51
242.01932999999991
  0
ARC
  5
2F
  8
0
 62
     7
 10
41.21778599999999
 20
103.662256
 30
0.0
 40
8.9334769999999981
 50
120.85909599999999
 51
179.3507129999999
  0
ARC
  5
30
  8
0
 62
     7
 10
40.847321000000001
 20
103.6550689999999
 30
0.0
 40
8.9463050000000006
 50
0.694367
 51
59.097451999999997
  0
ARC
  5
31
  8
0
 62
     7
 10
40.843977000000002
 20
103.88038399999991
 30
0.0
 40
8.9497549999999997
 50
297.962287
 51
359.25161200000002
  0
ARC
  5
32
  8
0
 62
     7
 10
41.266156000000002
 20
103.90475499999999
 30
0.0
 40
9.6032939999999982
 50
180.84289499999991
 51
243.88346799999999
  0
ARC
  5
33
  8
0
 62
     7
 10
41.21587199999999
 20
103.66768399999989
 30
0.0
 40
9.5524520000000006
 50
123.212458
 51
179.425341
  0
ARC
  5
34
  8
0
 62
     7
 10
40.848015999999987
 20
103.660039
 30
0.0
 40
9.5664940000000005
 50
0.619583
 51
56.738911000000009
  0
ARC
  5
35
  8
0
 62
     7
 10
40.818716999999992
 20
103.90039899999989
 30
0.0
 40
9.5962110000000003
 50
296.09403800000001
 51
359.18251600000002
  0
LINE
  5
36
  8
0
 62
     7
 10
36.636099999999999
 20
90.319599999999994
 30
0.0
 11
36.914400000000001
 21
89.605399999999989
 31
0.0
  0
LINE
  5
37
  8
0
 62
     7
 10
36.636099999999999
 20
90.319599999999994
 30
0.0
 11
36.636099999999999
 21
90.909800000000004
 31
0.0
  0
LINE
  5
38
  8
0
 62
     7
 10
37.039099999999998
 20
90.319599999999994
 30
0.0
 11
36.636099999999999
 21
90.319599999999994
 31
0.0
  0
LINE
  5
39
  8
0
 62
     7
 10
37.039099999999998
 20
89.605399999999989
 30
0.0
 11
36.914400000000001
 21
89.605399999999989
 31
0.0
  0
LINE
  5
3A
  8
0
 62
     7
 10
45.441799999999994
 20
90.319599999999994
 30
0.0
 11
45.164099999999991
 21
89.605399999999989
 31
0.0
  0
LINE
  5
3B
  8
0
 62
     7
 10
45.441799999999994
 20
90.319599999999994
 30
0.0
 11
45.441799999999994
 21
90.909800000000004
 31
0.0
  0
LINE
  5
3C
  8
0
 62
     7
 10
45.039400000000001
 20
90.319599999999994
 30
0.0
 11
45.441799999999994
 21
90.319599999999994
 31
0.0
  0
LINE
  5
3D
  8
0
 62
     7
 10
45.039400000000001
 20
89.605399999999989
 30
0.0
 11
45.164099999999991
 21
89.605399999999989
 31
0.0
  0
LINE
  5
3E
  8
0
 62
     7
 10
45.039400000000001
 20
89.513099999999994
 30
0.0
 11
45.039400000000001
 21
89.605399999999989
 31
0.0
  0
LINE
  5
3F
  8
0
 62
     7
 10
37.039099999999998
 20
89.513099999999994
 30
0.0
 11
37.039099999999998
 21
89.605399999999989
 31
0.0
  0
ARC
  5
40
  8
0
 62
     7
 10
45.790613
 20
93.539375000000007
 30
0.0
 40
2.3898419999999989
 50
269.94609500000001
 51
276.94149800000002
  0
ARC
  5
41
  8
0
 62
     7
 10
45.979809000000003
 20
91.889007999999976
 30
0.0
 40
0.728799
 50
277.85717899999997
 51
310.58243499999998
  0
ARC
  5
42
  8
0
 62
     7
 10
49.707926999999998
 20
87.460807999999986
 30
0.0
 40
5.059823999999999
 50
127.1384899999999
 51
130.0238019999999
  0
ARC
  5
43
  8
0
 62
     7
 10
45.787778000000003
 20
93.564106999999993
 30
0.0
 40
2.4145720000000002
 50
263.05625900000001
 51
270.01392499999992
  0
ARC
  5
44
  8
0
 62
     7
 10
45.596988000000003
 20
91.890375000000006
 30
0.0
 40
0.730166
 50
229.03407699999991
 51
262.03964200000001
  0
ARC
  5
45
  8
0
 62
     7
 10
47.059350000000002
 20
93.784071999999995
 30
0.0
 40
3.1218560000000002
 50
229.68149099999999
 51
231.55474399999991
  0
LINE
  5
46
  8
0
 62
     7
 10
46.205199999999991
 20
90.909800000000004
 30
0.0
 11
46.78949999999999
 21
91.494399999999999
 31
0.0
  0
LINE
  5
47
  8
0
 62
     7
 10
45.039400000000001
 20
90.909800000000004
 30
0.0
 11
46.205199999999991
 21
90.909800000000004
 31
0.0
  0
ARC
  5
48
  8
0
 62
     7
 10
36.287927000000003
 20
93.539375000000007
 30
0.0
 40
2.3898419999999989
 50
263.05852199999998
 51
270.05392399999988
  0
ARC
  5
49
  8
0
 62
     7
 10
36.098731000000001
 20
91.889007999999976
 30
0.0
 40
0.728799
 50
229.41758400000001
 51
262.14284099999998
  0
ARC
  5
4A
  8
0
 62
     7
 10
32.370614000000003
 20
87.460807999999986
 30
0.0
 40
5.059823999999999
 50
49.976177999999997
 51
52.861490000000011
  0
ARC
  5
4B
  8
0
 62
     7
 10
36.290776999999991
 20
93.556603000000024
 30
0.0
 40
2.4070680000000002
 50
269.98570399999988
 51
276.96516400000002
  0
ARC
  5
4C
  8
0
 62
     7
 10
36.481180000000002
 20
91.891091000000003
 30
0.0
 40
0.7308740000000001
 50
277.982167
 51
310.95707199999998
  0
ARC
  5
4D
  8
0
 62
     7
 10
34.992353999999992
 20
93.820727000000005
 30
0.0
 40
3.167168999999999
 50
308.41450400000002
 51
310.25964299999998
  0
LINE
  5
4E
  8
0
 62
     7
 10
35.8733
 20
90.909800000000004
 30
0.0
 11
35.289000000000001
 21
91.494399999999999
 31
0.0
  0
LINE
  5
4F
  8
0
 62
     7
 10
37.039099999999998
 20
90.909800000000004
 30
0.0
 11
35.8733
 21
90.909800000000004
 31
0.0
  0
ARC
  5
50
  8
0
 62
     7
 10
45.790613
 20
90.883608999999993
 30
0.0
 40
2.3898419999999989
 50
83.058502000000004
 51
90.053905
  0
ARC
  5
51
  8
0
 62
     7
 10
45.979888000000003
 20
92.533726000000001
 30
0.0
 40
0.729036
 50
49.441644999999987
 51
82.151623999999998
  0
ARC
  5
52
  8
0
 62
     7
 10
49.685623
 20
96.939781999999994
 30
0.0
 40
5.0282339999999994
 50
230.00577100000001
 51
232.90768399999999
  0
ARC
  5
53
  8
0
 62
     7
 10
45.787792999999994
 20
90.851325999999986
 30
0.0
 40
2.4221240000000002
 50
89.986467000000005
 51
96.922336999999999
  0
ARC
  5
54
  8
0
 62
     7
 10
45.605018999999999
 20
92.479607000000001
 30
0.0
 40
0.7838230000000001
 50
98.004649000000015
 51
113.659105
  0
ARC
  5
55
  8
0
 62
     7
 10
45.558122999999988
 20
92.625831999999988
 30
0.0
 40
0.631265
 50
115.086491
 51
123.68719899999989
  0
ARC
  5
56
  8
0
 62
     7
 10
45.891923999999989
 20
92.137343999999985
 30
0.0
 40
1.22289
 50
124.0059959999999
 51
129.75088299999999
  0
ARC
  5
57
  8
0
 62
     7
 10
47.373657000000001
 20
90.251947000000001
 30
0.0
 40
3.6205479999999999
 50
128.69979499999991
 51
130.145115
  0
LINE
  5
58
  8
0
 62
     7
 10
46.205199999999991
 20
93.513199999999983
 30
0.0
 11
46.78949999999999
 21
92.928899999999985
 31
0.0
  0
LINE
  5
59
  8
0
 62
     7
 10
45.039400000000001
 20
93.513199999999983
 30
0.0
 11
46.205199999999991
 21
93.513199999999983
 31
0.0
  0
ARC
  5
5A
  8
0
 62
     7
 10
36.287927000000003
 20
90.883608999999993
 30
0.0
 40
2.3898419999999989
 50
89.946076000000005
 51
96.941478000000004
  0
ARC
  5
5B
  8
0
 62
     7
 10
36.098652999999999
 20
92.533726000000001
 30
0.0
 40
0.729036
 50
97.848355999999995
 51
130.558335
  0
ARC
  5
5C
  8
0
 62
     7
 10
32.392918000000002
 20
96.939781999999994
 30
0.0
 40
5.0282339999999994
 50
307.09233599999999
 51
309.99424900000002
  0
ARC
  5
5D
  8
0
 62
     7
 10
36.290788999999997
 20
90.85714200000001
 30
0.0
 40
2.4163069999999989
 50
83.046071999999995
 51
90.014527999999984
  0
ARC
  5
5E
  8
0
 62
     7
 10
36.482030999999992
 20
92.532564000000008
 30
0.0
 40
0.7301720000000002
 50
48.974516000000001
 51
82.025104999999996
  0
ARC
  5
5F
  8
0
 62
     7
 10
34.950611000000002
 20
90.548868999999996
 30
0.0
 40
3.2352529999999988
 50
49.760719000000002
 51
51.574424
  0
LINE
  5
60
  8
0
 62
     7
 10
35.8733
 20
93.513199999999983
 30
0.0
 11
35.289000000000001
 21
92.928899999999985
 31
0.0
  0
LINE
  5
61
  8
0
 62
     7
 10
46.653100000000002
 20
91.494399999999999
 30
0.0
 11
46.653100000000002
 21
92.928899999999985
 31
0.0
  0
LINE
  5
62
  8
0
 62
     7
 10
35.4255
 20
91.494399999999999
 30
0.0
 11
35.4255
 21
92.928899999999985
 31
0.0
  0
LINE
  5
63
  8
0
 62
     7
 10
35.289000000000001
 20
91.494399999999999
 30
0.0
 11
35.289000000000001
 21
92.928899999999985
 31
0.0
  0
LINE
  5
64
  8
0
 62
     7
 10
46.78949999999999
 20
91.494399999999999
 30
0.0
 11
46.78949999999999
 21
92.928899999999985
 31
0.0
  0
LINE
  5
65
  8
0
 62
     7
 10
37.039099999999998
 20
93.513199999999983
 30
0.0
 11
35.8733
 21
93.513199999999983
 31
0.0
  0
LINE
  5
66
  8
0
 62
     7
 10
46.78949999999999
 20
92.928899999999985
 30
0.0
 11
46.653100000000002
 21
92.928899999999985
 31
0.0
  0
LINE
  5
67
  8
0
 62
     7
 10
35.4255
 20
92.928899999999985
 30
0.0
 11
35.289000000000001
 21
92.928899999999985
 31
0.0
  0
LINE
  5
68
  8
0
 62
     7
 10
46.78949999999999
 20
91.494399999999999
 30
0.0
 11
46.653100000000002
 21
91.494399999999999
 31
0.0
  0
LINE
  5
69
  8
0
 62
     7
 10
35.4255
 20
91.494399999999999
 30
0.0
 11
35.289000000000001
 21
91.494399999999999
 31
0.0
  0
ARC
  5
6A
  8
0
 62
     7
 10
41.039096999999991
 20
79.263363999999996
 30
0.0
 40
4.000299
 50
269.99755299999993
 51
359.997523
  0
ARC
  5
6B
  8
0
 62
     7
 10
41.039096999999991
 20
79.263018000000002
 30
0.0
 40
3.9999530000000001
 50
179.99750299999991
 51
269.99755199999993
  0
LINE
  5
6C
  8
0
 62
     7
 10
36.636099999999999
 20
111.06999999999999
 30
0.0
 11
36.914400000000001
 21
110.355
 31
0.0
  0
LINE
  5
6D
  8
0
 62
     7
 10
36.636099999999999
 20
111.06999999999999
 30
0.0
 11
36.636099999999999
 21
111.66
 31
0.0
  0
LINE
  5
6E
  8
0
 62
     7
 10
41.038899999999991
 20
111.06999999999999
 30
0.0
 11
36.636099999999999
 21
111.06999999999999
 31
0.0
  0
LINE
  5
6F
  8
0
 62
     7
 10
41.038899999999991
 20
110.355
 30
0.0
 11
36.914400000000001
 21
110.355
 31
0.0
  0
LINE
  5
70
  8
0
 62
     7
 10
45.441799999999994
 20
111.06999999999999
 30
0.0
 11
45.164099999999991
 21
110.355
 31
0.0
  0
LINE
  5
71
  8
0
 62
     7
 10
45.441799999999994
 20
111.06999999999999
 30
0.0
 11
45.441799999999994
 21
111.66
 31
0.0
  0
LINE
  5
72
  8
0
 62
     7
 10
41.038899999999991
 20
111.06999999999999
 30
0.0
 11
45.441799999999994
 21
111.06999999999999
 31
0.0
  0
LINE
  5
73
  8
0
 62
     7
 10
41.038899999999991
 20
110.355
 30
0.0
 11
45.164099999999991
 21
110.355
 31
0.0
  0
LINE
  5
74
  8
0
 62
     7
 10
45.039400000000001
 20
110.26299999999991
 30
0.0
 11
45.039400000000001
 21
110.355
 31
0.0
  0
LINE
  5
75
  8
0
 62
     7
 10
37.039099999999998
 20
110.26299999999991
 30
0.0
 11
37.039099999999998
 21
110.355
 31
0.0
  0
ARC
  5
76
  8
0
 62
     7
 10
41.037573999999999
 20
116.518199
 30
0.0
 40
4.6187230000000001
 50
270.01677499999988
 51
275.522175
  0
ARC
  5
77
  8
0
 62
     7
 10
40.986004000000001
 20
117.546857
 30
0.0
 40
5.6477709999999988
 50
275.03868799999992
 51
283.20855799999993
  0
ARC
  5
78
  8
0
 62
     7
 10
41.710741999999989
 20
114.360287
 30
0.0
 40
2.3800099999999991
 50
283.75151799999998
 51
292.21791899999988
  0
ARC
  5
79
  8
0
 62
     7
 10
42.277307
 20
112.9487129999999
 30
0.0
 40
0.8590559999999999
 50
292.83559700000001
 51
304.92048599999993
  0
ARC
  5
7A
  8
0
 62
     7
 10
45.790613
 20
114.2893159999999
 30
0.0
 40
2.3898419999999989
 50
269.94609500000001
 51
276.94149800000002
  0
ARC
  5
7B
  8
0
 62
     7
 10
45.979809000000003
 20
112.6389489999999
 30
0.0
 40
0.728799
 50
277.85717899999997
 51
310.58243499999998
  0
ARC
  5
7C
  8
0
 62
     7
 10
49.707926999999998
 20
108.21075
 30
0.0
 40
5.059823999999999
 50
127.1384899999999
 51
130.0238019999999
  0
ARC
  5
7D
  8
0
 62
     7
 10
45.786116
 20
114.2893159999999
 30
0.0
 40
2.3898419999999989
 50
263.05852199999998
 51
270.05392399999988
  0
ARC
  5
7E
  8
0
 62
     7
 10
45.596919999999997
 20
112.6389489999999
 30
0.0
 40
0.728799
 50
229.41758400000001
 51
262.14284099999998
  0
ARC
  5
7F
  8
0
 62
     7
 10
41.868802000000002
 20
108.21075
 30
0.0
 40
5.059823999999999
 50
49.976177999999997
 51
52.861490000000011
  0
LINE
  5
80
  8
0
 62
     7
 10
46.205199999999991
 20
111.66
 30
0.0
 11
46.78949999999999
 21
112.244
 31
0.0
  0
LINE
  5
81
  8
0
 62
     7
 10
41.039599999999993
 20
111.66
 30
0.0
 11
46.205199999999991
 21
111.66
 31
0.0
  0
ARC
  5
82
  8
0
 62
     7
 10
41.040971999999996
 20
116.51821
 30
0.0
 40
4.618733999999999
 50
264.47785199999998
 51
269.98317099999991
  0
ARC
  5
83
  8
0
 62
     7
 10
41.092556999999999
 20
117.547003
 30
0.0
 40
5.6479179999999989
 50
256.7916009999999
 51
264.9613129999999
  0
ARC
  5
84
  8
0
 62
     7
 10
40.367798000000001
 20
114.360287
 30
0.0
 40
2.3800099999999991
 50
247.7821009999999
 51
256.24850099999992
  0
ARC
  5
85
  8
0
 62
     7
 10
39.801465
 20
112.94913200000001
 30
0.0
 40
0.8595319999999999
 50
235.08288899999999
 51
247.161068
  0
ARC
  5
86
  8
0
 62
     7
 10
36.287927000000003
 20
114.2893159999999
 30
0.0
 40
2.3898419999999989
 50
263.05852199999998
 51
270.05392399999988
  0
ARC
  5
87
  8
0
 62
     7
 10
36.098731000000001
 20
112.6389489999999
 30
0.0
 40
0.728799
 50
229.41758400000001
 51
262.14284099999998
  0
ARC
  5
88
  8
0
 62
     7
 10
32.370614000000003
 20
108.21075
 30
0.0
 40
5.059823999999999
 50
49.976177999999997
 51
52.861490000000011
  0
ARC
  5
89
  8
0
 62
     7
 10
36.29242399999999
 20
114.289956
 30
0.0
 40
2.3904809999999999
 50
269.94613599999991
 51
276.94056799999998
  0
ARC
  5
8A
  8
0
 62
     7
 10
36.481656000000001
 20
112.6392749999999
 30
0.0
 40
0.7291220000000001
 50
277.85393599999992
 51
310.57274000000001
  0
ARC
  5
8B
  8
0
 62
     7
 10
40.354729999999989
 20
108.0322229999999
 30
0.0
 40
5.2896859999999988
 50
127.222979
 51
129.98160899999999
  0
LINE
  5
8C
  8
0
 62
     7
 10
35.8733
 20
111.66
 30
0.0
 11
35.289000000000001
 21
112.244
 31
0.0
  0
LINE
  5
8D
  8
0
 62
     7
 10
41.038899999999991
 20
111.66
 30
0.0
 11
35.8733
 21
111.66
 31
0.0
  0
ARC
  5
8E
  8
0
 62
     7
 10
41.037573999999999
 20
109.4046679999999
 30
0.0
 40
4.6187230000000001
 50
84.477824999999996
 51
89.983225000000004
  0
ARC
  5
8F
  8
0
 62
     7
 10
40.986162
 20
108.373277
 30
0.0
 40
5.6504789999999989
 50
76.799526999999998
 51
84.965337000000005
  0
ARC
  5
90
  8
0
 62
     7
 10
41.711157
 20
111.5613169999999
 30
0.0
 40
2.381221
 50
67.804757999999993
 51
76.265884
  0
ARC
  5
91
  8
0
 62
     7
 10
42.27773599999999
 20
112.97410499999999
 30
0.0
 40
0.8591319999999999
 50
55.117994999999993
 51
67.197624000000005
  0
ARC
  5
92
  8
0
 62
     7
 10
45.790613
 20
111.6335499999999
 30
0.0
 40
2.3898419999999989
 50
83.058502000000004
 51
90.053905
  0
ARC
  5
93
  8
0
 62
     7
 10
45.979888000000003
 20
113.28366699999989
 30
0.0
 40
0.729036
 50
49.441644999999987
 51
82.151623999999998
  0
ARC
  5
94
  8
0
 62
     7
 10
49.685623
 20
117.6897239999999
 30
0.0
 40
5.0282339999999994
 50
230.00577100000001
 51
232.90768399999999
  0
ARC
  5
95
  8
0
 62
     7
 10
45.786116
 20
111.6335499999999
 30
0.0
 40
2.3898419999999989
 50
89.946076000000005
 51
96.941478000000004
  0
ARC
  5
96
  8
0
 62
     7
 10
45.596840999999998
 20
113.28366699999989
 30
0.0
 40
0.729036
 50
97.848355999999995
 51
130.558335
  0
ARC
  5
97
  8
0
 62
     7
 10
41.891106000000001
 20
117.6897239999999
 30
0.0
 40
5.0282339999999994
 50
307.09233599999999
 51
309.99424900000002
  0
LINE
  5
98
  8
0
 62
     7
 10
46.205199999999991
 20
114.26300000000001
 30
0.0
 11
46.78949999999999
 21
113.6789999999999
 31
0.0
  0
LINE
  5
99
  8
0
 62
     7
 10
41.039599999999993
 20
114.26300000000001
 30
0.0
 11
46.205199999999991
 21
114.26300000000001
 31
0.0
  0
ARC
  5
9A
  8
0
 62
     7
 10
41.040971999999996
 20
109.4046559999999
 30
0.0
 40
4.618733999999999
 50
90.016829000000016
 51
95.522147999999987
  0
ARC
  5
9B
  8
0
 62
     7
 10
41.092399
 20
108.373131
 30
0.0
 40
5.650625999999999
 50
95.034661999999997
 51
103.20031299999999
  0
ARC
  5
9C
  8
0
 62
     7
 10
40.367383999999987
 20
111.5613169999999
 30
0.0
 40
2.381221
 50
103.73409599999989
 51
112.195222
  0
ARC
  5
9D
  8
0
 62
     7
 10
39.801034999999999
 20
112.973687
 30
0.0
 40
0.859608
 50
112.805708
 51
124.87863299999999
  0
ARC
  5
9E
  8
0
 62
     7
 10
36.287927000000003
 20
111.6335499999999
 30
0.0
 40
2.3898419999999989
 50
89.946076000000005
 51
96.941478000000004
  0
ARC
  5
9F
  8
0
 62
     7
 10
36.098652999999999
 20
113.28366699999989
 30
0.0
 40
0.729036
 50
97.848355999999995
 51
130.558335
  0
ARC
  5
A0
  8
0
 62
     7
 10
32.392918000000002
 20
117.6897239999999
 30
0.0
 40
5.0282339999999994
 50
307.09233599999999
 51
309.99424900000002
  0
ARC
  5
A1
  8
0
 62
     7
 10
36.29242399999999
 20
111.63291099999999
 30
0.0
 40
2.3904809999999999
 50
83.059431999999987
 51
90.053864000000004
  0
ARC
  5
A2
  8
0
 62
     7
 10
36.481734000000003
 20
113.28334099999989
 30
0.0
 40
0.729359
 50
49.451336999999988
 51
82.154864000000003
  0
ARC
  5
A3
  8
0
 62
     7
 10
40.218949999999992
 20
117.72618300000001
 30
0.0
 40
5.0763239999999987
 50
229.999043
 51
232.87212799999989
  0
LINE
  5
A4
  8
0
 62
     7
 10
35.8733
 20
114.26300000000001
 30
0.0
 11
35.289000000000001
 21
113.6789999999999
 31
0.0
  0
LINE
  5
A5
  8
0
 62
     7
 10
44.9236
 20
112.244
 30
0.0
 11
44.9236
 21
113.6789999999999
 31
0.0
  0
LINE
  5
A6
  8
0
 62
     7
 10
42.769099999999987
 20
112.244
 30
0.0
 11
42.769099999999987
 21
113.6789999999999
 31
0.0
  0
LINE
  5
A7
  8
0
 62
     7
 10
39.3095
 20
112.244
 30
0.0
 11
39.3095
 21
113.6789999999999
 31
0.0
  0
LINE
  5
A8
  8
0
 62
     7
 10
37.154899999999991
 20
112.244
 30
0.0
 11
37.154899999999991
 21
113.6789999999999
 31
0.0
  0
LINE
  5
A9
  8
0
 62
     7
 10
46.653100000000002
 20
112.244
 30
0.0
 11
46.653100000000002
 21
113.6789999999999
 31
0.0
  0
LINE
  5
AA
  8
0
 62
     7
 10
35.4255
 20
112.244
 30
0.0
 11
35.4255
 21
113.6789999999999
 31
0.0
  0
LINE
  5
AB
  8
0
 62
     7
 10
35.289000000000001
 20
112.244
 30
0.0
 11
35.289000000000001
 21
113.6789999999999
 31
0.0
  0
LINE
  5
AC
  8
0
 62
     7
 10
46.78949999999999
 20
112.244
 30
0.0
 11
46.78949999999999
 21
113.6789999999999
 31
0.0
  0
LINE
  5
AD
  8
0
 62
     7
 10
41.038899999999991
 20
114.26300000000001
 30
0.0
 11
35.8733
 21
114.26300000000001
 31
0.0
  0
LINE
  5
AE
  8
0
 62
     7
 10
46.78949999999999
 20
113.6789999999999
 30
0.0
 11
46.653100000000002
 21
113.6789999999999
 31
0.0
  0
LINE
  5
AF
  8
0
 62
     7
 10
44.9236
 20
113.6789999999999
 30
0.0
 11
42.769099999999987
 21
113.6789999999999
 31
0.0
  0
LINE
  5
B0
  8
0
 62
     7
 10
39.3095
 20
113.6789999999999
 30
0.0
 11
37.154899999999991
 21
113.6789999999999
 31
0.0
  0
LINE
  5
B1
  8
0
 62
     7
 10
35.4255
 20
113.6789999999999
 30
0.0
 11
35.289000000000001
 21
113.6789999999999
 31
0.0
  0
LINE
  5
B2
  8
0
 62
     7
 10
46.78949999999999
 20
112.244
 30
0.0
 11
46.653100000000002
 21
112.244
 31
0.0
  0
LINE
  5
B3
  8
0
 62
     7
 10
44.9236
 20
112.244
 30
0.0
 11
42.769099999999987
 21
112.244
 31
0.0
  0
LINE
  5
B4
  8
0
 62
     7
 10
39.3095
 20
112.244
 30
0.0
 11
37.154899999999991
 21
112.244
 31
0.0
  0
LINE
  5
B5
  8
0
 62
     7
 10
35.4255
 20
112.244
 30
0.0
 11
35.289000000000001
 21
112.244
 31
0.0
  0
LINE
  5
B6
  8
0
 62
     7
 10
37.039099999999998
 20
168.815
 30
0.0
 11
35.4255
 21
166.02099999999999
 31
0.0
  0
LINE
  5
B7
  8
0
 62
     7
 10
46.653100000000002
 20
166.02099999999999
 30
0.0
 11
45.039400000000001
 21
168.81599999999989
 31
0.0
  0
LINE
  5
B8
  8
0
 62
     7
 10
44.9236
 20
160.53700000000001
 30
0.0
 11
46.653100000000002
 21
163.5329999999999
 31
0.0
  0
LINE
  5
B9
  8
0
 62
     7
 10
39.3095
 20
159.29300000000001
 30
0.0
 11
42.769099999999987
 21
159.29300000000001
 31
0.0
  0
LINE
  5
BA
  8
0
 62
     7
 10
35.4255
 20
163.5329999999999
 30
0.0
 11
37.155200000000001
 21
160.53700000000001
 31
0.0
  0
ARC
  5
BB
  8
0
 62
     7
 10
41.192636999999998
 20
164.93005299999999
 30
0.0
 40
4.1563230000000004
 50
182.1146939999999
 51
267.885335
  0
ARC
  5
BC
  8
0
 62
     7
 10
41.039270000000002
 20
164.77668700000001
 30
0.0
 40
4.000125999999999
 50
270.00002000000001
 51
359.99998999999991
  0
ARC
  5
BD
  8
0
 62
     7
 10
41.043467999999997
 20
164.777918
 30
0.0
 40
4.5042099999999987
 50
152.769227
 51
180.015691
  0
ARC
  5
BE
  8
0
 62
     7
 10
41.039270000000002
 20
164.77668499999999
 30
0.0
 40
4.5000109999999989
 50
179.99996999999991
 51
270.00002000000001
  0
ARC
  5
BF
  8
0
 62
     7
 10
41.039441999999987
 20
164.776859
 30
0.0
 40
4.5001850000000001
 50
269.99782699999997
 51
359.99779699999999
  0
ARC
  5
C0
  8
0
 62
     7
 10
41.012957999999998
 20
164.77201700000001
 30
0.0
 40
4.5266710000000003
 50
0.05909
 51
27.190517
  0
ARC
  5
C1
  8
0
 62
     7
 10
41.057062000000002
 20
164.7723739999999
 30
0.0
 40
4.7679210000000003
 50
147.4337919999999
 51
179.94816
  0
ARC
  5
C2
  8
0
 62
     7
 10
41.039270000000002
 20
164.77668499999999
 30
0.0
 40
4.7501269999999991
 50
179.99996999999991
 51
270.00002000000001
  0
ARC
  5
C3
  8
0
 62
     7
 10
41.039096999999991
 20
164.77651399999991
 30
0.0
 40
4.7499560000000001
 50
270.00209799999999
 51
0.002068
  0
ARC
  5
C4
  8
0
 62
     7
 10
41.005083999999997
 20
164.7682439999999
 30
0.0
 40
4.7839769999999993
 50
0.101105
 51
32.494740999999998
  0
ARC
  5
C5
  8
0
 62
     7
 10
41.027697999999987
 20
164.7787129999999
 30
0.0
 40
5.761817999999999
 50
347.50694499999997
 51
359.97983799999992
  0
ARC
  5
C6
  8
0
 62
     7
 10
41.024908000000003
 20
164.80061000000001
 30
0.0
 40
5.7773190000000003
 50
287.56800199999992
 51
312.44127200000003
  0
ARC
  5
C7
  8
0
 62
     7
 10
41.051571999999993
 20
164.796559
 30
0.0
 40
5.7729400000000002
 50
227.54671099999999
 51
252.4361199999999
  0
ARC
  5
C8
  8
0
 62
     7
 10
41.051829999999988
 20
164.77607900000001
 30
0.0
 40
5.7623639999999989
 50
167.52785600000001
 51
192.4562719999999
  0
ARC
  5
C9
  8
0
 62
     7
 10
41.027611999999991
 20
164.77464900000001
 30
0.0
 40
5.7619040000000004
 50
0.020255
 51
12.492962
  0
LINE
  5
CA
  8
0
  6
AIGENLINE001
 62
     7
 10
32.770600000000002
 20
164.77699999999999
 30
0.0
 11
49.409199999999998
 21
164.77699999999999
 31
0.0
  0
LINE
  5
CB
  8
0
 62
     7
 10
37.155200000000001
 20
148.51599999999999
 30
0.0
 11
35.4255
 21
145.52000000000001
 31
0.0
  0
LINE
  5
CC
  8
0
 62
     7
 10
42.769099999999987
 20
149.75999999999999
 30
0.0
 11
39.3095
 21
149.75999999999999
 31
0.0
  0
LINE
  5
CD
  8
0
 62
     7
 10
46.653100000000002
 20
145.52000000000001
 30
0.0
 11
44.9236
 21
148.51599999999999
 31
0.0
  0
LINE
  5
CE
  8
0
 62
     7
 10
44.9236
 20
140.03700000000001
 30
0.0
 11
46.653100000000002
 21
143.0329999999999
 31
0.0
  0
LINE
  5
CF
  8
0
 62
     7
 10
39.3095
 20
138.79300000000001
 30
0.0
 11
42.769099999999987
 21
138.79300000000001
 31
0.0
  0
LINE
  5
D0
  8
0
 62
     7
 10
35.4255
 20
143.0329999999999
 30
0.0
 11
37.155200000000001
 21
140.03700000000001
 31
0.0
  0
ARC
  5
D1
  8
0
 62
     7
 10
41.039183999999999
 20
144.27660099999991
 30
0.0
 40
3.9998680000000002
 50
359.99877600000002
 51
89.998745999999997
  0
ARC
  5
D2
  8
0
 62
     7
 10
41.192242999999991
 20
144.1233639999999
 30
0.0
 40
4.1559210000000002
 50
92.109430000000017
 51
177.88807299999999
  0
ARC
  5
D3
  8
0
 62
     7
 10
41.192636999999998
 20
144.42988299999999
 30
0.0
 40
4.1563230000000004
 50
182.1146939999999
 51
267.885335
  0
ARC
  5
D4
  8
0
 62
     7
 10
41.039096999999991
 20
144.27634399999999
 30
0.0
 40
3.9999539999999998
 50
270.00248699999997
 51
0.002457
  0
ARC
  5
D5
  8
0
 62
     7
 10
41.039441999999987
 20
144.276343
 30
0.0
 40
4.5001850000000001
 50
0.002203
 51
90.002172999999999
  0
ARC
  5
D6
  8
0
 62
     7
 10
41.039270999999992
 20
144.2765149999999
 30
0.0
 40
4.500013
 50
90.0
 51
179.99996999999991
  0
ARC
  5
D7
  8
0
 62
     7
 10
41.039270000000002
 20
144.2765149999999
 30
0.0
 40
4.5000109999999989
 50
179.99996999999991
 51
270.00002000000001
  0
ARC
  5
D8
  8
0
 62
     7
 10
41.039441999999987
 20
144.27668899999989
 30
0.0
 40
4.5001850000000001
 50
269.99782699999997
 51
359.99779699999999
  0
ARC
  5
D9
  8
0
 62
     7
 10
41.039096999999991
 20
144.2766869999999
 30
0.0
 40
4.7499560000000001
 50
359.99793199999999
 51
89.997901999999996
  0
ARC
  5
DA
  8
0
 62
     7
 10
41.039270999999992
 20
144.2765149999999
 30
0.0
 40
4.7501290000000003
 50
90.0
 51
179.99996999999991
  0
ARC
  5
DB
  8
0
 62
     7
 10
41.039270000000002
 20
144.2765149999999
 30
0.0
 40
4.7501269999999991
 50
179.99996999999991
 51
270.00002000000001
  0
ARC
  5
DC
  8
0
 62
     7
 10
41.039096999999991
 20
144.27634399999999
 30
0.0
 40
4.7499560000000001
 50
270.00209799999999
 51
0.002068
  0
ARC
  5
DD
  8
0
 62
     7
 10
41.027697999999987
 20
144.2785429999999
 30
0.0
 40
5.761817999999999
 50
347.50694499999997
 51
359.97983799999992
  0
ARC
  5
DE
  8
0
 62
     7
 10
41.024908000000003
 20
144.3004389999999
 30
0.0
 40
5.7773190000000003
 50
287.56800199999992
 51
312.44127200000003
  0
ARC
  5
DF
  8
0
 62
     7
 10
41.051571999999993
 20
144.29638899999989
 30
0.0
 40
5.7729400000000002
 50
227.54671099999999
 51
252.4361199999999
  0
ARC
  5
E0
  8
0
 62
     7
 10
41.051829999999988
 20
144.27590900000001
 30
0.0
 40
5.7623639999999989
 50
167.52785600000001
 51
192.4562719999999
  0
ARC
  5
E1
  8
0
 62
     7
 10
41.054054999999991
 20
144.25157999999999
 30
0.0
 40
5.7783499999999988
 50
107.572722
 51
132.437577
  0
ARC
  5
E2
  8
0
 62
     7
 10
41.027716999999988
 20
144.25745599999999
 30
0.0
 40
5.7718329999999991
 50
47.546718999999989
 51
72.444006999999985
  0
ARC
  5
E3
  8
0
 62
     7
 10
41.027611999999991
 20
144.27447900000001
 30
0.0
 40
5.7619040000000004
 50
0.020255
 51
12.492962
  0
LINE
  5
E4
  8
0
 62
     7
 10
45.039400000000001
 20
79.263199999999998
 30
0.0
 11
45.039400000000001
 21
110.355
 31
0.0
  0
LINE
  5
E5
  8
0
 62
     7
 10
37.039099999999998
 20
79.263199999999998
 30
0.0
 11
37.039099999999998
 21
110.355
 31
0.0
  0
LINE
  5
E6
  8
0
 62
     7
 10
45.039400000000001
 20
99.057100000000005
 30
0.0
 11
37.039099999999998
 21
99.057100000000005
 31
0.0
  0
LINE
  5
E7
  8
0
 62
     7
 10
45.039400000000001
 20
98.328500000000005
 30
0.0
 11
37.039099999999998
 21
98.328500000000005
 31
0.0
  0
LINE
  5
E8
  8
0
  6
AIGENLINE001
 62
     7
 10
41.038899999999991
 20
116.947
 30
0.0
 11
41.038899999999991
 21
72.271299999999997
 31
0.0
  0
LINE
  5
E9
  8
0
  6
AIGENLINE001
 62
     7
 10
29.0685
 20
103.76299999999991
 30
0.0
 11
52.914200000000001
 21
103.76299999999991
 31
0.0
  0
LINE
  5
EA
  8
0
  6
AIGENLINE001
 62
     7
 10
32.770600000000002
 20
144.27699999999999
 30
0.0
 11
49.409199999999998
 21
144.27699999999999
 31
0.0
  0
LINE
  5
EB
  8
0
 62
     7
 10
45.039400000000001
 20
164.77699999999999
 30
0.0
 11
45.039400000000001
 21
220.52699999999999
 31
0.0
  0
LINE
  5
EC
  8
0
 62
     7
 10
37.039099999999998
 20
164.77699999999999
 30
0.0
 11
37.039099999999998
 21
220.52699999999999
 31
0.0
  0
LINE
  5
ED
  8
0
 62
     7
 10
45.039400000000001
 20
148.31599999999989
 30
0.0
 11
45.039400000000001
 21
160.73699999999991
 31
0.0
  0
LINE
  5
EE
  8
0
 62
     7
 10
37.039099999999998
 20
148.31599999999989
 30
0.0
 11
37.039099999999998
 21
160.73699999999991
 31
0.0
  0
LINE
  5
EF
  8
0
 62
     7
 10
45.039400000000001
 20
228.52699999999999
 30
0.0
 11
45.039400000000001
 21
237.27699999999999
 31
0.0
  0
LINE
  5
F0
  8
0
 62
     7
 10
37.039099999999998
 20
228.52699999999999
 30
0.0
 11
37.039099999999998
 21
237.27699999999999
 31
0.0
  0
LINE
  5
F1
  8
0
  6
AIGENLINE001
 62
     7
 10
41.038899999999991
 20
136.21700000000001
 30
0.0
 11
41.038899999999991
 21
238.93799999999999
 31
0.0
  0
LINE
  5
F2
  8
0
 62
     7
 10
32.2849
 20
227.50599999999989
 30
0.0
 11
32.2849
 21
225.184
 31
0.0
  0
ARC
  5
F3
  8
0
 62
     7
 10
32.250648999999989
 20
219.85231899999991
 30
0.0
 40
3.3521570000000001
 50
51.997610999999992
 51
62.270862000000008
  0
ARC
  5
F4
  8
0
 62
     7
 10
31.693028999999989
 20
219.0535019999999
 30
0.0
 40
4.3252540000000002
 50
37.846416999999988
 51
52.692172999999997
  0
ARC
  5
F5
  8
0
 62
     7
 10
34.88050599999999
 20
225.20287400000001
 30
0.0
 40
2.5956939999999991
 50
180.42289799999989
 51
232.70072400000001
  0
ARC
  5
F6
  8
0
 62
     7
 10
35.24432199999999
 20
225.63902999999999
 30
0.0
 40
3.1632119999999988
 50
232.24593899999999
 51
243.043238
  0
LINE
  5
F7
  8
0
 62
     7
 10
35.108499999999999
 20
221.70699999999999
 30
0.0
 11
36.014600000000002
 21
220.52699999999999
 31
0.0
  0
LINE
  5
F8
  8
0
 62
     7
 10
32.2849
 20
227.50599999999989
 30
0.0
 11
32.2849
 21
225.184
 31
0.0
  0
ARC
  5
F9
  8
0
 62
     7
 10
49.831628000000002
 20
219.848546
 30
0.0
 40
3.357556999999999
 50
117.76600000000001
 51
128.01571299999989
  0
ARC
  5
FA
  8
0
 62
     7
 10
50.396881999999998
 20
219.03970699999991
 30
0.0
 40
4.343242
 50
127.318957
 51
142.10746299999991
  0
ARC
  5
FB
  8
0
 62
     7
 10
47.197336
 20
225.20287500000001
 30
0.0
 40
2.595704
 50
307.29955000000001
 51
359.57710800000001
  0
ARC
  5
FC
  8
0
 62
     7
 10
46.833634000000004
 20
225.63889699999999
 30
0.0
 40
3.163046
 50
296.95617900000002
 51
307.75412899999998
  0
LINE
  5
FD
  8
0
 62
     7
 10
46.9694
 20
221.70699999999999
 30
0.0
 11
46.063999999999993
 21
220.52699999999999
 31
0.0
  0
LINE
  5
FE
  8
0
 62
     7
 10
49.792999999999999
 20
227.50599999999989
 30
0.0
 11
49.792999999999999
 21
225.184
 31
0.0
  0
LINE
  5
FF
  8
0
 62
     7
 10
31.664200000000001
 20
227.50599999999989
 30
0.0
 11
31.664200000000001
 21
228.52699999999999
 31
0.0
  0
LINE
  5
100
  8
0
 62
     7
 10
50.414299999999997
 20
227.50599999999989
 30
0.0
 11
50.414299999999997
 21
228.52699999999999
 31
0.0
  0
LINE
  5
101
  8
0
 62
     7
 10
47.20839999999999
 20
222.935
 30
0.0
 11
34.870100000000001
 21
222.935
 31
0.0
  0
LINE
  5
102
  8
0
 62
     7
 10
46.063999999999993
 20
220.52699999999999
 30
0.0
 11
36.014600000000002
 21
220.52699999999999
 31
0.0
  0
LINE
  5
103
  8
0
 62
     7
 10
50.414299999999997
 20
227.50599999999989
 30
0.0
 11
31.664200000000001
 21
227.50599999999989
 31
0.0
  0
LINE
  5
104
  8
0
 62
     7
 10
45.039400000000001
 20
237.27699999999999
 30
0.0
 11
37.039099999999998
 21
237.27699999999999
 31
0.0
  0
LINE
  5
105
  8
0
 62
     7
 10
50.414299999999997
 20
228.52699999999999
 30
0.0
 11
31.664200000000001
 21
228.52699999999999
 31
0.0
  0
LINE
  5
106
  8
0
 62
     7
 10
72.828100000000006
 20
118.81399999999989
 30
0.0
 11
74.485799999999983
 21
119.2579999999999
 31
0.0
  0
LINE
  5
107
  8
0
 62
     7
 10
74.485799999999983
 20
119.2579999999999
 30
0.0
 11
72.828100000000006
 21
119.702
 31
0.0
  0
LINE
  5
108
  8
0
 62
     7
 10
72.828100000000006
 20
119.702
 30
0.0
 11
72.828100000000006
 21
118.81399999999989
 31
0.0
  0
LINE
  5
109
  8
0
 62
     7
 10
68.143699999999995
 20
119.691
 30
0.0
 11
66.485900000000001
 21
119.247
 31
0.0
  0
LINE
  5
10A
  8
0
 62
     7
 10
66.485900000000001
 20
119.247
 30
0.0
 11
68.143699999999995
 21
118.8029999999999
 31
0.0
  0
LINE
  5
10B
  8
0
 62
     7
 10
68.143699999999995
 20
118.8029999999999
 30
0.0
 11
68.143699999999995
 21
119.691
 31
0.0
  0
LINE
  5
10C
  8
0
 62
     7
 10
74.485799999999983
 20
119.2529999999999
 30
0.0
 11
66.485900000000001
 21
119.2529999999999
 31
0.0
  0
LINE
  5
10D
  8
0
 62
     7
 10
66.083200000000005
 20
111.06999999999999
 30
0.0
 11
66.361199999999997
 21
110.355
 31
0.0
  0
LINE
  5
10E
  8
0
 62
     7
 10
66.083200000000005
 20
111.06999999999999
 30
0.0
 11
66.083200000000005
 21
111.66
 31
0.0
  0
LINE
  5
10F
  8
0
 62
     7
 10
70.485699999999994
 20
111.06999999999999
 30
0.0
 11
66.083200000000005
 21
111.06999999999999
 31
0.0
  0
LINE
  5
110
  8
0
 62
     7
 10
70.485699999999994
 20
110.355
 30
0.0
 11
66.361199999999997
 21
110.355
 31
0.0
  0
LINE
  5
111
  8
0
 62
     7
 10
74.888599999999997
 20
111.06999999999999
 30
0.0
 11
74.610900000000001
 21
110.355
 31
0.0
  0
ARC
  5
112
  8
0
 62
     7
 10
73.433705000000003
 20
114.96104199999991
 30
0.0
 40
3.0615669999999988
 50
259.75498599999992
 51
270.01941299999987
  0
ARC
  5
113
  8
0
 62
     7
 10
73.248883999999975
 20
113.813997
 30
0.0
 40
1.9000659999999989
 50
240.42247499999999
 51
259.08744200000001
  0
ARC
  5
114
  8
0
 62
     7
 10
73.074753000000001
 20
113.44787700000001
 30
0.0
 40
1.495992
 50
233.56327999999999
 51
239.30109400000001
  0
ARC
  5
115
  8
0
 62
     7
 10
73.435777999999999
 20
114.96104199999991
 30
0.0
 40
3.0615669999999988
 50
269.98060699999991
 51
280.24503399999992
  0
ARC
  5
116
  8
0
 62
     7
 10
73.620599999999996
 20
113.813997
 30
0.0
 40
1.9000659999999989
 50
280.912578
 51
299.57754499999999
  0
ARC
  5
117
  8
0
 62
     7
 10
73.794730000000001
 20
113.44787700000001
 30
0.0
 40
1.495992
 50
300.69892599999997
 51
306.43673899999999
  0
ARC
  5
118
  8
0
 62
     7
 10
73.433706000000001
 20
110.96114799999989
 30
0.0
 40
3.062243
 50
89.980611999999994
 51
100.24274699999989
  0
ARC
  5
119
  8
0
 62
     7
 10
73.249162999999996
 20
112.106452
 30
0.0
 40
1.902504
 50
100.906971
 51
119.545542
  0
ARC
  5
11A
  8
0
 62
     7
 10
73.078040000000001
 20
112.46853
 30
0.0
 40
1.5034190000000001
 50
120.6765679999999
 51
126.3835159999999
  0
ARC
  5
11B
  8
0
 62
     7
 10
73.435777000000002
 20
110.96114799999989
 30
0.0
 40
3.062243
 50
79.757232999999999
 51
90.019368999999998
  0
ARC
  5
11C
  8
0
 62
     7
 10
73.620319999999992
 20
112.106452
 30
0.0
 40
1.902504
 50
60.454439000000001
 51
79.093008999999995
  0
ARC
  5
11D
  8
0
 62
     7
 10
73.791443000000001
 20
112.46853
 30
0.0
 40
1.5034190000000001
 50
53.616464000000008
 51
59.32341199999999
  0
LINE
  5
11E
  8
0
 62
     7
 10
75.772599999999997
 20
114.26300000000001
 30
0.0
 11
76.356899999999996
 21
113.6789999999999
 31
0.0
  0
LINE
  5
11F
  8
0
 62
     7
 10
76.356899999999996
 20
112.244
 30
0.0
 11
75.772599999999997
 21
111.66
 31
0.0
  0
LINE
  5
120
  8
0
 62
     7
 10
72.186199999999999
 20
112.244
 30
0.0
 11
72.186199999999999
 21
113.6789999999999
 31
0.0
  0
LINE
  5
121
  8
0
 62
     7
 10
74.683300000000003
 20
112.244
 30
0.0
 11
74.683300000000003
 21
113.6789999999999
 31
0.0
  0
LINE
  5
122
  8
0
 62
     7
 10
74.888599999999997
 20
111.06999999999999
 30
0.0
 11
74.888599999999997
 21
111.66
 31
0.0
  0
LINE
  5
123
  8
0
 62
     7
 10
76.356899999999996
 20
112.244
 30
0.0
 11
76.356899999999996
 21
113.6789999999999
 31
0.0
  0
LINE
  5
124
  8
0
 62
     7
 10
70.485699999999994
 20
114.26300000000001
 30
0.0
 11
75.772599999999997
 21
114.26300000000001
 31
0.0
  0
LINE
  5
125
  8
0
 62
     7
 10
70.485699999999994
 20
113.6789999999999
 30
0.0
 11
72.186199999999999
 21
113.6789999999999
 31
0.0
  0
LINE
  5
126
  8
0
 62
     7
 10
74.683300000000003
 20
113.6789999999999
 30
0.0
 11
76.356899999999996
 21
113.6789999999999
 31
0.0
  0
LINE
  5
127
  8
0
 62
     7
 10
70.485699999999994
 20
112.244
 30
0.0
 11
72.186199999999999
 21
112.244
 31
0.0
  0
LINE
  5
128
  8
0
 62
     7
 10
74.683300000000003
 20
112.244
 30
0.0
 11
76.356899999999996
 21
112.244
 31
0.0
  0
LINE
  5
129
  8
0
 62
     7
 10
70.485699999999994
 20
111.06999999999999
 30
0.0
 11
74.888599999999997
 21
111.06999999999999
 31
0.0
  0
LINE
  5
12A
  8
0
 62
     7
 10
70.485699999999994
 20
110.355
 30
0.0
 11
74.610900000000001
 21
110.355
 31
0.0
  0
LINE
  5
12B
  8
0
 62
     7
 10
70.485699999999994
 20
111.66
 30
0.0
 11
75.772599999999997
 21
111.66
 31
0.0
  0
ARC
  5
12C
  8
0
 62
     7
 10
67.538426999999984
 20
114.96104199999991
 30
0.0
 40
3.0615669999999988
 50
269.98060699999991
 51
280.24503399999992
  0
ARC
  5
12D
  8
0
 62
     7
 10
67.723247999999984
 20
113.813997
 30
0.0
 40
1.9000659999999989
 50
280.912578
 51
299.57754499999999
  0
ARC
  5
12E
  8
0
 62
     7
 10
67.897379000000001
 20
113.44787700000001
 30
0.0
 40
1.495992
 50
300.69892599999997
 51
306.43673899999999
  0
ARC
  5
12F
  8
0
 62
     7
 10
67.536353000000005
 20
114.96104199999991
 30
0.0
 40
3.0615669999999988
 50
259.75498599999992
 51
270.01941299999987
  0
ARC
  5
130
  8
0
 62
     7
 10
67.351531999999992
 20
113.813997
 30
0.0
 40
1.9000659999999989
 50
240.42247499999999
 51
259.08744200000001
  0
ARC
  5
131
  8
0
 62
     7
 10
67.177401000000003
 20
113.44787700000001
 30
0.0
 40
1.495992
 50
233.56327999999999
 51
239.30109400000001
  0
ARC
  5
132
  8
0
 62
     7
 10
67.538426000000001
 20
110.96114799999989
 30
0.0
 40
3.062243
 50
79.757232999999999
 51
90.019368999999998
  0
ARC
  5
133
  8
0
 62
     7
 10
67.722968999999992
 20
112.106452
 30
0.0
 40
1.902504
 50
60.454439000000001
 51
79.093008999999995
  0
ARC
  5
134
  8
0
 62
     7
 10
67.894091000000003
 20
112.46853
 30
0.0
 40
1.5034190000000001
 50
53.616464000000008
 51
59.32341199999999
  0
ARC
  5
135
  8
0
 62
     7
 10
67.536354000000003
 20
110.96114799999989
 30
0.0
 40
3.062243
 50
89.980611999999994
 51
100.24274699999989
  0
ARC
  5
136
  8
0
 62
     7
 10
67.351810999999998
 20
112.106452
 30
0.0
 40
1.902504
 50
100.906971
 51
119.545542
  0
ARC
  5
137
  8
0
 62
     7
 10
67.180689000000001
 20
112.46853
 30
0.0
 40
1.5034190000000001
 50
120.6765679999999
 51
126.3835159999999
  0
LINE
  5
138
  8
0
 62
     7
 10
65.1995
 20
114.26300000000001
 30
0.0
 11
64.614599999999996
 21
113.6789999999999
 31
0.0
  0
LINE
  5
139
  8
0
 62
     7
 10
66.485900000000001
 20
114.871
 30
0.0
 11
66.485900000000001
 21
119.669
 31
0.0
  0
LINE
  5
13A
  8
0
 62
     7
 10
74.485799999999983
 20
114.871
 30
0.0
 11
74.485799999999983
 21
119.669
 31
0.0
  0
LINE
  5
13B
  8
0
 62
     7
 10
74.486199999999997
 20
89.513099999999994
 30
0.0
 11
74.486199999999997
 21
110.355
 31
0.0
  0
LINE
  5
13C
  8
0
 62
     7
 10
64.614599999999996
 20
112.244
 30
0.0
 11
65.1995
 21
111.66
 31
0.0
  0
LINE
  5
13D
  8
0
 62
     7
 10
68.785899999999984
 20
112.244
 30
0.0
 11
68.785899999999984
 21
113.6789999999999
 31
0.0
  0
LINE
  5
13E
  8
0
 62
     7
 10
66.288899999999998
 20
112.244
 30
0.0
 11
66.288899999999998
 21
113.6789999999999
 31
0.0
  0
LINE
  5
13F
  8
0
 62
     7
 10
66.485900000000001
 20
89.513099999999994
 30
0.0
 11
66.485900000000001
 21
110.355
 31
0.0
  0
LINE
  5
140
  8
0
 62
     7
 10
64.614599999999996
 20
112.244
 30
0.0
 11
64.614599999999996
 21
113.6789999999999
 31
0.0
  0
LINE
  5
141
  8
0
 62
     7
 10
70.485699999999994
 20
114.26300000000001
 30
0.0
 11
65.1995
 21
114.26300000000001
 31
0.0
  0
LINE
  5
142
  8
0
 62
     7
 10
70.485699999999994
 20
113.6789999999999
 30
0.0
 11
68.785899999999984
 21
113.6789999999999
 31
0.0
  0
LINE
  5
143
  8
0
 62
     7
 10
66.288899999999998
 20
113.6789999999999
 30
0.0
 11
64.614599999999996
 21
113.6789999999999
 31
0.0
  0
LINE
  5
144
  8
0
 62
     7
 10
70.485699999999994
 20
112.244
 30
0.0
 11
68.785899999999984
 21
112.244
 31
0.0
  0
LINE
  5
145
  8
0
 62
     7
 10
66.288899999999998
 20
112.244
 30
0.0
 11
64.614599999999996
 21
112.244
 31
0.0
  0
LINE
  5
146
  8
0
 62
     7
 10
70.485699999999994
 20
111.66
 30
0.0
 11
65.1995
 21
111.66
 31
0.0
  0
LINE
  5
147
  8
0
 62
     7
 10
86.583399999999997
 20
90.319599999999994
 30
0.0
 11
86.861099999999993
 21
89.605399999999989
 31
0.0
  0
LINE
  5
148
  8
0
 62
     7
 10
86.583399999999997
 20
90.319599999999994
 30
0.0
 11
86.583399999999997
 21
90.909800000000004
 31
0.0
  0
LINE
  5
149
  8
0
 62
     7
 10
90.986199999999997
 20
90.319599999999994
 30
0.0
 11
86.583399999999997
 21
90.319599999999994
 31
0.0
  0
LINE
  5
14A
  8
0
 62
     7
 10
74.486199999999997
 20
99.057100000000005
 30
0.0
 11
66.485900000000001
 21
99.057100000000005
 31
0.0
  0
LINE
  5
14B
  8
0
 62
     7
 10
74.486199999999997
 20
98.328500000000005
 30
0.0
 11
66.485900000000001
 21
98.328500000000005
 31
0.0
  0
LINE
  5
14C
  8
0
 62
     7
 10
90.986199999999997
 20
89.605399999999989
 30
0.0
 11
86.861099999999993
 21
89.605399999999989
 31
0.0
  0
LINE
  5
14D
  8
0
 62
     7
 10
95.389099999999985
 20
90.319599999999994
 30
0.0
 11
95.110699999999994
 21
89.605399999999989
 31
0.0
  0
ARC
  5
14E
  8
0
 62
     7
 10
101.2363239999999
 20
93.513398999999993
 30
0.0
 40
14.249869
 50
90.000692999999984
 51
180.00070299999999
  0
ARC
  5
14F
  8
0
 62
     7
 10
101.2361499999999
 20
93.513227999999998
 30
0.0
 40
6.2501329999999991
 50
90.0
 51
179.99996999999991
  0
ARC
  5
150
  8
0
  6
AIGENLINE001
 62
     7
 10
101.236323
 20
93.513400000000004
 30
0.0
 40
10.25008699999999
 50
90.000962999999999
 51
180.00097299999999
  0
ARC
  5
151
  8
0
 62
     7
 10
80.735804000000002
 20
89.513278999999997
 30
0.0
 40
14.250213
 50
269.99932699999988
 51
359.99929700000001
  0
ARC
  5
152
  8
0
 62
     7
 10
80.735804000000002
 20
89.512929
 30
0.0
 40
14.249864000000001
 50
179.999278
 51
269.99932699999988
  0
ARC
  5
153
  8
0
 62
     7
 10
80.736149999999995
 20
89.513621999999998
 30
0.0
 40
6.2503049999999991
 50
269.99528299999997
 51
359.99525299999988
  0
ARC
  5
154
  8
0
 62
     7
 10
80.735804999999999
 20
89.512930000000011
 30
0.0
 40
6.2496140000000002
 50
179.99839099999991
 51
269.99844100000001
  0
ARC
  5
155
  8
0
  6
AIGENLINE001
 62
     7
 10
80.735977000000005
 20
89.513450000000006
 30
0.0
 40
10.250258999999989
 50
269.99809399999992
 51
359.998064
  0
ARC
  5
156
  8
0
  6
AIGENLINE001
 62
     7
 10
80.735631999999995
 20
89.513101999999989
 30
0.0
 40
10.249911000000001
 50
179.99996999999991
 51
270.00002000000001
  0
LINE
  5
157
  8
0
 62
     7
 10
90.986199999999997
 20
84.5411
 30
0.0
 11
90.986199999999997
 21
67.979699999999994
 31
0.0
  0
LINE
  5
158
  8
0
  6
AIGENLINE001
 62
     7
 10
90.986199999999997
 20
93.513199999999983
 30
0.0
 11
90.986199999999997
 21
89.513099999999994
 31
0.0
  0
LINE
  5
159
  8
0
 62
     7
 10
163.48699999999999
 20
98.698499999999996
 30
0.0
 11
163.48699999999999
 21
60.396700000000003
 31
0.0
  0
LINE
  5
15A
  8
0
 62
     7
 10
70.485699999999994
 20
85.055800000000005
 30
0.0
 11
70.485699999999994
 21
60.396700000000003
 31
0.0
  0
LINE
  5
15B
  8
0
  6
AIGENLINE001
 62
     7
 10
70.485699999999994
 20
115.714
 30
0.0
 11
70.485699999999994
 21
89.513099999999994
 31
0.0
  0
ARC
  5
15C
  8
0
 62
     7
 10
93.933526000000001
 20
94.210983999999996
 30
0.0
 40
3.0614499999999989
 50
259.75479000000001
 51
270.01950799999997
  0
ARC
  5
15D
  8
0
 62
     7
 10
93.748587999999998
 20
93.063736999999989
 30
0.0
 40
1.899729999999999
 50
240.42090300000001
 51
259.089361
  0
ARC
  5
15E
  8
0
 62
     7
 10
93.573269999999994
 20
92.695964000000004
 30
0.0
 40
1.493628
 50
233.55873700000001
 51
239.3056379999999
  0
ARC
  5
15F
  8
0
 62
     7
 10
93.935608999999999
 20
94.210983999999996
 30
0.0
 40
3.0614499999999989
 50
269.98051199999998
 51
280.24522999999999
  0
ARC
  5
160
  8
0
 62
     7
 10
94.12054599999999
 20
93.063736999999989
 30
0.0
 40
1.899729999999999
 50
280.91065900000001
 51
299.579117
  0
ARC
  5
161
  8
0
 62
     7
 10
94.295865000000006
 20
92.695964000000004
 30
0.0
 40
1.493628
 50
300.69438199999991
 51
306.441283
  0
ARC
  5
162
  8
0
 62
     7
 10
93.933526999999984
 20
90.211322999999993
 30
0.0
 40
3.0621269999999998
 50
89.980516000000009
 51
100.242943
  0
ARC
  5
163
  8
0
 62
     7
 10
93.748868000000002
 20
91.356830000000002
 30
0.0
 40
1.902166
 50
100.90505400000001
 51
119.5471129999999
  0
ARC
  5
164
  8
0
 62
     7
 10
93.576545999999993
 20
91.720580999999996
 30
0.0
 40
1.501031999999999
 50
120.6720269999999
 51
126.3880569999999
  0
ARC
  5
165
  8
0
 62
     7
 10
93.935608000000016
 20
90.211322999999993
 30
0.0
 40
3.0621269999999998
 50
79.757037999999994
 51
90.019463999999985
  0
ARC
  5
166
  8
0
 62
     7
 10
94.120266999999998
 20
91.356830000000002
 30
0.0
 40
1.902166
 50
60.452867000000012
 51
79.094926999999998
  0
ARC
  5
167
  8
0
 62
     7
 10
94.292589000000007
 20
91.720580999999996
 30
0.0
 40
1.501031999999999
 50
53.61192299999999
 51
59.327952999999987
  0
LINE
  5
168
  8
0
 62
     7
 10
96.272400000000005
 20
93.513199999999983
 30
0.0
 11
96.856700000000004
 21
92.928899999999985
 31
0.0
  0
LINE
  5
169
  8
0
 62
     7
 10
96.856700000000004
 20
91.494399999999999
 30
0.0
 11
96.272400000000005
 21
90.909800000000004
 31
0.0
  0
LINE
  5
16A
  8
0
 62
     7
 10
92.686099999999996
 20
91.494399999999999
 30
0.0
 11
92.686099999999996
 21
92.928899999999985
 31
0.0
  0
LINE
  5
16B
  8
0
 62
     7
 10
95.183099999999996
 20
91.494399999999999
 30
0.0
 11
95.183099999999996
 21
92.928899999999985
 31
0.0
  0
LINE
  5
16C
  8
0
 62
     7
 10
95.389099999999985
 20
90.319599999999994
 30
0.0
 11
95.389099999999985
 21
90.909800000000004
 31
0.0
  0
LINE
  5
16D
  8
0
 62
     7
 10
96.856700000000004
 20
91.494399999999999
 30
0.0
 11
96.856700000000004
 21
92.928899999999985
 31
0.0
  0
LINE
  5
16E
  8
0
 62
     7
 10
90.986199999999997
 20
93.513199999999983
 30
0.0
 11
96.272400000000005
 21
93.513199999999983
 31
0.0
  0
LINE
  5
16F
  8
0
 62
     7
 10
90.986199999999997
 20
92.928899999999985
 30
0.0
 11
92.686099999999996
 21
92.928899999999985
 31
0.0
  0
LINE
  5
170
  8
0
 62
     7
 10
95.183099999999996
 20
92.928899999999985
 30
0.0
 11
96.856700000000004
 21
92.928899999999985
 31
0.0
  0
LINE
  5
171
  8
0
 62
     7
 10
90.986199999999997
 20
91.494399999999999
 30
0.0
 11
92.686099999999996
 21
91.494399999999999
 31
0.0
  0
LINE
  5
172
  8
0
 62
     7
 10
95.183099999999996
 20
91.494399999999999
 30
0.0
 11
96.856700000000004
 21
91.494399999999999
 31
0.0
  0
LINE
  5
173
  8
0
 62
     7
 10
101.236
 20
99.763400000000004
 30
0.0
 11
146.73699999999999
 21
99.763400000000004
 31
0.0
  0
LINE
  5
174
  8
0
 62
     7
 10
101.236
 20
107.76299999999991
 30
0.0
 11
146.73699999999999
 21
107.76299999999991
 31
0.0
  0
LINE
  5
175
  8
0
 62
     7
 10
72.143500000000003
 20
61.332700000000003
 30
0.0
 11
70.485699999999994
 21
60.888300000000001
 31
0.0
  0
LINE
  5
176
  8
0
 62
     7
 10
70.485699999999994
 20
60.888300000000001
 30
0.0
 11
72.143500000000003
 21
60.444200000000002
 31
0.0
  0
LINE
  5
177
  8
0
 62
     7
 10
72.143500000000003
 20
60.444200000000002
 30
0.0
 11
72.143500000000003
 21
61.332700000000003
 31
0.0
  0
LINE
  5
178
  8
0
 62
     7
 10
161.828
 20
60.455300000000001
 30
0.0
 11
163.48699999999999
 21
60.899000000000001
 31
0.0
  0
LINE
  5
179
  8
0
 62
     7
 10
163.48699999999999
 20
60.899000000000001
 30
0.0
 11
161.828
 21
61.343400000000003
 31
0.0
  0
LINE
  5
17A
  8
0
 62
     7
 10
161.828
 20
61.343400000000003
 30
0.0
 11
161.828
 21
60.455300000000001
 31
0.0
  0
LINE
  5
17B
  8
0
 62
     7
 10
70.485699999999994
 20
60.893799999999999
 30
0.0
 11
163.48699999999999
 21
60.893799999999999
 31
0.0
  0
LINE
  5
17C
  8
0
 62
     7
 10
146.73699999999999
 20
110.6489999999999
 30
0.0
 11
146.73699999999999
 21
121.215
 31
0.0
  0
LINE
  5
17D
  8
0
 62
     7
 10
154.73699999999991
 20
114.396
 30
0.0
 11
154.73699999999991
 21
121.215
 31
0.0
  0
LINE
  5
17E
  8
0
 62
     7
 10
148.39500000000001
 20
121.092
 30
0.0
 11
146.73699999999999
 21
120.64700000000001
 31
0.0
  0
LINE
  5
17F
  8
0
 62
     7
 10
146.73699999999999
 20
120.64700000000001
 30
0.0
 11
148.39500000000001
 21
120.20399999999989
 31
0.0
  0
LINE
  5
180
  8
0
 62
     7
 10
148.39500000000001
 20
120.20399999999989
 30
0.0
 11
148.39500000000001
 21
121.092
 31
0.0
  0
LINE
  5
181
  8
0
 62
     7
 10
153.07900000000001
 20
120.2139999999999
 30
0.0
 11
154.73699999999991
 21
120.6579999999999
 31
0.0
  0
LINE
  5
182
  8
0
 62
     7
 10
154.73699999999991
 20
120.6579999999999
 30
0.0
 11
153.07900000000001
 21
121.10299999999999
 31
0.0
  0
LINE
  5
183
  8
0
 62
     7
 10
153.07900000000001
 20
121.10299999999999
 30
0.0
 11
153.07900000000001
 21
120.2139999999999
 31
0.0
  0
LINE
  5
184
  8
0
 62
     7
 10
146.73699999999999
 20
120.65299999999991
 30
0.0
 11
154.73699999999991
 21
120.65299999999991
 31
0.0
  0
LINE
  5
185
  8
0
 62
     7
 10
155.762
 20
94.388300000000015
 30
0.0
 11
177.8249999999999
 21
94.388300000000015
 31
0.0
  0
LINE
  5
186
  8
0
 62
     7
 10
155.762
 20
113.13799999999991
 30
0.0
 11
177.8249999999999
 21
113.13799999999991
 31
0.0
  0
LINE
  5
187
  8
0
 62
     7
 10
176.8829999999999
 20
96.046099999999996
 30
0.0
 11
177.32799999999989
 21
94.388300000000015
 31
0.0
  0
LINE
  5
188
  8
0
 62
     7
 10
177.32799999999989
 20
94.388300000000015
 30
0.0
 11
177.7709999999999
 21
96.046099999999996
 31
0.0
  0
LINE
  5
189
  8
0
 62
     7
 10
177.7709999999999
 20
96.046099999999996
 30
0.0
 11
176.8829999999999
 21
96.046099999999996
 31
0.0
  0
LINE
  5
18A
  8
0
 62
     7
 10
177.76099999999991
 20
111.48099999999999
 30
0.0
 11
177.31700000000001
 21
113.13799999999991
 31
0.0
  0
LINE
  5
18B
  8
0
 62
     7
 10
177.31700000000001
 20
113.13799999999991
 30
0.0
 11
176.87200000000001
 21
111.48099999999999
 31
0.0
  0
LINE
  5
18C
  8
0
 62
     7
 10
176.87200000000001
 20
111.48099999999999
 30
0.0
 11
177.76099999999991
 21
111.48099999999999
 31
0.0
  0
LINE
  5
18D
  8
0
 62
     7
 10
177.322
 20
94.388300000000015
 30
0.0
 11
177.322
 21
113.13799999999991
 31
0.0
  0
LINE
  5
18E
  8
0
 62
     7
 10
164.15700000000001
 20
99.763400000000004
 30
0.0
 11
171.048
 21
99.763400000000004
 31
0.0
  0
LINE
  5
18F
  8
0
 62
     7
 10
164.15700000000001
 20
107.76299999999991
 30
0.0
 11
171.048
 21
107.76299999999991
 31
0.0
  0
LINE
  5
190
  8
0
 62
     7
 10
154.73699999999991
 20
99.763400000000004
 30
0.0
 11
163.48699999999999
 21
99.763400000000004
 31
0.0
  0
LINE
  5
191
  8
0
 62
     7
 10
154.73699999999991
 20
107.76299999999991
 30
0.0
 11
163.48699999999999
 21
107.76299999999991
 31
0.0
  0
LINE
  5
192
  8
0
  6
AIGENLINE001
 62
     7
 10
101.236
 20
103.76299999999991
 30
0.0
 11
165.148
 21
103.76299999999991
 31
0.0
  0
LINE
  5
193
  8
0
 62
     7
 10
72.143500000000003
 20
68.907899999999984
 30
0.0
 11
70.485699999999994
 21
68.463399999999993
 31
0.0
  0
LINE
  5
194
  8
0
 62
     7
 10
70.485699999999994
 20
68.463399999999993
 30
0.0
 11
72.143500000000003
 21
68.0197
 31
0.0
  0
LINE
  5
195
  8
0
 62
     7
 10
72.143500000000003
 20
68.0197
 30
0.0
 11
72.143500000000003
 21
68.907899999999984
 31
0.0
  0
LINE
  5
196
  8
0
 62
     7
 10
89.327799999999996
 20
68.0304
 30
0.0
 11
90.986199999999997
 21
68.474500000000006
 31
0.0
  0
LINE
  5
197
  8
0
 62
     7
 10
90.986199999999997
 20
68.474500000000006
 30
0.0
 11
89.327799999999996
 21
68.918899999999994
 31
0.0
  0
LINE
  5
198
  8
0
 62
     7
 10
89.327799999999996
 20
68.918899999999994
 30
0.0
 11
89.327799999999996
 21
68.0304
 31
0.0
  0
LINE
  5
199
  8
0
 62
     7
 10
70.485699999999994
 20
68.469300000000004
 30
0.0
 11
90.986199999999997
 21
68.469300000000004
 31
0.0
  0
LINE
  5
19A
  8
0
 62
     7
 10
58.1432
 20
114.26300000000001
 30
0.0
 11
64.344800000000006
 21
114.26300000000001
 31
0.0
  0
LINE
  5
19B
  8
0
 62
     7
 10
58.1432
 20
79.263199999999998
 30
0.0
 11
75.750399999999999
 21
79.263199999999998
 31
0.0
  0
LINE
  5
19C
  8
0
 62
     7
 10
58.619399999999999
 20
80.921300000000002
 30
0.0
 11
59.063800000000001
 21
79.263199999999998
 31
0.0
  0
LINE
  5
19D
  8
0
 62
     7
 10
59.063800000000001
 20
79.263199999999998
 30
0.0
 11
59.508200000000002
 21
80.921300000000002
 31
0.0
  0
LINE
  5
19E
  8
0
 62
     7
 10
59.508200000000002
 20
80.921300000000002
 30
0.0
 11
58.619399999999999
 21
80.921300000000002
 31
0.0
  0
LINE
  5
19F
  8
0
 62
     7
 10
59.497199999999999
 20
112.6049999999999
 30
0.0
 11
59.052799999999998
 21
114.26300000000001
 31
0.0
  0
LINE
  5
1A0
  8
0
 62
     7
 10
59.052799999999998
 20
114.26300000000001
 30
0.0
 11
58.608299999999993
 21
112.6049999999999
 31
0.0
  0
LINE
  5
1A1
  8
0
 62
     7
 10
58.608299999999993
 20
112.6049999999999
 30
0.0
 11
59.497199999999999
 21
112.6049999999999
 31
0.0
  0
LINE
  5
1A2
  8
0
 62
     7
 10
59.058300000000003
 20
79.263199999999998
 30
0.0
 11
59.058300000000003
 21
114.26300000000001
 31
0.0
  0
LINE
  5
1A3
  8
0
 62
     7
 10
85.596000000000004
 20
79.263199999999998
 30
0.0
 11
108.04000000000001
 21
79.263199999999998
 31
0.0
  0
LINE
  5
1A4
  8
0
 62
     7
 10
90.986199999999997
 20
90.319599999999994
 30
0.0
 11
95.389099999999985
 21
90.319599999999994
 31
0.0
  0
LINE
  5
1A5
  8
0
 62
     7
 10
90.986199999999997
 20
89.605399999999989
 30
0.0
 11
95.110699999999994
 21
89.605399999999989
 31
0.0
  0
LINE
  5
1A6
  8
0
 62
     7
 10
90.986199999999997
 20
90.909800000000004
 30
0.0
 11
96.272400000000005
 21
90.909800000000004
 31
0.0
  0
ARC
  5
1A7
  8
0
 62
     7
 10
88.038252
 20
94.211100999999985
 30
0.0
 40
3.0615669999999988
 50
269.98060699999991
 51
280.24503399999992
  0
ARC
  5
1A8
  8
0
 62
     7
 10
88.223073999999997
 20
93.064056000000008
 30
0.0
 40
1.9000659999999989
 50
280.912578
 51
299.57754499999999
  0
ARC
  5
1A9
  8
0
 62
     7
 10
88.397204000000002
 20
92.697935999999984
 30
0.0
 40
1.495992
 50
300.69892599999997
 51
306.43673899999999
  0
ARC
  5
1AA
  8
0
 62
     7
 10
88.036179000000004
 20
94.211100999999985
 30
0.0
 40
3.0615669999999988
 50
259.75498599999992
 51
270.01941299999987
  0
ARC
  5
1AB
  8
0
 62
     7
 10
87.851357999999991
 20
93.064056000000008
 30
0.0
 40
1.9000659999999989
 50
240.42247499999999
 51
259.08744200000001
  0
ARC
  5
1AC
  8
0
 62
     7
 10
87.677227000000002
 20
92.697935999999984
 30
0.0
 40
1.495992
 50
233.56327999999999
 51
239.30109400000001
  0
ARC
  5
1AD
  8
0
 62
     7
 10
88.038251000000002
 20
90.211206000000004
 30
0.0
 40
3.062243
 50
79.757232999999999
 51
90.019368999999998
  0
ARC
  5
1AE
  8
0
 62
     7
 10
88.222793999999993
 20
91.356510999999998
 30
0.0
 40
1.902504
 50
60.454439000000001
 51
79.093008999999995
  0
ARC
  5
1AF
  8
0
 62
     7
 10
88.393917000000002
 20
91.718588999999994
 30
0.0
 40
1.5034190000000001
 50
53.616464000000008
 51
59.32341199999999
  0
ARC
  5
1B0
  8
0
 62
     7
 10
88.036180000000002
 20
90.211206000000004
 30
0.0
 40
3.062243
 50
89.980611999999994
 51
100.24274699999989
  0
ARC
  5
1B1
  8
0
 62
     7
 10
87.851636999999997
 20
91.356510999999998
 30
0.0
 40
1.902504
 50
100.906971
 51
119.545542
  0
ARC
  5
1B2
  8
0
 62
     7
 10
87.680514000000002
 20
91.718588999999994
 30
0.0
 40
1.5034190000000001
 50
120.6765679999999
 51
126.3835159999999
  0
LINE
  5
1B3
  8
0
 62
     7
 10
85.699399999999997
 20
93.513199999999983
 30
0.0
 11
85.115099999999984
 21
92.928899999999985
 31
0.0
  0
LINE
  5
1B4
  8
0
 62
     7
 10
94.986000000000004
 20
89.513099999999994
 30
0.0
 11
94.986000000000004
 21
89.605399999999989
 31
0.0
  0
LINE
  5
1B5
  8
0
 62
     7
 10
85.115099999999984
 20
91.494399999999999
 30
0.0
 11
85.699399999999997
 21
90.909800000000004
 31
0.0
  0
LINE
  5
1B6
  8
0
 62
     7
 10
89.285700000000006
 20
91.494399999999999
 30
0.0
 11
89.285700000000006
 21
92.928899999999985
 31
0.0
  0
LINE
  5
1B7
  8
0
 62
     7
 10
86.788700000000006
 20
91.494399999999999
 30
0.0
 11
86.788700000000006
 21
92.928899999999985
 31
0.0
  0
LINE
  5
1B8
  8
0
 62
     7
 10
86.985799999999983
 20
89.513099999999994
 30
0.0
 11
86.985799999999983
 21
89.605399999999989
 31
0.0
  0
LINE
  5
1B9
  8
0
 62
     7
 10
85.115099999999984
 20
91.494399999999999
 30
0.0
 11
85.115099999999984
 21
92.928899999999985
 31
0.0
  0
LINE
  5
1BA
  8
0
 62
     7
 10
90.986199999999997
 20
93.513199999999983
 30
0.0
 11
85.699399999999997
 21
93.513199999999983
 31
0.0
  0
LINE
  5
1BB
  8
0
 62
     7
 10
90.986199999999997
 20
92.928899999999985
 30
0.0
 11
89.285700000000006
 21
92.928899999999985
 31
0.0
  0
LINE
  5
1BC
  8
0
 62
     7
 10
86.788700000000006
 20
92.928899999999985
 30
0.0
 11
85.115099999999984
 21
92.928899999999985
 31
0.0
  0
LINE
  5
1BD
  8
0
 62
     7
 10
90.986199999999997
 20
91.494399999999999
 30
0.0
 11
89.285700000000006
 21
91.494399999999999
 31
0.0
  0
LINE
  5
1BE
  8
0
 62
     7
 10
86.788700000000006
 20
91.494399999999999
 30
0.0
 11
85.115099999999984
 21
91.494399999999999
 31
0.0
  0
LINE
  5
1BF
  8
0
 62
     7
 10
90.986199999999997
 20
90.909800000000004
 30
0.0
 11
85.699399999999997
 21
90.909800000000004
 31
0.0
  0
ARC
  5
1C0
  8
0
 62
     7
 10
146.04403999999991
 20
112.5628929999999
 30
0.0
 40
3.3732699999999989
 50
322.043027
 51
332.24582400000003
  0
ARC
  5
1C1
  8
0
 62
     7
 10
145.25811100000001
 20
113.1143039999999
 30
0.0
 40
4.3323819999999991
 50
307.86170499999992
 51
322.68615299999988
  0
ARC
  5
1C2
  8
0
 62
     7
 10
151.41356699999989
 20
109.9201639999999
 30
0.0
 40
2.5974400000000002
 50
90.432596000000004
 51
142.68156099999999
  0
ARC
  5
1C3
  8
0
 62
     7
 10
151.84918300000001
 20
109.55730199999989
 30
0.0
 40
3.163953999999999
 50
142.23813599999991
 51
153.034029
  0
LINE
  5
1C4
  8
0
 62
     7
 10
147.917
 20
109.694
 30
0.0
 11
146.73699999999999
 21
108.7879999999999
 31
0.0
  0
LINE
  5
1C5
  8
0
 62
     7
 10
153.71600000000001
 20
112.5179999999999
 30
0.0
 11
151.39400000000001
 21
112.5179999999999
 31
0.0
  0
ARC
  5
1C6
  8
0
 62
     7
 10
146.04403999999991
 20
94.964081000000007
 30
0.0
 40
3.3732699999999989
 50
27.754176000000001
 51
37.956972999999998
  0
ARC
  5
1C7
  8
0
 62
     7
 10
145.25811100000001
 20
94.412669999999991
 30
0.0
 40
4.3323819999999991
 50
37.313846999999988
 51
52.138294999999992
  0
ARC
  5
1C8
  8
0
 62
     7
 10
151.41356699999989
 20
97.606809999999996
 30
0.0
 40
2.5974400000000002
 50
217.3184389999999
 51
269.56740400000001
  0
ARC
  5
1C9
  8
0
 62
     7
 10
151.84918300000001
 20
97.969670999999991
 30
0.0
 40
3.163953999999999
 50
206.96597099999991
 51
217.76186399999989
  0
LINE
  5
1CA
  8
0
 62
     7
 10
147.917
 20
97.833100000000002
 30
0.0
 11
146.73699999999999
 21
98.738400000000013
 31
0.0
  0
LINE
  5
1CB
  8
0
 62
     7
 10
153.71600000000001
 20
95.009399999999985
 30
0.0
 11
151.39400000000001
 21
95.009399999999985
 31
0.0
  0
LINE
  5
1CC
  8
0
 62
     7
 10
153.71600000000001
 20
113.13799999999991
 30
0.0
 11
154.73699999999991
 21
113.13799999999991
 31
0.0
  0
LINE
  5
1CD
  8
0
 62
     7
 10
153.71600000000001
 20
94.388300000000015
 30
0.0
 11
154.73699999999991
 21
94.388300000000015
 31
0.0
  0
LINE
  5
1CE
  8
0
 62
     7
 10
149.14599999999999
 20
97.594300000000004
 30
0.0
 11
149.14599999999999
 21
109.93299999999989
 31
0.0
  0
LINE
  5
1CF
  8
0
 62
     7
 10
146.73699999999999
 20
98.738400000000013
 30
0.0
 11
146.73699999999999
 21
108.7879999999999
 31
0.0
  0
LINE
  5
1D0
  8
0
 62
     7
 10
153.71600000000001
 20
94.388300000000015
 30
0.0
 11
153.71600000000001
 21
113.13799999999991
 31
0.0
  0
LINE
  5
1D1
  8
0
 62
     7
 10
107.1429999999999
 20
80.921300000000002
 30
0.0
 11
107.58799999999989
 21
79.263199999999998
 31
0.0
  0
LINE
  5
1D2
  8
0
 62
     7
 10
107.58799999999989
 20
79.263199999999998
 30
0.0
 11
108.032
 21
80.921300000000002
 31
0.0
  0
LINE
  5
1D3
  8
0
 62
     7
 10
108.032
 20
80.921300000000002
 30
0.0
 11
107.1429999999999
 21
80.921300000000002
 31
0.0
  0
LINE
  5
1D4
  8
0
 62
     7
 10
108.021
 20
102.105
 30
0.0
 11
107.577
 21
103.76299999999991
 31
0.0
  0
LINE
  5
1D5
  8
0
 62
     7
 10
107.577
 20
103.76299999999991
 30
0.0
 11
107.13200000000001
 21
102.105
 31
0.0
  0
LINE
  5
1D6
  8
0
 62
     7
 10
107.13200000000001
 20
102.105
 30
0.0
 11
108.021
 21
102.105
 31
0.0
  0
LINE
  5
1D7
  8
0
 62
     7
 10
107.58199999999989
 20
79.263199999999998
 30
0.0
 11
107.58199999999989
 21
103.76299999999991
 31
0.0
  0
LINE
  5
1D8
  8
0
 62
     7
 10
170.21799999999999
 20
101.42100000000001
 30
0.0
 11
170.66200000000001
 21
99.763400000000004
 31
0.0
  0
LINE
  5
1D9
  8
0
 62
     7
 10
170.66200000000001
 20
99.763400000000004
 30
0.0
 11
171.10599999999991
 21
101.42100000000001
 31
0.0
  0
LINE
  5
1DA
  8
0
 62
     7
 10
171.10599999999991
 20
101.42100000000001
 30
0.0
 11
170.21799999999999
 21
101.42100000000001
 31
0.0
  0
LINE
  5
1DB
  8
0
 62
     7
 10
171.09599999999989
 20
106.105
 30
0.0
 11
170.6509999999999
 21
107.76299999999991
 31
0.0
  0
LINE
  5
1DC
  8
0
 62
     7
 10
170.6509999999999
 20
107.76299999999991
 30
0.0
 11
170.20699999999991
 21
106.105
 31
0.0
  0
LINE
  5
1DD
  8
0
 62
     7
 10
170.20699999999991
 20
106.105
 30
0.0
 11
171.09599999999989
 21
106.105
 31
0.0
  0
LINE
  5
1DE
  8
0
 62
     7
 10
170.65700000000001
 20
99.763400000000004
 30
0.0
 11
170.65700000000001
 21
107.76299999999991
 31
0.0
  0
LINE
  5
1DF
  8
0
 62
     7
 10
163.48699999999999
 20
99.763400000000004
 30
0.0
 11
163.48699999999999
 21
107.76299999999991
 31
0.0
  0
LINE
  5
1E0
  8
0
 62
     7
 10
154.73699999999991
 20
94.388300000000015
 30
0.0
 11
154.73699999999991
 21
113.13799999999991
 31
0.0
  0
LINE
  5
1E1
  8
_________2
 62
     7
 10
205.30099999999999
 20
127.411
 30
0.0
 11
183.55000000000001
 21
127.411
 31
0.0
  0
LINE
  5
1E2
  8
_________2
 62
     7
 10
100.2999999999999
 20
-4.0910799999999998
 30
0.0
 11
100.2999999999999
 21
-21.070999999999991
 31
0.0
  0
LINE
  5
1E3
  8
_________2
 62
     7
 10
100.2999999999999
 20
275.93099999999993
 30
0.0
 11
100.2999999999999
 21
258.911
 31
0.0
  0
LINE
  5
1E4
  8
_________2
 62
     7
 10
17.049399999999991
 20
127.411
 30
0.0
 11
-4.7006899999999989
 21
127.411
 31
0.0
  0
LINE
  5
1E5
  8
_________2
 62
     7
 10
76.740799999999993
 20
29.8047
 30
0.0
 11
74.554599999999994
 21
29.8047
 31
0.0
  0
LINE
  5
1E6
  8
_________2
 62
     7
 10
77.233500000000006
 20
29.8047
 30
0.0
 11
76.981300000000005
 21
29.8047
 31
0.0
  0
LINE
  5
1E7
  8
_________2
 62
     7
 10
77.726200000000006
 20
29.8047
 30
0.0
 11
80.6511
 21
29.8047
 31
0.0
  0
LINE
  5
1E8
  8
_________2
 62
     7
 10
77.233500000000006
 20
29.8047
 30
0.0
 11
77.485299999999995
 21
29.8047
 31
0.0
  0
LINE
  5
1E9
  8
_________2
 62
     7
 10
70.837000000000003
 20
29.8047
 30
0.0
 11
68.650300000000001
 21
29.8047
 31
0.0
  0
LINE
  5
1EA
  8
_________2
 62
     7
 10
71.329300000000003
 20
29.8047
 30
0.0
 11
71.077399999999983
 21
29.8047
 31
0.0
  0
LINE
  5
1EB
  8
_________2
 62
     7
 10
71.329300000000003
 20
30.2974
 30
0.0
 11
71.329300000000003
 21
32.484400000000001
 31
0.0
  0
LINE
  5
1EC
  8
_________2
 62
     7
 10
71.329300000000003
 20
29.8047
 30
0.0
 11
71.329300000000003
 21
30.057300000000001
 31
0.0
  0
LINE
  5
1ED
  8
_________2
 62
     7
 10
71.821899999999999
 20
29.8047
 30
0.0
 11
74.008899999999997
 21
29.8047
 31
0.0
  0
LINE
  5
1EE
  8
_________2
 62
     7
 10
71.329300000000003
 20
29.8047
 30
0.0
 11
71.581400000000002
 21
29.8047
 31
0.0
  0
LINE
  5
1EF
  8
_________2
 62
     7
 10
71.329300000000003
 20
29.312799999999999
 30
0.0
 11
71.329300000000003
 21
27.126200000000001
 31
0.0
  0
LINE
  5
1F0
  8
_________2
 62
     7
 10
71.329300000000003
 20
29.8047
 30
0.0
 11
71.329300000000003
 21
29.5532
 31
0.0
  0
LINE
  5
1F1
  8
_________2
 62
     7
 10
75.040300000000002
 20
28.5852
 30
0.0
 11
80.218299999999985
 21
27.720400000000001
 31
0.0
  0
LINE
  5
1F2
  8
_________2
 62
     7
 10
75.040300000000002
 20
31.024699999999999
 30
0.0
 11
80.218299999999985
 21
31.8901
 31
0.0
  0
LINE
  5
1F3
  8
_________2
 62
     7
 10
80.218299999999985
 20
27.720400000000001
 30
0.0
 11
80.218299999999985
 21
31.8901
 31
0.0
  0
LINE
  5
1F4
  8
_________2
 62
     7
 10
75.040300000000002
 20
28.5852
 30
0.0
 11
75.040300000000002
 21
31.024699999999999
 31
0.0
  0
ARC
  5
1F5
  8
_________2
 62
     7
 10
71.282340000000005
 20
29.757825
 30
0.0
 40
1.2677020000000001
 50
2.1210029999999991
 51
87.878986999999995
  0
ARC
  5
1F6
  8
_________2
 62
     7
 10
71.375812999999994
 20
29.758545999999999
 30
0.0
 40
1.2669680000000001
 50
92.105782999999988
 51
177.91037
  0
ARC
  5
1F7
  8
_________2
 62
     7
 10
71.376186000000004
 20
29.851671
 30
0.0
 40
1.2673680000000001
 50
182.12203600000001
 51
267.877993
  0
ARC
  5
1F8
  8
_________2
 62
     7
 10
71.282359999999997
 20
29.851998999999989
 30
0.0
 40
1.267695999999999
 50
272.12015300000002
 51
357.863674
  0
ARC
  5
1F9
  8
_________2
 62
     7
 10
71.248890000000003
 20
29.724731999999989
 30
0.0
 40
2.1668310000000002
 50
2.1161439999999989
 51
87.874379000000005
  0
ARC
  5
1FA
  8
_________2
 62
     7
 10
71.408918999999983
 20
29.725798000000001
 30
0.0
 40
2.1657399999999991
 50
92.107930000000025
 51
177.91097500000001
  0
ARC
  5
1FB
  8
_________2
 62
     7
 10
71.408934000000002
 20
29.884775999999999
 30
0.0
 40
2.1657950000000001
 50
182.11776599999999
 51
267.89173399999999
  0
ARC
  5
1FC
  8
_________2
 62
     7
 10
71.249286999999995
 20
29.885429999999989
 30
0.0
 40
2.1664590000000001
 50
272.11546800000002
 51
357.86560400000002
  0
TEXT
  5
1FD
  8
_________2
 62
     7
 10
104.604
 20
1.6794899999999999
 30
0.0
 40
3.0923400000000001
  1
図番
 41
0.5
  0
LINE
  5
1FE
  8
_________2
 62
     7
 10
103.55
 20
5.9087199999999989
 30
0.0
 11
183.55099999999999
 21
5.9087199999999989
 31
0.0
  0
TEXT
  5
1FF
  8
_________2
 62
     7
 10
104.604
 20
11.679299999999991
 30
0.0
 40
3.0923400000000001
  1
品番
 41
0.5
  0
TEXT
  5
200
  8
_________2
 62
     7
 10
104.604
 20
31.8184
 30
0.0
 40
3.0923400000000001
  1
名称
 41
0.5
  0
TEXT
  5
201
  8
_________2
 62
     7
 10
91.844958333333338
 20
26.822299999999998
 30
0.0
 40
3.6545800000000002
  1
mm
 41
0.5
 72
     1
 11
93.367699999999985
 21
26.822299999999998
 31
0.0
  0
TEXT
  5
202
  8
_________2
 62
     7
 10
85.642999999999986
 20
31.8184
 30
0.0
 40
3.0923400000000001
  1
単位
 41
0.5
  0
TEXT
  5
203
  8
_________2
 62
     7
 10
85.642999999999986
 20
19.410799999999991
 30
0.0
 40
3.0923400000000001
  1
尺度
 41
0.5
  0
TEXT
  5
204
  8
_________2
 62
     7
 10
90.548558666666679
 20
13.218199999999991
 30
0.0
 40
3.6545800000000002
  1
1 ： 4
 41
0.5
 72
     1
 11
93.959500000000006
 21
13.218199999999991
 31
0.0
  0
TEXT
  5
205
  8
_________2
 62
     7
 10
136.00657499999991
 20
9.1082000000000001
 30
0.0
 40
3.9357000000000002
  1
CET6PV1R
 41
0.5
 72
     1
 11
143.55000000000001
 21
9.1082000000000001
 31
0.0
  0
TEXT
  5
206
  8
_________2
 62
     7
 10
136.00657499999991
 20
-0.8926299999999999
 30
0.0
 40
3.9357000000000002
  1
CET6PV1R
 41
0.5
 72
     1
 11
143.55000000000001
 21
-0.8926299999999999
 31
0.0
  0
TEXT
  5
207
  8
_________2
 62
     7
 10
24.586600000000001
 20
0.707627
 30
0.0
 40
3.9357000000000002
  1
国産洗面器用
 41
0.5
  0
TEXT
  5
208
  8
_________2
 62
     7
 10
109.179
 20
24.226099999999999
 30
0.0
 40
3.9357000000000002
  1
Pトラップ
 41
0.5
  0
TEXT
  5
209
  8
_________2
 62
     7
 10
39.425100333333333
 20
13.603400000000001
 30
0.0
 40
3.6545800000000002
  1
早川
 41
0.5
 72
     1
 11
41.313299999999998
 21
13.603400000000001
 31
0.0
  0
TEXT
  5
20A
  8
_________2
 62
     7
 10
20.789890666666661
 20
13.603400000000001
 30
0.0
 40
3.6545800000000002
  1
石原
 41
0.5
 72
     1
 11
22.739000000000001
 21
13.603400000000001
 31
0.0
  0
TEXT
  5
20B
  8
_________2
 62
     7
 10
67.785300000000007
 20
13.218199999999991
 30
0.0
 40
3.6545800000000002
  1
12.07.25
 41
0.5
  0
TEXT
  5
20C
  8
_________2
 62
     7
 10
66.5929
 20
19.410799999999991
 30
0.0
 40
3.0923400000000001
  1
日付
 41
0.5
  0
TEXT
  5
20D
  8
_________2
 62
     7
 10
29.639199999999992
 20
19.410799999999991
 30
0.0
 40
3.0923400000000001
  1
検図
 41
0.5
  0
TEXT
  5
20E
  8
_________2
 62
     7
 10
18.020900000000001
 20
5.21143
 30
0.0
 40
3.0923400000000001
  1
備考
 41
0.5
  0
TEXT
  5
20F
  8
_________2
 62
     7
 10
18.020900000000001
 20
19.410799999999991
 30
0.0
 40
3.0923400000000001
  1
製図
 41
0.5
  0
TEXT
  5
210
  8
_________2
 62
     7
 10
23.788265333333339
 20
27.936800000000002
 30
0.0
 40
4.4979399999999989
  1
セラトレーディング株式会社
 41
0.5
 72
     1
 11
41.180300000000003
 21
27.936800000000002
 31
0.0
  0
LINE
  5
211
  8
_________2
 62
     7
 10
183.55099999999999
 20
-4.0910799999999998
 30
0.0
 11
17.049399999999991
 21
-4.0910799999999998
 31
0.0
  0
LINE
  5
212
  8
_________2
 62
     7
 10
17.049399999999991
 20
-4.0910799999999998
 30
0.0
 11
17.049399999999991
 21
258.911
 31
0.0
  0
LINE
  5
213
  8
_________2
 62
     7
 10
17.049399999999991
 20
258.911
 30
0.0
 11
183.55099999999999
 21
258.911
 31
0.0
  0
LINE
  5
214
  8
_________2
 62
     7
 10
183.55099999999999
 20
258.911
 30
0.0
 11
183.55099999999999
 21
-4.0910799999999998
 31
0.0
  0
LINE
  5
215
  8
_________2
 62
     7
 10
65.549400000000006
 20
9.4092999999999982
 30
0.0
 11
65.549400000000006
 21
35.909100000000002
 31
0.0
  0
LINE
  5
216
  8
_________2
 62
     7
 10
84.549599999999984
 20
9.4092999999999982
 30
0.0
 11
84.549599999999984
 21
35.909100000000002
 31
0.0
  0
LINE
  5
217
  8
_________2
 62
     7
 10
103.55
 20
-4.0910799999999998
 30
0.0
 11
103.55
 21
35.909100000000002
 31
0.0
  0
LINE
  5
218
  8
_________2
 62
     7
 10
28.549199999999988
 20
9.4092999999999982
 30
0.0
 11
28.549199999999988
 21
23.409199999999998
 31
0.0
  0
LINE
  5
219
  8
_________2
 62
     7
 10
17.049399999999991
 20
9.4092999999999982
 30
0.0
 11
103.55
 21
9.4092999999999982
 31
0.0
  0
LINE
  5
21A
  8
_________2
 62
     7
 10
17.049399999999991
 20
23.409199999999998
 30
0.0
 11
103.55
 21
23.409199999999998
 31
0.0
  0
LINE
  5
21B
  8
_________2
 62
     7
 10
103.55
 20
15.9085
 30
0.0
 11
183.55099999999999
 21
15.9085
 31
0.0
  0
LINE
  5
21C
  8
_________2
 62
     7
 10
17.049399999999991
 20
35.909100000000002
 30
0.0
 11
183.55099999999999
 21
35.909100000000002
 31
0.0
  0
ENDSEC
  0
EOF
