  0
SECTION
  2
HEADER
  9
$ACADVER
  1
AC1009
  9
$INSBASE
 10
0.0
 20
0.0
 30
0.0
  9
$EXTMIN
 10
-4.7008599999999987
 20
-21.070999999999991
 30
0.0
  9
$EXTMAX
 10
205.30099999999999
 20
275.93099999999993
 30
0.0
  9
$LIMMIN
 10
0.0
 20
0.0
  9
$LIMMAX
 10
12.0
 20
9.0
  9
$ORTHOMODE
 70
     0
  9
$REGENMODE
 70
     1
  9
$FILLMODE
 70
     1
  9
$QTEXTMODE
 70
     0
  9
$MIRRTEXT
 70
     1
  9
$DRAGMODE
 70
     2
  9
$LTSCALE
 40
1.0
  9
$OSMODE
 70
    37
  9
$ATTMODE
 70
     1
  9
$TEXTSIZE
 40
0.0
  9
$TRACEWID
 40
0.05
  9
$TEXTSTYLE
  7
STANDARD
  9
$CLAYER
  8
0
  9
$CELTYPE
  6
CONTINUOUS
  9
$CECOLOR
 62
   256
  9
$DIMSCALE
 40
1.0
  9
$DIMASZ
 40
0.18
  9
$DIMEXO
 40
0.0625
  9
$DIMDLI
 40
0.38
  9
$DIMRND
 40
0.0
  9
$DIMDLE
 40
0.0
  9
$DIMEXE
 40
0.18
  9
$DIMTP
 40
0.0
  9
$DIMTM
 40
0.0
  9
$DIMTXT
 40
0.18
  9
$DIMCEN
 40
0.09
  9
$DIMTSZ
 40
0.0
  9
$DIMTOL
 70
     0
  9
$DIMLIM
 70
     0
  9
$DIMTIH
 70
     1
  9
$DIMTOH
 70
     1
  9
$DIMSE1
 70
     0
  9
$DIMSE2
 70
     0
  9
$DIMTAD
 70
     0
  9
$DIMZIN
 70
     0
  9
$DIMBLK
  1

  9
$DIMASO
 70
     1
  9
$DIMSHO
 70
     1
  9
$DIMPOST
  1

  9
$DIMAPOST
  1

  9
$DIMALT
 70
     0
  9
$DIMALTD
 70
     2
  9
$DIMALTF
 40
25.399999999999999
  9
$DIMLFAC
 40
1.0
  9
$DIMTOFL
 70
     0
  9
$DIMTVP
 40
0.0
  9
$DIMTIX
 70
     0
  9
$DIMSOXD
 70
     0
  9
$DIMSAH
 70
     0
  9
$DIMBLK1
  1

  9
$DIMBLK2
  1

  9
$DIMSTYLE
  2
STANDARD
  9
$DIMCLRD
 70
     0
  9
$DIMCLRE
 70
     0
  9
$DIMCLRT
 70
     0
  9
$DIMTFAC
 40
1.0
  9
$DIMGAP
 40
0.09
  9
$LUNITS
 70
     2
  9
$LUPREC
 70
     4
  9
$SKETCHINC
 40
0.1
  9
$FILLETRAD
 40
0.0
  9
$AUNITS
 70
     0
  9
$AUPREC
 70
     0
  9
$MENU
  1
.
  9
$ELEVATION
 40
0.0
  9
$PELEVATION
 40
0.0
  9
$THICKNESS
 40
0.0
  9
$LIMCHECK
 70
     0
  9
$BLIPMODE
 70
     0
  9
$CHAMFERA
 40
0.0
  9
$CHAMFERB
 40
0.0
  9
$SKPOLY
 70
     0
  9
$TDCREATE
 40
2444972.375
  9
$TDUPDATE
 40
2456170.2478254512
  9
$TDINDWG
 40
0.0000083218
  9
$TDUSRTIMER
 40
0.0000083218
  9
$USRTIMER
 70
     1
  9
$ANGBASE
 50
0.0
  9
$ANGDIR
 70
     0
  9
$PDMODE
 70
     0
  9
$PDSIZE
 40
0.0
  9
$PLINEWID
 40
0.0
  9
$COORDS
 70
     1
  9
$SPLFRAME
 70
     0
  9
$SPLINETYPE
 70
     6
  9
$SPLINESEGS
 70
     8
  9
$ATTDIA
 70
     0
  9
$ATTREQ
 70
     1
  9
$HANDLING
 70
     1
  9
$HANDSEED
  5
268
  9
$SURFTAB1
 70
     6
  9
$SURFTAB2
 70
     6
  9
$SURFTYPE
 70
     6
  9
$SURFU
 70
     6
  9
$SURFV
 70
     6
  9
$UCSNAME
  2

  9
$UCSORG
 10
0.0
 20
0.0
 30
0.0
  9
$UCSXDIR
 10
1.0
 20
0.0
 30
0.0
  9
$UCSYDIR
 10
0.0
 20
1.0
 30
0.0
  9
$PUCSNAME
  2

  9
$PUCSORG
 10
0.0
 20
0.0
 30
0.0
  9
$PUCSXDIR
 10
1.0
 20
0.0
 30
0.0
  9
$PUCSYDIR
 10
0.0
 20
1.0
 30
0.0
  9
$USERI1
 70
     0
  9
$USERI2
 70
     0
  9
$USERI3
 70
     0
  9
$USERI4
 70
     0
  9
$USERI5
 70
     0
  9
$USERR1
 40
0.0
  9
$USERR2
 40
0.0
  9
$USERR3
 40
0.0
  9
$USERR4
 40
0.0
  9
$USERR5
 40
0.0
  9
$WORLDVIEW
 70
     1
  9
$SHADEDGE
 70
     3
  9
$SHADEDIF
 70
    70
  9
$TILEMODE
 70
     1
  9
$MAXACTVP
 70
    48
  9
$PLIMCHECK
 70
     0
  9
$PEXTMIN
 10
1.0000000000000000E+020
 20
1.0000000000000000E+020
 30
1.0000000000000000E+020
  9
$PEXTMAX
 10
-1.0000000000000000E+020
 20
-1.0000000000000000E+020
 30
-1.0000000000000000E+020
  9
$PLIMMIN
 10
0.0
 20
0.0
  9
$PLIMMAX
 10
12.0
 20
9.0
  9
$UNITMODE
 70
     0
  9
$VISRETAIN
 70
     1
  9
$PLINEGEN
 70
     0
  9
$PSLTSCALE
 70
     1
  0
ENDSEC
  0
SECTION
  2
TABLES
  0
TABLE
  2
VPORT
 70
     2
  0
VPORT
  2
*ACTIVE
 70
     0
 10
0.0
 20
0.0
 11
1.0
 21
1.0
 12
205.31037406752429
 22
127.42999999999989
 13
0.0
 23
0.0
 14
1.0
 24
1.0
 15
0.0
 25
0.0
 16
0.0
 26
0.0
 36
1.0
 17
0.0
 27
0.0
 37
0.0
 40
299.24634760705283
 41
2.2894736842105261
 42
50.0
 43
0.0
 44
0.0
 50
0.0
 51
0.0
 71
     0
 72
   100
 73
     1
 74
     1
 75
     0
 76
     0
 77
     0
 78
     0
  0
ENDTAB
  0
TABLE
  2
LTYPE
 70
     2
  0
LTYPE
  2
CONTINUOUS
 70
     0
  3
Solid line
 72
    65
 73
     0
 40
0.0
  0
LTYPE
  2
AIGENLINE001
 70
     0
  3
generate AI->DXF Converter
 72
    65
 73
     4
 40
5.8561449999999988
 49
3.5278
 49
-0.776115
 49
0.776115
 49
-0.776115
  0
ENDTAB
  0
TABLE
  2
LAYER
 70
     2
  0
LAYER
  2
0
 70
     0
 62
     7
  6
CONTINUOUS
  0
LAYER
  2
_________2
 70
     0
 62
     7
  6
CONTINUOUS
  0
ENDTAB
  0
TABLE
  2
STYLE
 70
     1
  0
STYLE
  2
STANDARD
 70
     0
 40
0.0
 41
0.0
 50
0.0
 71
     0
 42
0.0
  3
TXT
  4
EXTFONT.SHX
  0
ENDTAB
  0
TABLE
  2
VIEW
 70
     0
  0
ENDTAB
  0
TABLE
  2
UCS
 70
     0
  0
ENDTAB
  0
TABLE
  2
APPID
 70
     1
  0
APPID
  2
ACAD
 70
     0
  0
ENDTAB
  0
TABLE
  2
DIMSTYLE
 70
     1
  0
DIMSTYLE
  2
STANDARD
 70
     0
  3

  4

  5

  6

  7

 40
1.0
 41
0.18
 42
0.0625
 43
0.38
 44
0.18
 45
0.0
 46
0.0
 47
0.0
 48
0.0
140
0.18
141
0.09
142
0.0
143
25.399999999999999
144
1.0
145
0.0
146
1.0
147
0.09
 71
     0
 72
     0
 73
     1
 74
     1
 75
     0
 76
     0
 77
     0
 78
     0
170
     0
171
     2
172
     0
173
     0
174
     0
175
     0
176
     0
177
     0
178
     0
  0
ENDTAB
  0
ENDSEC
  0
SECTION
  2
BLOCKS
  0
BLOCK
  8
0
  2
$MODEL_SPACE
 70
     0
 10
0.0
 20
0.0
 30
0.0
  3
$MODEL_SPACE
  1

  0
ENDBLK
  5
1A
  8
0
  0
BLOCK
 67
     1
  8
0
  2
$PAPER_SPACE
 70
     0
 10
0.0
 20
0.0
 30
0.0
  3
$PAPER_SPACE
  1

  0
ENDBLK
  5
17
 67
     1
  8
0
  0
ENDSEC
  0
SECTION
  2
ENTITIES
  0
TEXT
  5
22
  8
0
 62
     7
 10
98.858440000000002
 20
164.3779999999999
 30
0.0
 40
3.0923400000000001
  1
%%c32
 41
0.5
 72
     1
 11
100.92
 21
164.3779999999999
 31
0.0
  0
TEXT
  5
23
  8
0
 62
     7
 10
130.21952499999989
 20
112.6449999999999
 30
0.0
 40
3.0923400000000001
  1
82
 41
0.5
 72
     1
 11
131.5079999999999
 21
112.6449999999999
 31
0.0
  0
TEXT
  5
24
  8
0
 62
     7
 10
109.7905249999999
 20
112.5029999999999
 30
0.0
 40
3.0923400000000001
  1
82
 41
0.5
 72
     1
 11
111.07899999999989
 21
112.5029999999999
 31
0.0
  0
TEXT
  5
25
  8
0
 62
     7
 10
162.995
 20
103.57544
 30
0.0
 40
3.0923400000000001
  1
625
 50
90.0
 41
0.5
 72
     1
 11
162.995
 21
105.637
 31
0.0
  0
TEXT
  5
26
  8
0
 62
     7
 10
155.15899999999999
 20
133.35852499999999
 30
0.0
 40
3.0923400000000001
  1
98
 50
90.0
 41
0.5
 72
     1
 11
155.15899999999999
 21
134.64699999999999
 31
0.0
  0
TEXT
  5
27
  8
0
 62
     7
 10
139.95043999999999
 20
53.281500000000001
 30
0.0
 40
3.0923400000000001
  1
%%c75
 41
0.5
 72
     1
 11
142.012
 21
53.281500000000001
 31
0.0
  0
TEXT
  5
28
  8
0
 62
     7
 10
139.81844000000001
 20
59.722499999999989
 30
0.0
 40
3.0923400000000001
  1
%%c32
 41
0.5
 72
     1
 11
141.88
 21
59.722499999999989
 31
0.0
  0
TEXT
  5
29
  8
0
 62
     7
 10
123.352
 20
76.09922499999999
 30
0.0
 40
3.0923400000000001
  1
32
 50
90.0
 41
0.5
 72
     1
 11
123.352
 21
77.387699999999995
 31
0.0
  0
TEXT
  5
2A
  8
0
 62
     7
 10
89.258300000000006
 20
138.41198249999999
 30
0.0
 40
3.0923400000000001
  1
140
 50
90.0
 41
0.5
 72
     1
 11
89.258300000000006
 21
140.08699999999999
 31
0.0
  0
ARC
  5
2B
  8
0
 62
     7
 10
58.037773999999999
 20
225.46931799999999
 30
0.0
 40
9.6033980000000003
 50
180.84483599999999
 51
243.88197099999991
  0
ARC
  5
2C
  8
0
 62
     7
 10
57.810446999999989
 20
225.32772099999991
 30
0.0
 40
9.3750270000000011
 50
90.0
 51
179.99996999999991
  0
ARC
  5
2D
  8
0
 62
     7
 10
57.81044399999999
 20
225.32772099999991
 30
0.0
 40
9.3750270000000011
 50
0.00001
 51
89.999980000000008
  0
ARC
  5
2E
  8
0
 62
     7
 10
57.590527999999999
 20
225.4646249999999
 30
0.0
 40
9.5959199999999996
 50
296.09295600000002
 51
359.18254499999989
  0
ARC
  5
2F
  8
0
 62
     7
 10
58.013302000000003
 20
225.44931399999999
 30
0.0
 40
8.9577240000000007
 50
180.77777199999991
 51
242.017506
  0
ARC
  5
30
  8
0
 62
     7
 10
57.810446999999989
 20
225.32772099999991
 30
0.0
 40
8.7540440000000004
 50
90.0
 51
179.99996999999991
  0
ARC
  5
31
  8
0
 62
     7
 10
57.81044399999999
 20
225.32772099999991
 30
0.0
 40
8.7540440000000004
 50
0.00001
 51
89.999980000000008
  0
ARC
  5
32
  8
0
 62
     7
 10
57.61534000000001
 20
225.44462200000001
 30
0.0
 40
8.9499119999999994
 50
297.96413899999988
 51
359.25160699999992
  0
ARC
  5
33
  8
0
 62
     7
 10
57.842450999999997
 20
225.33816400000001
 30
0.0
 40
5.0563760000000002
 50
180.11833899999999
 51
217.10767899999991
  0
ARC
  5
34
  8
0
 62
     7
 10
57.810532999999992
 20
225.327808
 30
0.0
 40
5.0244460000000002
 50
90.000981999999993
 51
180.00099199999991
  0
ARC
  5
35
  8
0
 62
     7
 10
57.810358999999998
 20
225.327808
 30
0.0
 40
5.0244460000000002
 50
359.9990279999999
 51
89.998997999999986
  0
ARC
  5
36
  8
0
 62
     7
 10
57.7667
 20
225.34172000000001
 30
0.0
 40
5.0681240000000001
 50
322.94970899999993
 51
359.84174999999999
  0
LINE
  5
37
  8
0
 62
     7
 10
53.407600000000002
 20
133.64400000000001
 30
0.0
 11
53.686
 21
132.93000000000001
 31
0.0
  0
LINE
  5
38
  8
0
 62
     7
 10
53.407600000000002
 20
133.64400000000001
 30
0.0
 11
53.407600000000002
 21
134.23400000000001
 31
0.0
  0
LINE
  5
39
  8
0
 62
     7
 10
53.810699999999997
 20
133.64400000000001
 30
0.0
 11
53.407600000000002
 21
133.64400000000001
 31
0.0
  0
LINE
  5
3A
  8
0
 62
     7
 10
53.810699999999997
 20
132.93000000000001
 30
0.0
 11
53.686
 21
132.93000000000001
 31
0.0
  0
LINE
  5
3B
  8
0
 62
     7
 10
62.213299999999997
 20
133.64400000000001
 30
0.0
 11
61.935600000000001
 21
132.93000000000001
 31
0.0
  0
LINE
  5
3C
  8
0
 62
     7
 10
62.213299999999997
 20
133.64400000000001
 30
0.0
 11
62.213299999999997
 21
134.23400000000001
 31
0.0
  0
LINE
  5
3D
  8
0
 62
     7
 10
61.810899999999997
 20
133.64400000000001
 30
0.0
 11
62.213299999999997
 21
133.64400000000001
 31
0.0
  0
LINE
  5
3E
  8
0
 62
     7
 10
61.810899999999997
 20
132.93000000000001
 30
0.0
 11
61.935600000000001
 21
132.93000000000001
 31
0.0
  0
LINE
  5
3F
  8
0
 62
     7
 10
61.810899999999997
 20
132.83799999999991
 30
0.0
 11
61.810899999999997
 21
132.93000000000001
 31
0.0
  0
LINE
  5
40
  8
0
 62
     7
 10
53.810699999999997
 20
132.83799999999991
 30
0.0
 11
53.810699999999997
 21
132.93000000000001
 31
0.0
  0
ARC
  5
41
  8
0
 62
     7
 10
62.562132999999989
 20
136.8639639999999
 30
0.0
 40
2.3898419999999989
 50
269.94609500000001
 51
276.94149800000002
  0
ARC
  5
42
  8
0
 62
     7
 10
62.751407999999991
 20
135.2138469999999
 30
0.0
 40
0.729036
 50
277.84837599999992
 51
310.55835499999989
  0
ARC
  5
43
  8
0
 62
     7
 10
66.457143000000002
 20
130.8077909999999
 30
0.0
 40
5.0282339999999994
 50
127.092316
 51
129.9942289999999
  0
ARC
  5
44
  8
0
 62
     7
 10
62.559297999999998
 20
136.88869600000001
 30
0.0
 40
2.4145720000000002
 50
263.05625900000001
 51
270.01392499999992
  0
ARC
  5
45
  8
0
 62
     7
 10
62.368512000000003
 20
135.21498799999989
 30
0.0
 40
0.7301910000000002
 50
229.0347689999999
 51
262.03956599999998
  0
ARC
  5
46
  8
0
 62
     7
 10
63.824928
 20
137.10126099999999
 30
0.0
 40
3.1123689999999988
 50
229.6767569999999
 51
231.555644
  0
LINE
  5
47
  8
0
 62
     7
 10
62.976700000000001
 20
134.23400000000001
 30
0.0
 11
63.561000000000007
 21
134.8189999999999
 31
0.0
  0
LINE
  5
48
  8
0
 62
     7
 10
61.810899999999997
 20
134.23400000000001
 30
0.0
 11
62.976700000000001
 21
134.23400000000001
 31
0.0
  0
ARC
  5
49
  8
0
 62
     7
 10
53.059446999999999
 20
136.8639639999999
 30
0.0
 40
2.3898419999999989
 50
263.05852199999998
 51
270.05392399999988
  0
ARC
  5
4A
  8
0
 62
     7
 10
52.870173000000001
 20
135.2138469999999
 30
0.0
 40
0.729036
 50
229.441665
 51
262.15164399999992
  0
ARC
  5
4B
  8
0
 62
     7
 10
49.16443799999999
 20
130.8077909999999
 30
0.0
 40
5.0282339999999994
 50
50.005750999999997
 51
52.907663999999997
  0
ARC
  5
4C
  8
0
 62
     7
 10
53.062282999999987
 20
136.88869600000001
 30
0.0
 40
2.4145720000000002
 50
269.98609499999998
 51
276.94375999999988
  0
ARC
  5
4D
  8
0
 62
     7
 10
53.253067999999999
 20
135.21498799999989
 30
0.0
 40
0.7301910000000002
 50
277.96045400000003
 51
310.96525099999991
  0
ARC
  5
4E
  8
0
 62
     7
 10
51.796652999999999
 20
137.10126099999999
 30
0.0
 40
3.1123689999999988
 50
308.44437599999992
 51
310.32326299999988
  0
LINE
  5
4F
  8
0
 62
     7
 10
52.644799999999989
 20
134.23400000000001
 30
0.0
 11
52.060499999999998
 21
134.8189999999999
 31
0.0
  0
LINE
  5
50
  8
0
 62
     7
 10
53.810699999999997
 20
134.23400000000001
 30
0.0
 11
52.644799999999989
 21
134.23400000000001
 31
0.0
  0
ARC
  5
51
  8
0
 62
     7
 10
62.562132999999989
 20
134.20785299999989
 30
0.0
 40
2.3898419999999989
 50
83.058502000000004
 51
90.053905
  0
ARC
  5
52
  8
0
 62
     7
 10
62.751407999999991
 20
135.85796999999991
 30
0.0
 40
0.729036
 50
49.441644999999987
 51
82.151623999999998
  0
ARC
  5
53
  8
0
 62
     7
 10
66.457143000000002
 20
140.264027
 30
0.0
 40
5.0282339999999994
 50
230.00577100000001
 51
232.90768399999999
  0
ARC
  5
54
  8
0
 62
     7
 10
62.559328000000001
 20
134.16797099999991
 30
0.0
 40
2.4297230000000001
 50
89.986858999999995
 51
96.900931999999983
  0
ARC
  5
55
  8
0
 62
     7
 10
62.367765000000013
 20
135.8568149999999
 30
0.0
 40
0.7302080000000001
 50
97.901054999999985
 51
130.88647800000001
  0
ARC
  5
56
  8
0
 62
     7
 10
63.786898999999998
 20
134.01637600000001
 30
0.0
 40
3.0533529999999991
 50
128.41237199999989
 51
130.32719299999991
  0
LINE
  5
57
  8
0
 62
     7
 10
62.976700000000001
 20
136.83699999999999
 30
0.0
 11
63.561000000000007
 21
136.2529999999999
 31
0.0
  0
LINE
  5
58
  8
0
 62
     7
 10
61.810899999999997
 20
136.83699999999999
 30
0.0
 11
62.976700000000001
 21
136.83699999999999
 31
0.0
  0
ARC
  5
59
  8
0
 62
     7
 10
53.059446999999999
 20
134.20785299999989
 30
0.0
 40
2.3898419999999989
 50
89.946076000000005
 51
96.941478000000004
  0
ARC
  5
5A
  8
0
 62
     7
 10
52.870173000000001
 20
135.85796999999991
 30
0.0
 40
0.729036
 50
97.848355999999995
 51
130.558335
  0
ARC
  5
5B
  8
0
 62
     7
 10
49.16443799999999
 20
140.264027
 30
0.0
 40
5.0282339999999994
 50
307.09233599999999
 51
309.99424900000002
  0
ARC
  5
5C
  8
0
 62
     7
 10
53.062297999999998
 20
134.17536799999991
 30
0.0
 40
2.4223259999999991
 50
83.063156000000006
 51
90.014216000000005
  0
ARC
  5
5D
  8
0
 62
     7
 10
53.254117000000001
 20
135.85788700000001
 30
0.0
 40
0.7290680000000001
 50
48.957965999999992
 51
82.057872000000003
  0
ARC
  5
5E
  8
0
 62
     7
 10
51.752435999999989
 20
133.914233
 30
0.0
 40
3.1842899999999998
 50
49.69903
 51
51.542994
  0
LINE
  5
5F
  8
0
 62
     7
 10
52.644799999999989
 20
136.83699999999999
 30
0.0
 11
52.060499999999998
 21
136.2529999999999
 31
0.0
  0
LINE
  5
60
  8
0
 62
     7
 10
63.424599999999991
 20
134.8189999999999
 30
0.0
 11
63.424599999999991
 21
136.2529999999999
 31
0.0
  0
LINE
  5
61
  8
0
 62
     7
 10
52.196999999999989
 20
134.8189999999999
 30
0.0
 11
52.196999999999989
 21
136.2529999999999
 31
0.0
  0
LINE
  5
62
  8
0
 62
     7
 10
52.060499999999998
 20
134.8189999999999
 30
0.0
 11
52.060499999999998
 21
136.2529999999999
 31
0.0
  0
LINE
  5
63
  8
0
 62
     7
 10
63.561000000000007
 20
134.8189999999999
 30
0.0
 11
63.561000000000007
 21
136.2529999999999
 31
0.0
  0
LINE
  5
64
  8
0
 62
     7
 10
53.810699999999997
 20
136.83699999999999
 30
0.0
 11
52.644799999999989
 21
136.83699999999999
 31
0.0
  0
LINE
  5
65
  8
0
 62
     7
 10
63.561000000000007
 20
136.2529999999999
 30
0.0
 11
63.424599999999991
 21
136.2529999999999
 31
0.0
  0
LINE
  5
66
  8
0
 62
     7
 10
52.196999999999989
 20
136.2529999999999
 30
0.0
 11
52.060499999999998
 21
136.2529999999999
 31
0.0
  0
LINE
  5
67
  8
0
 62
     7
 10
63.561000000000007
 20
134.8189999999999
 30
0.0
 11
63.424599999999991
 21
134.8189999999999
 31
0.0
  0
LINE
  5
68
  8
0
 62
     7
 10
52.196999999999989
 20
134.8189999999999
 30
0.0
 11
52.060499999999998
 21
134.8189999999999
 31
0.0
  0
ARC
  5
69
  8
0
 62
     7
 10
57.810445000000001
 20
122.587608
 30
0.0
 40
4.0004710000000001
 50
270.00002000000001
 51
359.99998999999991
  0
ARC
  5
6A
  8
0
 62
     7
 10
57.810789999999997
 20
122.587262
 30
0.0
 40
4.0001249999999988
 50
179.995036
 51
269.99508500000002
  0
LINE
  5
6B
  8
0
 62
     7
 10
53.407600000000002
 20
154.39400000000001
 30
0.0
 11
53.686
 21
153.679
 31
0.0
  0
LINE
  5
6C
  8
0
 62
     7
 10
53.407600000000002
 20
154.39400000000001
 30
0.0
 11
53.407600000000002
 21
154.98400000000001
 31
0.0
  0
LINE
  5
6D
  8
0
 62
     7
 10
57.810400000000001
 20
154.39400000000001
 30
0.0
 11
53.407600000000002
 21
154.39400000000001
 31
0.0
  0
LINE
  5
6E
  8
0
 62
     7
 10
57.810400000000001
 20
153.679
 30
0.0
 11
53.686
 21
153.679
 31
0.0
  0
LINE
  5
6F
  8
0
 62
     7
 10
62.213299999999997
 20
154.39400000000001
 30
0.0
 11
61.935600000000001
 21
153.679
 31
0.0
  0
LINE
  5
70
  8
0
 62
     7
 10
62.213299999999997
 20
154.39400000000001
 30
0.0
 11
62.213299999999997
 21
154.98400000000001
 31
0.0
  0
LINE
  5
71
  8
0
 62
     7
 10
57.810400000000001
 20
154.39400000000001
 30
0.0
 11
62.213299999999997
 21
154.39400000000001
 31
0.0
  0
LINE
  5
72
  8
0
 62
     7
 10
57.810400000000001
 20
153.679
 30
0.0
 11
61.935600000000001
 21
153.679
 31
0.0
  0
LINE
  5
73
  8
0
 62
     7
 10
61.810899999999997
 20
153.58699999999999
 30
0.0
 11
61.810899999999997
 21
153.679
 31
0.0
  0
LINE
  5
74
  8
0
 62
     7
 10
53.810699999999997
 20
153.58699999999999
 30
0.0
 11
53.810699999999997
 21
153.679
 31
0.0
  0
ARC
  5
75
  8
0
 62
     7
 10
57.809092
 20
159.83971999999989
 30
0.0
 40
4.616344999999999
 50
270.01680800000003
 51
275.52498600000001
  0
ARC
  5
76
  8
0
 62
     7
 10
57.758567999999997
 20
160.86058199999999
 30
0.0
 40
5.6375330000000003
 50
275.03715499999998
 51
283.22207999999989
  0
ARC
  5
77
  8
0
 62
     7
 10
58.482966000000012
 20
157.6797169999999
 30
0.0
 40
2.375407
 50
283.76122400000003
 51
292.24494499999997
  0
ARC
  5
78
  8
0
 62
     7
 10
59.048397000000001
 20
156.2725659999999
 30
0.0
 40
0.8589809999999999
 50
292.8688029999999
 51
304.95893299999989
  0
ARC
  5
79
  8
0
 62
     7
 10
62.562135999999988
 20
157.61171799999991
 30
0.0
 40
2.388342999999999
 50
269.94600200000002
 51
276.94581399999998
  0
ARC
  5
7A
  8
0
 62
     7
 10
62.741603000000012
 20
156.0235899999999
 30
0.0
 40
0.7902899999999999
 50
277.95380399999988
 51
292.750497
  0
ARC
  5
7B
  8
0
 62
     7
 10
62.796832999999992
 20
155.85722799999991
 30
0.0
 40
0.6156590000000001
 50
293.997906
 51
302.74597999999992
  0
ARC
  5
7C
  8
0
 62
     7
 10
62.548583999999991
 20
156.232562
 30
0.0
 40
1.0656410000000001
 50
303.05633499999988
 51
309.43232699999987
  0
ARC
  5
7D
  8
0
 62
     7
 10
66.493325999999996
 20
151.52260000000001
 30
0.0
 40
5.078085999999999
 50
127.178901
 51
130.05527499999999
  0
ARC
  5
7E
  8
0
 62
     7
 10
62.557632999999988
 20
157.61171799999991
 30
0.0
 40
2.388342999999999
 50
263.05420499999991
 51
270.05401799999999
  0
ARC
  5
7F
  8
0
 62
     7
 10
62.378166
 20
156.0235899999999
 30
0.0
 40
0.7902899999999999
 50
247.24952300000001
 51
262.04621600000002
  0
ARC
  5
80
  8
0
 62
     7
 10
62.322935999999999
 20
155.85722799999991
 30
0.0
 40
0.6156590000000001
 50
237.25404
 51
246.00211400000001
  0
ARC
  5
81
  8
0
 62
     7
 10
62.571185
 20
156.232562
 30
0.0
 40
1.0656410000000001
 50
230.56769299999999
 51
236.94368499999999
  0
ARC
  5
82
  8
0
 62
     7
 10
58.626441999999997
 20
151.52260000000001
 30
0.0
 40
5.078085999999999
 50
49.944704999999999
 51
52.821078999999997
  0
LINE
  5
83
  8
0
 62
     7
 10
62.976700000000001
 20
154.98400000000001
 30
0.0
 11
63.561000000000007
 21
155.56899999999999
 31
0.0
  0
LINE
  5
84
  8
0
 62
     7
 10
57.811100000000003
 20
154.98400000000001
 30
0.0
 11
62.976700000000001
 21
154.98400000000001
 31
0.0
  0
ARC
  5
85
  8
0
 62
     7
 10
57.812488000000002
 20
159.83971999999989
 30
0.0
 40
4.616344999999999
 50
264.47503299999988
 51
269.98321099999998
  0
ARC
  5
86
  8
0
 62
     7
 10
57.863011999999998
 20
160.86058199999999
 30
0.0
 40
5.6375330000000003
 50
256.77794
 51
264.96286499999991
  0
ARC
  5
87
  8
0
 62
     7
 10
57.138615000000001
 20
157.6797169999999
 30
0.0
 40
2.375407
 50
247.75507500000001
 51
256.23879599999992
  0
ARC
  5
88
  8
0
 62
     7
 10
56.573183999999998
 20
156.2725659999999
 30
0.0
 40
0.8589809999999999
 50
235.041087
 51
247.13121699999999
  0
ARC
  5
89
  8
0
 62
     7
 10
53.05944499999999
 20
157.61171799999991
 30
0.0
 40
2.388342999999999
 50
263.05420499999991
 51
270.05401799999999
  0
ARC
  5
8A
  8
0
 62
     7
 10
52.879976999999997
 20
156.0235899999999
 30
0.0
 40
0.7902899999999999
 50
247.24952300000001
 51
262.04621600000002
  0
ARC
  5
8B
  8
0
 62
     7
 10
52.824748
 20
155.85722799999991
 30
0.0
 40
0.6156590000000001
 50
237.25404
 51
246.00211400000001
  0
ARC
  5
8C
  8
0
 62
     7
 10
53.072996000000003
 20
156.232562
 30
0.0
 40
1.0656410000000001
 50
230.56769299999999
 51
236.94368499999999
  0
ARC
  5
8D
  8
0
 62
     7
 10
49.128253999999998
 20
151.52260000000001
 30
0.0
 40
5.078085999999999
 50
49.944704999999999
 51
52.821078999999997
  0
ARC
  5
8E
  8
0
 62
     7
 10
53.063945999999987
 20
157.612357
 30
0.0
 40
2.3889819999999991
 50
269.94604199999992
 51
276.94488399999989
  0
ARC
  5
8F
  8
0
 62
     7
 10
53.243400000000001
 20
156.02421100000001
 30
0.0
 40
0.790912
 50
277.95138500000002
 51
292.74168700000001
  0
ARC
  5
90
  8
0
 62
     7
 10
53.29866899999999
 20
155.857632
 30
0.0
 40
0.6160640000000001
 50
293.99009999999993
 51
302.73506299999991
  0
ARC
  5
91
  8
0
 62
     7
 10
53.05241800000001
 20
156.230054
 30
0.0
 40
1.0625139999999991
 50
303.04528799999991
 51
309.44029699999999
  0
ARC
  5
92
  8
0
 62
     7
 10
57.149618999999987
 20
151.33244599999989
 30
0.0
 40
5.3229509999999989
 50
127.26686099999991
 51
130.009623
  0
LINE
  5
93
  8
0
 62
     7
 10
52.644799999999989
 20
154.98400000000001
 30
0.0
 11
52.060499999999998
 21
155.56899999999999
 31
0.0
  0
LINE
  5
94
  8
0
 62
     7
 10
57.810400000000001
 20
154.98400000000001
 30
0.0
 11
52.644799999999989
 21
154.98400000000001
 31
0.0
  0
ARC
  5
95
  8
0
 62
     7
 10
57.809088000000003
 20
152.72890100000001
 30
0.0
 40
4.618733999999999
 50
84.477831999999992
 51
89.983151000000007
  0
ARC
  5
96
  8
0
 62
     7
 10
57.757727000000003
 20
151.69778400000001
 30
0.0
 40
5.650212999999999
 50
76.799368999999999
 51
84.965616999999995
  0
ARC
  5
97
  8
0
 62
     7
 10
58.482677000000002
 20
154.88556199999999
 30
0.0
 40
2.381221
 50
67.804757999999993
 51
76.265884
  0
ARC
  5
98
  8
0
 62
     7
 10
59.049256000000007
 20
156.29835
 30
0.0
 40
0.8591319999999999
 50
55.117994999999993
 51
67.197624000000005
  0
ARC
  5
99
  8
0
 62
     7
 10
62.562132999999989
 20
154.95779399999989
 30
0.0
 40
2.3898419999999989
 50
83.058502000000004
 51
90.053905
  0
ARC
  5
9A
  8
0
 62
     7
 10
62.751407999999991
 20
156.60791099999989
 30
0.0
 40
0.729036
 50
49.441644999999987
 51
82.151623999999998
  0
ARC
  5
9B
  8
0
 62
     7
 10
66.457143000000002
 20
161.01396800000001
 30
0.0
 40
5.0282339999999994
 50
230.00577100000001
 51
232.90768399999999
  0
ARC
  5
9C
  8
0
 62
     7
 10
62.557635999999988
 20
154.95779399999989
 30
0.0
 40
2.3898419999999989
 50
89.946076000000005
 51
96.941478000000004
  0
ARC
  5
9D
  8
0
 62
     7
 10
62.368361
 20
156.60791099999989
 30
0.0
 40
0.729036
 50
97.848355999999995
 51
130.558335
  0
ARC
  5
9E
  8
0
 62
     7
 10
58.662626000000003
 20
161.01396800000001
 30
0.0
 40
5.0282339999999994
 50
307.09233599999999
 51
309.99424900000002
  0
LINE
  5
9F
  8
0
 62
     7
 10
62.976700000000001
 20
157.58699999999999
 30
0.0
 11
63.561000000000007
 21
157.0029999999999
 31
0.0
  0
LINE
  5
A0
  8
0
 62
     7
 10
57.811100000000003
 20
157.58699999999999
 30
0.0
 11
62.976700000000001
 21
157.58699999999999
 31
0.0
  0
ARC
  5
A1
  8
0
 62
     7
 10
57.812492000000013
 20
152.72890100000001
 30
0.0
 40
4.618733999999999
 50
90.016829000000016
 51
95.522147999999987
  0
ARC
  5
A2
  8
0
 62
     7
 10
57.863852999999999
 20
151.69778400000001
 30
0.0
 40
5.650212999999999
 50
95.034362999999999
 51
103.20061099999999
  0
ARC
  5
A3
  8
0
 62
     7
 10
57.138902999999999
 20
154.88556199999999
 30
0.0
 40
2.381221
 50
103.73409599999989
 51
112.195222
  0
ARC
  5
A4
  8
0
 62
     7
 10
56.572324999999999
 20
156.29835
 30
0.0
 40
0.8591319999999999
 50
112.802356
 51
124.881985
  0
ARC
  5
A5
  8
0
 62
     7
 10
53.059446999999999
 20
154.95779399999989
 30
0.0
 40
2.3898419999999989
 50
89.946076000000005
 51
96.941478000000004
  0
ARC
  5
A6
  8
0
 62
     7
 10
52.870173000000001
 20
156.60791099999989
 30
0.0
 40
0.729036
 50
97.848355999999995
 51
130.558335
  0
ARC
  5
A7
  8
0
 62
     7
 10
49.16443799999999
 20
161.01396800000001
 30
0.0
 40
5.0282339999999994
 50
307.09233599999999
 51
309.99424900000002
  0
ARC
  5
A8
  8
0
 62
     7
 10
53.063943999999992
 20
154.957155
 30
0.0
 40
2.3904809999999999
 50
83.059431999999987
 51
90.053864000000004
  0
ARC
  5
A9
  8
0
 62
     7
 10
53.253253999999998
 20
156.60758599999991
 30
0.0
 40
0.729359
 50
49.451336999999988
 51
82.154864000000003
  0
ARC
  5
AA
  8
0
 62
     7
 10
56.983829000000007
 20
161.0420969999999
 30
0.0
 40
5.0656749999999988
 50
229.99602200000001
 51
232.87514899999999
  0
LINE
  5
AB
  8
0
 62
     7
 10
52.644799999999989
 20
157.58699999999999
 30
0.0
 11
52.060499999999998
 21
157.0029999999999
 31
0.0
  0
LINE
  5
AC
  8
0
 62
     7
 10
61.6952
 20
155.56899999999999
 30
0.0
 11
61.6952
 21
157.0029999999999
 31
0.0
  0
LINE
  5
AD
  8
0
 62
     7
 10
59.540599999999998
 20
155.56899999999999
 30
0.0
 11
59.540599999999998
 21
157.0029999999999
 31
0.0
  0
LINE
  5
AE
  8
0
 62
     7
 10
56.081000000000003
 20
155.56899999999999
 30
0.0
 11
56.081000000000003
 21
157.0029999999999
 31
0.0
  0
LINE
  5
AF
  8
0
 62
     7
 10
53.926400000000001
 20
155.56899999999999
 30
0.0
 11
53.926400000000001
 21
157.0029999999999
 31
0.0
  0
LINE
  5
B0
  8
0
 62
     7
 10
63.424599999999991
 20
155.56899999999999
 30
0.0
 11
63.424599999999991
 21
157.0029999999999
 31
0.0
  0
LINE
  5
B1
  8
0
 62
     7
 10
52.196999999999989
 20
155.56899999999999
 30
0.0
 11
52.196999999999989
 21
157.0029999999999
 31
0.0
  0
LINE
  5
B2
  8
0
 62
     7
 10
52.060499999999998
 20
155.56899999999999
 30
0.0
 11
52.060499999999998
 21
157.0029999999999
 31
0.0
  0
LINE
  5
B3
  8
0
 62
     7
 10
63.561000000000007
 20
155.56899999999999
 30
0.0
 11
63.561000000000007
 21
157.0029999999999
 31
0.0
  0
LINE
  5
B4
  8
0
 62
     7
 10
57.810400000000001
 20
157.58699999999999
 30
0.0
 11
52.644799999999989
 21
157.58699999999999
 31
0.0
  0
LINE
  5
B5
  8
0
 62
     7
 10
63.561000000000007
 20
157.0029999999999
 30
0.0
 11
63.424599999999991
 21
157.0029999999999
 31
0.0
  0
LINE
  5
B6
  8
0
 62
     7
 10
61.6952
 20
157.0029999999999
 30
0.0
 11
59.540599999999998
 21
157.0029999999999
 31
0.0
  0
LINE
  5
B7
  8
0
 62
     7
 10
56.081000000000003
 20
157.0029999999999
 30
0.0
 11
53.926400000000001
 21
157.0029999999999
 31
0.0
  0
LINE
  5
B8
  8
0
 62
     7
 10
52.196999999999989
 20
157.0029999999999
 30
0.0
 11
52.060499999999998
 21
157.0029999999999
 31
0.0
  0
LINE
  5
B9
  8
0
 62
     7
 10
63.561000000000007
 20
155.56899999999999
 30
0.0
 11
63.424599999999991
 21
155.56899999999999
 31
0.0
  0
LINE
  5
BA
  8
0
 62
     7
 10
61.6952
 20
155.56899999999999
 30
0.0
 11
59.540599999999998
 21
155.56899999999999
 31
0.0
  0
LINE
  5
BB
  8
0
 62
     7
 10
56.081000000000003
 20
155.56899999999999
 30
0.0
 11
53.926400000000001
 21
155.56899999999999
 31
0.0
  0
LINE
  5
BC
  8
0
 62
     7
 10
52.196999999999989
 20
155.56899999999999
 30
0.0
 11
52.060499999999998
 21
155.56899999999999
 31
0.0
  0
LINE
  5
BD
  8
0
 62
     7
 10
53.810699999999997
 20
208.8659999999999
 30
0.0
 11
52.196999999999989
 21
206.07099999999991
 31
0.0
  0
LINE
  5
BE
  8
0
 62
     7
 10
63.424599999999991
 20
206.07099999999991
 30
0.0
 11
61.810899999999997
 21
208.86699999999999
 31
0.0
  0
LINE
  5
BF
  8
0
 62
     7
 10
61.6952
 20
200.58799999999991
 30
0.0
 11
63.424599999999991
 21
203.58399999999989
 31
0.0
  0
LINE
  5
C0
  8
0
 62
     7
 10
56.081000000000003
 20
199.34399999999999
 30
0.0
 11
59.540599999999998
 21
199.34399999999999
 31
0.0
  0
LINE
  5
C1
  8
0
 62
     7
 10
52.196999999999989
 20
203.58399999999989
 30
0.0
 11
53.9268
 21
200.58799999999991
 31
0.0
  0
ARC
  5
C2
  8
0
 62
     7
 10
57.657421999999997
 20
225.17435399999999
 30
0.0
 40
4.1563239999999988
 50
2.1146919999999989
 51
87.885298000000006
  0
ARC
  5
C3
  8
0
 62
     7
 10
57.810791000000002
 20
225.32772199999999
 30
0.0
 40
4.000125999999999
 50
90.0
 51
179.99996999999991
  0
ARC
  5
C4
  8
0
 62
     7
 10
57.964156999999993
 20
204.98091899999989
 30
0.0
 40
4.1563230000000004
 50
182.1146939999999
 51
267.885335
  0
ARC
  5
C5
  8
0
 62
     7
 10
57.810789999999997
 20
204.82755299999999
 30
0.0
 40
4.000125999999999
 50
270.00002000000001
 51
359.99998999999991
  0
ARC
  5
C6
  8
0
 62
     7
 10
57.809440000000002
 20
204.830127
 30
0.0
 40
4.4986629999999987
 50
152.75210300000001
 51
180.03281399999989
  0
ARC
  5
C7
  8
0
 62
     7
 10
57.810789
 20
204.82755099999989
 30
0.0
 40
4.5000109999999989
 50
179.99996999999991
 51
270.00002000000001
  0
ARC
  5
C8
  8
0
 62
     7
 10
57.810962000000004
 20
204.8277249999999
 30
0.0
 40
4.5001850000000001
 50
269.99782699999997
 51
359.99779699999999
  0
ARC
  5
C9
  8
0
 62
     7
 10
57.784433999999997
 20
204.8228729999999
 30
0.0
 40
4.5267150000000003
 50
0.059223
 51
27.190384000000002
  0
ARC
  5
CA
  8
0
 62
     7
 10
57.825023000000002
 20
204.82428100000001
 30
0.0
 40
4.7643620000000002
 50
147.42131000000001
 51
179.96064199999989
  0
ARC
  5
CB
  8
0
 62
     7
 10
57.810789
 20
204.82755099999989
 30
0.0
 40
4.7501269999999991
 50
179.99996999999991
 51
270.00002000000001
  0
ARC
  5
CC
  8
0
 62
     7
 10
57.810617000000008
 20
204.82738099999989
 30
0.0
 40
4.7499560000000001
 50
270.00209799999999
 51
0.002068
  0
ARC
  5
CD
  8
0
 62
     7
 10
57.776567999999997
 20
204.81909999999999
 30
0.0
 40
4.784012999999999
 50
0.10123
 51
32.494616000000001
  0
ARC
  5
CE
  8
0
 62
     7
 10
57.799218000000003
 20
204.82957999999991
 30
0.0
 40
5.761817999999999
 50
347.50694499999997
 51
359.97983799999992
  0
ARC
  5
CF
  8
0
 62
     7
 10
57.788327000000002
 20
204.86550500000001
 30
0.0
 40
5.7931400000000002
 50
287.602508
 51
312.406767
  0
ARC
  5
D0
  8
0
 62
     7
 10
57.823092000000003
 20
204.84742600000001
 30
0.0
 40
5.7729400000000002
 50
227.54671099999999
 51
252.4361199999999
  0
ARC
  5
D1
  8
0
 62
     7
 10
57.823349999999991
 20
204.82694499999991
 30
0.0
 40
5.7623639999999989
 50
167.52785600000001
 51
192.4562719999999
  0
ARC
  5
D2
  8
0
 62
     7
 10
57.799245999999997
 20
204.82552799999991
 30
0.0
 40
5.7617900000000004
 50
0.020132
 51
12.493085000000001
  0
LINE
  5
D3
  8
0
  6
AIGENLINE001
 62
     7
 10
44.7789
 20
225.328
 30
0.0
 11
70.179100000000005
 21
225.328
 31
0.0
  0
LINE
  5
D4
  8
0
  6
AIGENLINE001
 62
     7
 10
49.542200000000001
 20
204.828
 30
0.0
 11
66.180700000000002
 21
204.828
 31
0.0
  0
LINE
  5
D5
  8
0
 62
     7
 10
53.9268
 20
188.56700000000001
 30
0.0
 11
52.196999999999989
 21
185.571
 31
0.0
  0
LINE
  5
D6
  8
0
 62
     7
 10
59.540599999999998
 20
189.81099999999989
 30
0.0
 11
56.081000000000003
 21
189.81099999999989
 31
0.0
  0
LINE
  5
D7
  8
0
 62
     7
 10
63.424599999999991
 20
185.571
 30
0.0
 11
61.6952
 21
188.56700000000001
 31
0.0
  0
LINE
  5
D8
  8
0
 62
     7
 10
61.6952
 20
180.08699999999999
 30
0.0
 11
63.424599999999991
 21
183.084
 31
0.0
  0
LINE
  5
D9
  8
0
 62
     7
 10
56.081000000000003
 20
178.84399999999999
 30
0.0
 11
59.540599999999998
 21
178.84399999999999
 31
0.0
  0
LINE
  5
DA
  8
0
 62
     7
 10
52.196999999999989
 20
183.084
 30
0.0
 11
53.9268
 21
180.08699999999999
 31
0.0
  0
ARC
  5
DB
  8
0
 62
     7
 10
57.810702999999997
 20
184.3274669999999
 30
0.0
 40
3.9998680000000002
 50
359.99877600000002
 51
89.998745999999997
  0
ARC
  5
DC
  8
0
 62
     7
 10
57.963763
 20
184.17422999999991
 30
0.0
 40
4.1559210000000002
 50
92.109430000000017
 51
177.88807299999999
  0
ARC
  5
DD
  8
0
 62
     7
 10
57.964156999999993
 20
184.48074899999989
 30
0.0
 40
4.1563230000000004
 50
182.1146939999999
 51
267.885335
  0
ARC
  5
DE
  8
0
 62
     7
 10
57.810617000000008
 20
184.32721000000001
 30
0.0
 40
3.9999539999999998
 50
270.00248699999997
 51
0.002457
  0
ARC
  5
DF
  8
0
 62
     7
 10
57.810962000000004
 20
184.32720900000001
 30
0.0
 40
4.5001850000000001
 50
0.002203
 51
90.002172999999999
  0
ARC
  5
E0
  8
0
 62
     7
 10
57.810791000000002
 20
184.327381
 30
0.0
 40
4.500013
 50
90.0
 51
179.99996999999991
  0
ARC
  5
E1
  8
0
 62
     7
 10
57.810617000000008
 20
184.32755299999991
 30
0.0
 40
4.4998389999999988
 50
180.00220300000001
 51
270.00221299999993
  0
ARC
  5
E2
  8
0
 62
     7
 10
57.811133999999988
 20
184.32772700000001
 30
0.0
 40
4.500013
 50
269.995633
 51
359.99560400000001
  0
ARC
  5
E3
  8
0
 62
     7
 10
57.810617000000008
 20
184.32755299999991
 30
0.0
 40
4.7499560000000001
 50
359.99793199999999
 51
89.997901999999996
  0
ARC
  5
E4
  8
0
 62
     7
 10
57.810791000000002
 20
184.327381
 30
0.0
 40
4.7501290000000003
 50
90.0
 51
179.99996999999991
  0
ARC
  5
E5
  8
0
 62
     7
 10
57.810617000000008
 20
184.32755299999991
 30
0.0
 40
4.749954999999999
 50
180.0020879999999
 51
270.00209799999999
  0
ARC
  5
E6
  8
0
 62
     7
 10
57.810789
 20
184.327383
 30
0.0
 40
4.749784
 50
270.00002000000001
 51
359.99998999999991
  0
ARC
  5
E7
  8
0
 62
     7
 10
57.799218000000003
 20
184.329409
 30
0.0
 40
5.761817999999999
 50
347.50694499999997
 51
359.97983799999992
  0
ARC
  5
E8
  8
0
 62
     7
 10
57.802271999999988
 20
184.34153000000001
 30
0.0
 40
5.7659079999999996
 50
287.54299400000002
 51
312.46627999999993
  0
ARC
  5
E9
  8
0
 62
     7
 10
57.823092000000003
 20
184.3476
 30
0.0
 40
5.7729400000000002
 50
227.54671099999999
 51
252.4361199999999
  0
ARC
  5
EA
  8
0
 62
     7
 10
57.823349999999991
 20
184.326775
 30
0.0
 40
5.7623639999999989
 50
167.52785600000001
 51
192.4562719999999
  0
ARC
  5
EB
  8
0
 62
     7
 10
57.818618999999991
 20
184.314491
 30
0.0
 40
5.7647690000000003
 50
107.54296100000001
 51
132.4673379999999
  0
ARC
  5
EC
  8
0
 62
     7
 10
57.799236999999998
 20
184.30832299999989
 30
0.0
 40
5.7718329999999991
 50
47.546718999999989
 51
72.444006999999985
  0
ARC
  5
ED
  8
0
 62
     7
 10
57.799245999999997
 20
184.32535699999991
 30
0.0
 40
5.7617900000000004
 50
0.020132
 51
12.493085000000001
  0
LINE
  5
EE
  8
0
 62
     7
 10
61.810899999999997
 20
122.58799999999989
 30
0.0
 11
61.810899999999997
 21
153.679
 31
0.0
  0
LINE
  5
EF
  8
0
 62
     7
 10
53.810699999999997
 20
122.58799999999989
 30
0.0
 11
53.810699999999997
 21
153.679
 31
0.0
  0
LINE
  5
F0
  8
0
 62
     7
 10
61.810899999999997
 20
142.38200000000001
 30
0.0
 11
53.810699999999997
 21
142.38200000000001
 31
0.0
  0
LINE
  5
F1
  8
0
 62
     7
 10
61.810899999999997
 20
141.65299999999991
 30
0.0
 11
53.810699999999997
 21
141.65299999999991
 31
0.0
  0
LINE
  5
F2
  8
0
  6
AIGENLINE001
 62
     7
 10
57.810400000000001
 20
159.7529999999999
 30
0.0
 11
57.810400000000001
 21
61.089500000000001
 31
0.0
  0
LINE
  5
F3
  8
0
  6
AIGENLINE001
 62
     7
 10
49.542200000000001
 20
184.327
 30
0.0
 11
66.180700000000002
 21
184.327
 31
0.0
  0
LINE
  5
F4
  8
0
 62
     7
 10
61.810899999999997
 20
204.828
 30
0.0
 11
61.810899999999997
 21
225.328
 31
0.0
  0
LINE
  5
F5
  8
0
 62
     7
 10
53.810699999999997
 20
204.828
 30
0.0
 11
53.810699999999997
 21
225.328
 31
0.0
  0
LINE
  5
F6
  8
0
 62
     7
 10
61.810899999999997
 20
188.36699999999999
 30
0.0
 11
61.810899999999997
 21
200.7879999999999
 31
0.0
  0
LINE
  5
F7
  8
0
 62
     7
 10
53.810699999999997
 20
188.36699999999999
 30
0.0
 11
53.810699999999997
 21
200.7879999999999
 31
0.0
  0
LINE
  5
F8
  8
0
  6
AIGENLINE001
 62
     7
 10
57.810400000000001
 20
176.268
 30
0.0
 11
57.810400000000001
 21
238.42099999999991
 31
0.0
  0
LINE
  5
F9
  8
0
 62
     7
 10
103.40899999999991
 20
162.46000000000001
 30
0.0
 11
105.06699999999989
 21
162.90399999999991
 31
0.0
  0
LINE
  5
FA
  8
0
 62
     7
 10
105.06699999999989
 20
162.90399999999991
 30
0.0
 11
103.40899999999991
 21
163.3489999999999
 31
0.0
  0
LINE
  5
FB
  8
0
 62
     7
 10
103.40899999999991
 20
163.3489999999999
 30
0.0
 11
103.40899999999991
 21
162.46000000000001
 31
0.0
  0
LINE
  5
FC
  8
0
 62
     7
 10
98.724699999999984
 20
163.33699999999999
 30
0.0
 11
97.066900000000004
 21
162.89299999999989
 31
0.0
  0
LINE
  5
FD
  8
0
 62
     7
 10
97.066900000000004
 20
162.89299999999989
 30
0.0
 11
98.724699999999984
 21
162.4489999999999
 31
0.0
  0
LINE
  5
FE
  8
0
 62
     7
 10
98.724699999999984
 20
162.4489999999999
 30
0.0
 11
98.724699999999984
 21
163.33699999999999
 31
0.0
  0
LINE
  5
FF
  8
0
 62
     7
 10
105.06699999999989
 20
162.89899999999989
 30
0.0
 11
97.066900000000004
 21
162.89899999999989
 31
0.0
  0
LINE
  5
100
  8
0
 62
     7
 10
96.664100000000005
 20
154.39400000000001
 30
0.0
 11
96.942200000000014
 21
153.679
 31
0.0
  0
LINE
  5
101
  8
0
 62
     7
 10
96.664100000000005
 20
154.39400000000001
 30
0.0
 11
96.664100000000005
 21
154.98400000000001
 31
0.0
  0
LINE
  5
102
  8
0
 62
     7
 10
101.06699999999999
 20
154.39400000000001
 30
0.0
 11
96.664100000000005
 21
154.39400000000001
 31
0.0
  0
LINE
  5
103
  8
0
 62
     7
 10
101.06699999999999
 20
153.679
 30
0.0
 11
96.942200000000014
 21
153.679
 31
0.0
  0
LINE
  5
104
  8
0
 62
     7
 10
105.4699999999999
 20
154.39400000000001
 30
0.0
 11
105.19199999999999
 21
153.679
 31
0.0
  0
ARC
  5
105
  8
0
 62
     7
 10
104.01462599999989
 20
158.28347400000001
 30
0.0
 40
3.0600979999999991
 50
259.75025499999992
 51
270.01955600000002
  0
ARC
  5
106
  8
0
 62
     7
 10
103.829455
 20
157.13537999999991
 30
0.0
 40
1.8975049999999991
 50
240.39093700000001
 51
259.08364399999988
  0
ARC
  5
107
  8
0
 62
     7
 10
103.6550789999999
 20
156.76937899999999
 30
0.0
 40
1.4934279999999991
 50
233.51935599999999
 51
239.269544
  0
ARC
  5
108
  8
0
 62
     7
 10
104.0167129999999
 20
158.28347400000001
 30
0.0
 40
3.0600979999999991
 50
269.98046399999998
 51
280.24976499999991
  0
ARC
  5
109
  8
0
 62
     7
 10
104.2018829999999
 20
157.13537999999991
 30
0.0
 40
1.8975049999999991
 50
280.9163759999999
 51
299.60908299999988
  0
ARC
  5
10A
  8
0
 62
     7
 10
104.3762599999999
 20
156.76937899999999
 30
0.0
 40
1.4934279999999991
 50
300.7304759999999
 51
306.48066399999999
  0
ARC
  5
10B
  8
0
 62
     7
 10
104.014629
 20
154.28550899999999
 30
0.0
 40
3.0621269999999998
 50
89.980516000000009
 51
100.242943
  0
ARC
  5
10C
  8
0
 62
     7
 10
103.8299699999999
 20
155.43101599999989
 30
0.0
 40
1.902166
 50
100.90505400000001
 51
119.5471129999999
  0
ARC
  5
10D
  8
0
 62
     7
 10
103.6576479999999
 20
155.79476699999989
 30
0.0
 40
1.501031999999999
 50
120.6720269999999
 51
126.3880569999999
  0
ARC
  5
10E
  8
0
 62
     7
 10
104.01671
 20
154.28550899999999
 30
0.0
 40
3.0621269999999998
 50
79.757037999999994
 51
90.019463999999985
  0
ARC
  5
10F
  8
0
 62
     7
 10
104.201369
 20
155.43101599999989
 30
0.0
 40
1.902166
 50
60.452867000000012
 51
79.094926999999998
  0
ARC
  5
110
  8
0
 62
     7
 10
104.37369099999999
 20
155.79476699999989
 30
0.0
 40
1.501031999999999
 50
53.61192299999999
 51
59.327952999999987
  0
LINE
  5
111
  8
0
 62
     7
 10
106.3539999999999
 20
157.58699999999999
 30
0.0
 11
106.9379999999999
 21
157.0029999999999
 31
0.0
  0
LINE
  5
112
  8
0
 62
     7
 10
106.9379999999999
 20
155.56899999999999
 30
0.0
 11
106.3539999999999
 21
154.98400000000001
 31
0.0
  0
LINE
  5
113
  8
0
 62
     7
 10
102.767
 20
155.56899999999999
 30
0.0
 11
102.767
 21
157.0029999999999
 31
0.0
  0
LINE
  5
114
  8
0
 62
     7
 10
105.264
 20
155.56899999999999
 30
0.0
 11
105.264
 21
157.0029999999999
 31
0.0
  0
LINE
  5
115
  8
0
 62
     7
 10
105.4699999999999
 20
154.39400000000001
 30
0.0
 11
105.4699999999999
 21
154.98400000000001
 31
0.0
  0
LINE
  5
116
  8
0
 62
     7
 10
106.9379999999999
 20
155.56899999999999
 30
0.0
 11
106.9379999999999
 21
157.0029999999999
 31
0.0
  0
LINE
  5
117
  8
0
 62
     7
 10
101.06699999999999
 20
157.58699999999999
 30
0.0
 11
106.3539999999999
 21
157.58699999999999
 31
0.0
  0
LINE
  5
118
  8
0
 62
     7
 10
101.06699999999999
 20
157.0029999999999
 30
0.0
 11
102.767
 21
157.0029999999999
 31
0.0
  0
LINE
  5
119
  8
0
 62
     7
 10
105.264
 20
157.0029999999999
 30
0.0
 11
106.9379999999999
 21
157.0029999999999
 31
0.0
  0
LINE
  5
11A
  8
0
 62
     7
 10
101.06699999999999
 20
155.56899999999999
 30
0.0
 11
102.767
 21
155.56899999999999
 31
0.0
  0
LINE
  5
11B
  8
0
 62
     7
 10
105.264
 20
155.56899999999999
 30
0.0
 11
106.9379999999999
 21
155.56899999999999
 31
0.0
  0
LINE
  5
11C
  8
0
 62
     7
 10
101.06699999999999
 20
154.39400000000001
 30
0.0
 11
105.4699999999999
 21
154.39400000000001
 31
0.0
  0
LINE
  5
11D
  8
0
 62
     7
 10
101.06699999999999
 20
153.679
 30
0.0
 11
105.19199999999999
 21
153.679
 31
0.0
  0
LINE
  5
11E
  8
0
 62
     7
 10
101.06699999999999
 20
154.98400000000001
 30
0.0
 11
106.3539999999999
 21
154.98400000000001
 31
0.0
  0
ARC
  5
11F
  8
0
 62
     7
 10
98.119361999999995
 20
158.28347400000001
 30
0.0
 40
3.0600979999999991
 50
269.98046399999998
 51
280.24976499999991
  0
ARC
  5
120
  8
0
 62
     7
 10
98.304531999999995
 20
157.13537999999991
 30
0.0
 40
1.8975049999999991
 50
280.9163759999999
 51
299.60908299999988
  0
ARC
  5
121
  8
0
 62
     7
 10
98.478908000000004
 20
156.76937899999999
 30
0.0
 40
1.4934279999999991
 50
300.7304759999999
 51
306.48066399999999
  0
ARC
  5
122
  8
0
 62
     7
 10
98.117273999999995
 20
158.28347400000001
 30
0.0
 40
3.0600979999999991
 50
259.75025499999992
 51
270.01955600000002
  0
ARC
  5
123
  8
0
 62
     7
 10
97.93210400000001
 20
157.13537999999991
 30
0.0
 40
1.8975049999999991
 50
240.39093700000001
 51
259.08364399999988
  0
ARC
  5
124
  8
0
 62
     7
 10
97.757727000000003
 20
156.76937899999999
 30
0.0
 40
1.4934279999999991
 50
233.51935599999999
 51
239.269544
  0
ARC
  5
125
  8
0
 62
     7
 10
98.119359000000017
 20
154.28550899999999
 30
0.0
 40
3.0621269999999998
 50
79.757037999999994
 51
90.019463999999985
  0
ARC
  5
126
  8
0
 62
     7
 10
98.304017999999999
 20
155.43101599999989
 30
0.0
 40
1.902166
 50
60.452867000000012
 51
79.094926999999998
  0
ARC
  5
127
  8
0
 62
     7
 10
98.476338999999996
 20
155.79476699999989
 30
0.0
 40
1.501031999999999
 50
53.61192299999999
 51
59.327952999999987
  0
ARC
  5
128
  8
0
 62
     7
 10
98.117277000000001
 20
154.28550899999999
 30
0.0
 40
3.0621269999999998
 50
89.980516000000009
 51
100.242943
  0
ARC
  5
129
  8
0
 62
     7
 10
97.932618000000005
 20
155.43101599999989
 30
0.0
 40
1.902166
 50
100.90505400000001
 51
119.5471129999999
  0
ARC
  5
12A
  8
0
 62
     7
 10
97.760296000000011
 20
155.79476699999989
 30
0.0
 40
1.501031999999999
 50
120.6720269999999
 51
126.3880569999999
  0
LINE
  5
12B
  8
0
 62
     7
 10
95.780500000000004
 20
157.58699999999999
 30
0.0
 11
95.195499999999996
 21
157.0029999999999
 31
0.0
  0
LINE
  5
12C
  8
0
 62
     7
 10
97.066900000000004
 20
158.51699999999991
 30
0.0
 11
97.066900000000004
 21
163.315
 31
0.0
  0
LINE
  5
12D
  8
0
 62
     7
 10
105.06699999999989
 20
158.51699999999991
 30
0.0
 11
105.06699999999989
 21
163.315
 31
0.0
  0
LINE
  5
12E
  8
0
 62
     7
 10
105.06699999999989
 20
132.83799999999991
 30
0.0
 11
105.06699999999989
 21
153.679
 31
0.0
  0
LINE
  5
12F
  8
0
 62
     7
 10
95.195499999999996
 20
155.56899999999999
 30
0.0
 11
95.780500000000004
 21
154.98400000000001
 31
0.0
  0
LINE
  5
130
  8
0
 62
     7
 10
99.366799999999998
 20
155.56899999999999
 30
0.0
 11
99.366799999999998
 21
157.0029999999999
 31
0.0
  0
LINE
  5
131
  8
0
 62
     7
 10
96.869799999999998
 20
155.56899999999999
 30
0.0
 11
96.869799999999998
 21
157.0029999999999
 31
0.0
  0
LINE
  5
132
  8
0
 62
     7
 10
97.066900000000004
 20
132.83799999999991
 30
0.0
 11
97.066900000000004
 21
153.679
 31
0.0
  0
LINE
  5
133
  8
0
 62
     7
 10
95.195499999999996
 20
155.56899999999999
 30
0.0
 11
95.195499999999996
 21
157.0029999999999
 31
0.0
  0
LINE
  5
134
  8
0
 62
     7
 10
101.06699999999999
 20
157.58699999999999
 30
0.0
 11
95.780500000000004
 21
157.58699999999999
 31
0.0
  0
LINE
  5
135
  8
0
 62
     7
 10
101.06699999999999
 20
157.0029999999999
 30
0.0
 11
99.366799999999998
 21
157.0029999999999
 31
0.0
  0
LINE
  5
136
  8
0
 62
     7
 10
96.869799999999998
 20
157.0029999999999
 30
0.0
 11
95.195499999999996
 21
157.0029999999999
 31
0.0
  0
LINE
  5
137
  8
0
 62
     7
 10
101.06699999999999
 20
155.56899999999999
 30
0.0
 11
99.366799999999998
 21
155.56899999999999
 31
0.0
  0
LINE
  5
138
  8
0
 62
     7
 10
96.869799999999998
 20
155.56899999999999
 30
0.0
 11
95.195499999999996
 21
155.56899999999999
 31
0.0
  0
LINE
  5
139
  8
0
 62
     7
 10
101.06699999999999
 20
154.98400000000001
 30
0.0
 11
95.780500000000004
 21
154.98400000000001
 31
0.0
  0
LINE
  5
13A
  8
0
 62
     7
 10
117.164
 20
133.64400000000001
 30
0.0
 11
117.44199999999999
 21
132.93000000000001
 31
0.0
  0
LINE
  5
13B
  8
0
 62
     7
 10
117.164
 20
133.64400000000001
 30
0.0
 11
117.164
 21
134.23400000000001
 31
0.0
  0
LINE
  5
13C
  8
0
 62
     7
 10
121.56699999999999
 20
133.64400000000001
 30
0.0
 11
117.164
 21
133.64400000000001
 31
0.0
  0
LINE
  5
13D
  8
0
 62
     7
 10
105.06699999999989
 20
142.38200000000001
 30
0.0
 11
97.066900000000004
 21
142.38200000000001
 31
0.0
  0
LINE
  5
13E
  8
0
 62
     7
 10
105.06699999999989
 20
141.65299999999991
 30
0.0
 11
97.066900000000004
 21
141.65299999999991
 31
0.0
  0
LINE
  5
13F
  8
0
 62
     7
 10
121.56699999999999
 20
132.93000000000001
 30
0.0
 11
117.44199999999999
 21
132.93000000000001
 31
0.0
  0
LINE
  5
140
  8
0
 62
     7
 10
125.97
 20
133.64400000000001
 30
0.0
 11
125.69199999999999
 21
132.93000000000001
 31
0.0
  0
ARC
  5
141
  8
0
 62
     7
 10
111.316473
 20
132.83760899999999
 30
0.0
 40
14.250472
 50
270.0003660000001
 51
0.000336
  0
ARC
  5
142
  8
0
 62
     7
 10
111.3169899999999
 20
132.83725999999999
 30
0.0
 40
14.250121999999999
 50
179.9982389999999
 51
269.99828799999989
  0
ARC
  5
143
  8
0
 62
     7
 10
111.3168189999999
 20
132.837952
 30
0.0
 40
6.2505629999999988
 50
269.99765099999991
 51
359.99762199999998
  0
ARC
  5
144
  8
0
 62
     7
 10
111.316992
 20
132.83726100000001
 30
0.0
 40
6.249871999999999
 50
179.99602200000001
 51
269.99607200000003
  0
ARC
  5
145
  8
0
  6
AIGENLINE001
 62
     7
 10
111.3168189999999
 20
132.837953
 30
0.0
 40
10.250344999999999
 50
269.9985759999999
 51
359.99854599999992
  0
ARC
  5
146
  8
0
  6
AIGENLINE001
 62
     7
 10
111.31664599999991
 20
132.83760499999991
 30
0.0
 40
10.249997
 50
179.9994889999999
 51
269.99953799999992
  0
LINE
  5
147
  8
0
  6
AIGENLINE001
 62
     7
 10
121.56699999999999
 20
136.83699999999999
 30
0.0
 11
121.56699999999999
 21
132.83799999999991
 31
0.0
  0
LINE
  5
148
  8
0
  6
AIGENLINE001
 62
     7
 10
101.06699999999999
 20
159.49999999999989
 30
0.0
 11
101.06699999999999
 21
132.83799999999991
 31
0.0
  0
ARC
  5
149
  8
0
 62
     7
 10
124.514454
 20
137.53625
 30
0.0
 40
3.0621269999999998
 50
259.75705699999992
 51
270.01948399999992
  0
ARC
  5
14A
  8
0
 62
     7
 10
124.3297949999999
 20
136.3907429999999
 30
0.0
 40
1.902166
 50
240.452887
 51
259.09494599999999
  0
ARC
  5
14B
  8
0
 62
     7
 10
124.15747399999989
 20
136.02699199999989
 30
0.0
 40
1.501031999999999
 50
233.611943
 51
239.3279729999999
  0
ARC
  5
14C
  8
0
 62
     7
 10
124.516536
 20
137.53625
 30
0.0
 40
3.0621269999999998
 50
269.98053599999992
 51
280.24296199999998
  0
ARC
  5
14D
  8
0
 62
     7
 10
124.701195
 20
136.3907429999999
 30
0.0
 40
1.902166
 50
280.90507300000002
 51
299.54713299999997
  0
ARC
  5
14E
  8
0
 62
     7
 10
124.87351700000001
 20
136.02699199999989
 30
0.0
 40
1.501031999999999
 50
300.67204700000002
 51
306.38807700000001
  0
ARC
  5
14F
  8
0
 62
     7
 10
124.514454
 20
133.5355669999999
 30
0.0
 40
3.0621269999999998
 50
89.980516000000009
 51
100.242943
  0
ARC
  5
150
  8
0
 62
     7
 10
124.3297949999999
 20
134.68107499999991
 30
0.0
 40
1.902166
 50
100.90505400000001
 51
119.5471129999999
  0
ARC
  5
151
  8
0
 62
     7
 10
124.15747399999989
 20
135.044825
 30
0.0
 40
1.501031999999999
 50
120.6720269999999
 51
126.3880569999999
  0
ARC
  5
152
  8
0
 62
     7
 10
124.516536
 20
133.5355669999999
 30
0.0
 40
3.0621269999999998
 50
79.757037999999994
 51
90.019463999999985
  0
ARC
  5
153
  8
0
 62
     7
 10
124.701195
 20
134.68107499999991
 30
0.0
 40
1.902166
 50
60.452867000000012
 51
79.094926999999998
  0
ARC
  5
154
  8
0
 62
     7
 10
124.87351700000001
 20
135.044825
 30
0.0
 40
1.501031999999999
 50
53.61192299999999
 51
59.327952999999987
  0
LINE
  5
155
  8
0
 62
     7
 10
126.85299999999989
 20
136.83699999999999
 30
0.0
 11
127.4379999999999
 21
136.2529999999999
 31
0.0
  0
LINE
  5
156
  8
0
 62
     7
 10
127.4379999999999
 20
134.8189999999999
 30
0.0
 11
126.85299999999989
 21
134.23400000000001
 31
0.0
  0
LINE
  5
157
  8
0
 62
     7
 10
123.267
 20
134.8189999999999
 30
0.0
 11
123.267
 21
136.2529999999999
 31
0.0
  0
LINE
  5
158
  8
0
 62
     7
 10
125.764
 20
134.8189999999999
 30
0.0
 11
125.764
 21
136.2529999999999
 31
0.0
  0
LINE
  5
159
  8
0
 62
     7
 10
125.97
 20
133.64400000000001
 30
0.0
 11
125.97
 21
134.23400000000001
 31
0.0
  0
LINE
  5
15A
  8
0
 62
     7
 10
127.4379999999999
 20
134.8189999999999
 30
0.0
 11
127.4379999999999
 21
136.2529999999999
 31
0.0
  0
LINE
  5
15B
  8
0
 62
     7
 10
121.56699999999999
 20
136.83699999999999
 30
0.0
 11
126.85299999999989
 21
136.83699999999999
 31
0.0
  0
LINE
  5
15C
  8
0
 62
     7
 10
121.56699999999999
 20
136.2529999999999
 30
0.0
 11
123.267
 21
136.2529999999999
 31
0.0
  0
LINE
  5
15D
  8
0
 62
     7
 10
125.764
 20
136.2529999999999
 30
0.0
 11
127.4379999999999
 21
136.2529999999999
 31
0.0
  0
LINE
  5
15E
  8
0
 62
     7
 10
121.56699999999999
 20
134.8189999999999
 30
0.0
 11
123.267
 21
134.8189999999999
 31
0.0
  0
LINE
  5
15F
  8
0
 62
     7
 10
125.764
 20
134.8189999999999
 30
0.0
 11
127.4379999999999
 21
134.8189999999999
 31
0.0
  0
LINE
  5
160
  8
0
 62
     7
 10
121.56699999999999
 20
133.64400000000001
 30
0.0
 11
125.97
 21
133.64400000000001
 31
0.0
  0
LINE
  5
161
  8
0
 62
     7
 10
121.56699999999999
 20
132.93000000000001
 30
0.0
 11
125.69199999999999
 21
132.93000000000001
 31
0.0
  0
LINE
  5
162
  8
0
 62
     7
 10
121.56699999999999
 20
134.23400000000001
 30
0.0
 11
126.85299999999989
 21
134.23400000000001
 31
0.0
  0
ARC
  5
163
  8
0
 62
     7
 10
118.619184
 20
137.53625
 30
0.0
 40
3.0621269999999998
 50
269.98053599999992
 51
280.24296199999998
  0
ARC
  5
164
  8
0
 62
     7
 10
118.8038429999999
 20
136.3907429999999
 30
0.0
 40
1.902166
 50
280.90507300000002
 51
299.54713299999997
  0
ARC
  5
165
  8
0
 62
     7
 10
118.9761649999999
 20
136.02699199999989
 30
0.0
 40
1.501031999999999
 50
300.67204700000002
 51
306.38807700000001
  0
ARC
  5
166
  8
0
 62
     7
 10
118.617103
 20
137.53625
 30
0.0
 40
3.0621269999999998
 50
259.75705699999992
 51
270.01948399999992
  0
ARC
  5
167
  8
0
 62
     7
 10
118.4324439999999
 20
136.3907429999999
 30
0.0
 40
1.902166
 50
240.452887
 51
259.09494599999999
  0
ARC
  5
168
  8
0
 62
     7
 10
118.260122
 20
136.02699199999989
 30
0.0
 40
1.501031999999999
 50
233.611943
 51
239.3279729999999
  0
ARC
  5
169
  8
0
 62
     7
 10
118.619184
 20
133.5355669999999
 30
0.0
 40
3.0621269999999998
 50
79.757037999999994
 51
90.019463999999985
  0
ARC
  5
16A
  8
0
 62
     7
 10
118.8038429999999
 20
134.68107499999991
 30
0.0
 40
1.902166
 50
60.452867000000012
 51
79.094926999999998
  0
ARC
  5
16B
  8
0
 62
     7
 10
118.9761649999999
 20
135.044825
 30
0.0
 40
1.501031999999999
 50
53.61192299999999
 51
59.327952999999987
  0
ARC
  5
16C
  8
0
 62
     7
 10
118.617103
 20
133.5355669999999
 30
0.0
 40
3.0621269999999998
 50
89.980516000000009
 51
100.242943
  0
ARC
  5
16D
  8
0
 62
     7
 10
118.4324439999999
 20
134.68107499999991
 30
0.0
 40
1.902166
 50
100.90505400000001
 51
119.5471129999999
  0
ARC
  5
16E
  8
0
 62
     7
 10
118.260122
 20
135.044825
 30
0.0
 40
1.501031999999999
 50
120.6720269999999
 51
126.3880569999999
  0
LINE
  5
16F
  8
0
 62
     7
 10
116.28
 20
136.83699999999999
 30
0.0
 11
115.6959999999999
 21
136.2529999999999
 31
0.0
  0
LINE
  5
170
  8
0
 62
     7
 10
125.56699999999999
 20
132.83799999999991
 30
0.0
 11
125.56699999999999
 21
132.93000000000001
 31
0.0
  0
LINE
  5
171
  8
0
 62
     7
 10
115.6959999999999
 20
134.8189999999999
 30
0.0
 11
116.28
 21
134.23400000000001
 31
0.0
  0
LINE
  5
172
  8
0
 62
     7
 10
119.867
 20
134.8189999999999
 30
0.0
 11
119.867
 21
136.2529999999999
 31
0.0
  0
LINE
  5
173
  8
0
 62
     7
 10
117.36999999999991
 20
134.8189999999999
 30
0.0
 11
117.36999999999991
 21
136.2529999999999
 31
0.0
  0
LINE
  5
174
  8
0
 62
     7
 10
117.56699999999989
 20
132.83799999999991
 30
0.0
 11
117.56699999999989
 21
132.93000000000001
 31
0.0
  0
LINE
  5
175
  8
0
 62
     7
 10
115.6959999999999
 20
134.8189999999999
 30
0.0
 11
115.6959999999999
 21
136.2529999999999
 31
0.0
  0
LINE
  5
176
  8
0
 62
     7
 10
121.56699999999999
 20
136.83699999999999
 30
0.0
 11
116.28
 21
136.83699999999999
 31
0.0
  0
LINE
  5
177
  8
0
 62
     7
 10
121.56699999999999
 20
136.2529999999999
 30
0.0
 11
119.867
 21
136.2529999999999
 31
0.0
  0
LINE
  5
178
  8
0
 62
     7
 10
117.36999999999991
 20
136.2529999999999
 30
0.0
 11
115.6959999999999
 21
136.2529999999999
 31
0.0
  0
LINE
  5
179
  8
0
 62
     7
 10
121.56699999999999
 20
134.8189999999999
 30
0.0
 11
119.867
 21
134.8189999999999
 31
0.0
  0
LINE
  5
17A
  8
0
 62
     7
 10
117.36999999999991
 20
134.8189999999999
 30
0.0
 11
115.6959999999999
 21
134.8189999999999
 31
0.0
  0
LINE
  5
17B
  8
0
 62
     7
 10
121.56699999999999
 20
134.23400000000001
 30
0.0
 11
116.28
 21
134.23400000000001
 31
0.0
  0
ARC
  5
17C
  8
0
 62
     7
 10
131.81673499999999
 20
136.83747099999991
 30
0.0
 40
14.250040999999991
 50
90.0
 51
179.99996999999991
  0
ARC
  5
17D
  8
0
 62
     7
 10
131.81673000000001
 20
136.83747099999991
 30
0.0
 40
14.250040999999991
 50
0.00001
 51
89.999980000000008
  0
ARC
  5
17E
  8
0
 62
     7
 10
131.816733
 20
136.8374729999999
 30
0.0
 40
6.2501329999999991
 50
90.0
 51
179.99996999999991
  0
ARC
  5
17F
  8
0
 62
     7
 10
131.81655900000001
 20
136.83764500000001
 30
0.0
 40
6.249960999999999
 50
359.99843099999993
 51
89.998401000000001
  0
ARC
  5
180
  8
0
  6
AIGENLINE001
 62
     7
 10
131.816734
 20
136.83747199999999
 30
0.0
 40
10.249915
 50
90.0
 51
179.99996999999991
  0
ARC
  5
181
  8
0
  6
AIGENLINE001
 62
     7
 10
131.81690299999991
 20
136.8373
 30
0.0
 40
10.25008699999999
 50
0.000973
 51
90.000943000000007
  0
LINE
  5
182
  8
0
 62
     7
 10
121.56699999999999
 20
127.86499999999999
 30
0.0
 11
121.56699999999999
 21
111.304
 31
0.0
  0
LINE
  5
183
  8
0
 62
     7
 10
101.06699999999999
 20
128.38
 30
0.0
 11
101.06699999999999
 21
111.062
 31
0.0
  0
LINE
  5
184
  8
0
 62
     7
 10
53.810000000000002
 20
122.58799999999989
 30
0.0
 11
53.810000000000002
 21
105.4699999999999
 31
0.0
  0
LINE
  5
185
  8
0
 62
     7
 10
53.810000000000002
 20
103.1099999999999
 30
0.0
 11
53.810000000000002
 21
81.321600000000004
 31
0.0
  0
LINE
  5
186
  8
0
 62
     7
 10
61.810200000000002
 20
122.58799999999989
 30
0.0
 11
61.810200000000002
 21
105.4699999999999
 31
0.0
  0
LINE
  5
187
  8
0
 62
     7
 10
61.810200000000002
 20
103.1099999999999
 30
0.0
 11
61.810200000000002
 21
81.321600000000004
 31
0.0
  0
LINE
  5
188
  8
0
 62
     7
 10
53.810000000000002
 20
73.321700000000007
 30
0.0
 11
53.810000000000002
 21
64.571799999999996
 31
0.0
  0
LINE
  5
189
  8
0
 62
     7
 10
61.810200000000002
 20
73.321700000000007
 30
0.0
 11
61.810200000000002
 21
64.571799999999996
 31
0.0
  0
LINE
  5
18A
  8
0
 62
     7
 10
66.564499999999995
 20
74.3429
 30
0.0
 11
66.564499999999995
 21
76.665199999999999
 31
0.0
  0
ARC
  5
18B
  8
0
 62
     7
 10
66.614889000000005
 20
82.021255000000011
 30
0.0
 40
3.3816329999999999
 50
232.04024200000001
 51
242.22395499999999
  0
ARC
  5
18C
  8
0
 62
     7
 10
67.154381000000001
 20
82.793987999999999
 30
0.0
 40
4.3230240000000002
 50
217.85077799999991
 51
232.70236299999991
  0
ARC
  5
18D
  8
0
 62
     7
 10
63.969357999999993
 20
76.646055000000004
 30
0.0
 40
2.595200999999999
 50
0.423304
 51
52.705947999999999
  0
ARC
  5
18E
  8
0
 62
     7
 10
63.603670999999999
 20
76.208252999999985
 30
0.0
 40
3.165163999999999
 50
52.241607999999999
 51
63.033202000000003
  0
LINE
  5
18F
  8
0
 62
     7
 10
63.740900000000003
 20
80.141400000000004
 30
0.0
 11
62.834800000000001
 21
81.321600000000004
 31
0.0
  0
LINE
  5
190
  8
0
 62
     7
 10
66.564499999999995
 20
74.3429
 30
0.0
 11
66.564499999999995
 21
76.665199999999999
 31
0.0
  0
ARC
  5
191
  8
0
 62
     7
 10
49.006003999999997
 20
82.019704999999988
 30
0.0
 40
3.3802609999999991
 50
297.78827599999988
 51
307.97267199999999
  0
ARC
  5
192
  8
0
 62
     7
 10
48.460861999999999
 20
82.800500999999997
 30
0.0
 40
4.3314810000000001
 50
307.30235099999999
 51
322.127071
  0
ARC
  5
193
  8
0
 62
     7
 10
51.651530999999999
 20
76.646056000000002
 30
0.0
 40
2.595199
 50
127.29401300000001
 51
179.57669499999989
  0
ARC
  5
194
  8
0
 62
     7
 10
52.017220000000002
 20
76.208252999999985
 30
0.0
 40
3.165163999999999
 50
116.96677800000001
 51
127.75837199999989
  0
LINE
  5
195
  8
0
 62
     7
 10
51.880000000000003
 20
80.141400000000004
 30
0.0
 11
52.785400000000003
 21
81.321600000000004
 31
0.0
  0
LINE
  5
196
  8
0
 62
     7
 10
49.056399999999996
 20
74.3429
 30
0.0
 11
49.056399999999996
 21
76.665199999999999
 31
0.0
  0
LINE
  5
197
  8
0
 62
     7
 10
67.185100000000006
 20
74.3429
 30
0.0
 11
67.185100000000006
 21
73.321700000000007
 31
0.0
  0
LINE
  5
198
  8
0
 62
     7
 10
48.435099999999998
 20
74.3429
 30
0.0
 11
48.435099999999998
 21
73.321700000000007
 31
0.0
  0
LINE
  5
199
  8
0
 62
     7
 10
51.641300000000001
 20
78.912800000000004
 30
0.0
 11
63.979599999999998
 21
78.912800000000004
 31
0.0
  0
LINE
  5
19A
  8
0
 62
     7
 10
52.785400000000003
 20
81.321600000000004
 30
0.0
 11
62.834800000000001
 21
81.321600000000004
 31
0.0
  0
LINE
  5
19B
  8
0
 62
     7
 10
48.435099999999998
 20
74.3429
 30
0.0
 11
67.185100000000006
 21
74.3429
 31
0.0
  0
LINE
  5
19C
  8
0
 62
     7
 10
53.810000000000002
 20
64.571799999999996
 30
0.0
 11
61.810200000000002
 21
64.571799999999996
 31
0.0
  0
LINE
  5
19D
  8
0
 62
     7
 10
48.435099999999998
 20
73.321700000000007
 30
0.0
 11
67.185100000000006
 21
73.321700000000007
 31
0.0
  0
LINE
  5
19E
  8
0
 62
     7
 10
61.810899999999997
 20
103.1099999999999
 30
0.0
 11
61.810899999999997
 21
103.1099999999999
 31
0.0
  0
ARC
  5
19F
  8
0
 62
     7
 10
55.808267000000001
 20
98.910726000000011
 30
0.0
 40
4.6524269999999994
 50
64.510129000000006
 51
108.931588
  0
ARC
  5
1A0
  8
0
 62
     7
 10
55.802078000000002
 20
98.974637000000016
 30
0.0
 40
4.5899890000000001
 50
109.11734799999989
 51
115.708006
  0
ARC
  5
1A1
  8
0
 62
     7
 10
59.862037999999998
 20
98.825211999999993
 30
0.0
 40
4.750888999999999
 50
109.212892
 51
115.583955
  0
ARC
  5
1A2
  8
0
 62
     7
 10
59.808050000000001
 20
98.910748999999996
 30
0.0
 40
4.652406
 50
64.510024000000001
 51
108.931693
  0
ARC
  5
1A3
  8
0
 62
     7
 10
59.622255000000003
 20
107.7223849999999
 30
0.0
 40
5.1047640000000003
 50
289.408929
 51
295.37962499999992
  0
ARC
  5
1A4
  8
0
 62
     7
 10
59.812643000000008
 20
107.30588999999991
 30
0.0
 40
4.648852999999999
 50
244.4888839999999
 51
288.90158199999991
  0
LINE
  5
1A5
  8
0
 62
     7
 10
53.811
 20
105.4699999999999
 30
0.0
 11
53.811
 21
105.4699999999999
 31
0.0
  0
ARC
  5
1A6
  8
0
 62
     7
 10
59.877508999999989
 20
109.437603
 30
0.0
 40
4.411319999999999
 50
289.06753500000002
 51
295.92472500000002
  0
ARC
  5
1A7
  8
0
 62
     7
 10
59.811933999999987
 20
109.66847299999991
 30
0.0
 40
4.6509640000000001
 50
244.51097999999999
 51
288.90191800000002
  0
ARC
  5
1A8
  8
0
 62
     7
 10
55.807523000000003
 20
101.272702
 30
0.0
 40
4.6508789999999989
 50
64.490874000000005
 51
108.928433
  0
ARC
  5
1A9
  8
0
 62
     7
 10
55.77171899999999
 20
101.42270600000001
 30
0.0
 40
4.4973960000000002
 50
109.11687499999999
 51
115.846734
  0
ARC
  5
1AA
  8
0
 62
     7
 10
55.814944999999987
 20
109.682734
 30
0.0
 40
4.664892
 50
244.55922000000001
 51
288.860769
  0
ARC
  5
1AB
  8
0
 62
     7
 10
55.831819999999993
 20
109.558437
 30
0.0
 40
4.5418779999999987
 50
289.16620399999988
 51
295.82605599999988
  0
LINE
  5
1AC
  8
0
 62
     7
 10
138.06700000000001
 20
136.83699999999999
 30
0.0
 11
138.06700000000001
 21
105.4699999999999
 31
0.0
  0
LINE
  5
1AD
  8
0
 62
     7
 10
138.06700000000001
 20
103.1099999999999
 30
0.0
 11
138.06700000000001
 21
81.321600000000004
 31
0.0
  0
LINE
  5
1AE
  8
0
 62
     7
 10
146.06700000000001
 20
136.83699999999999
 30
0.0
 11
146.06700000000001
 21
105.4699999999999
 31
0.0
  0
LINE
  5
1AF
  8
0
 62
     7
 10
146.06700000000001
 20
103.1099999999999
 30
0.0
 11
146.06700000000001
 21
81.321600000000004
 31
0.0
  0
LINE
  5
1B0
  8
0
 62
     7
 10
132.69200000000001
 20
72.751199999999997
 30
0.0
 11
132.69200000000001
 21
51.4542
 31
0.0
  0
LINE
  5
1B1
  8
0
 62
     7
 10
151.44200000000001
 20
72.751199999999997
 30
0.0
 11
151.44200000000001
 21
51.4542
 31
0.0
  0
LINE
  5
1B2
  8
0
 62
     7
 10
134.34999999999991
 20
52.39609999999999
 30
0.0
 11
132.69200000000001
 21
51.952399999999997
 31
0.0
  0
LINE
  5
1B3
  8
0
 62
     7
 10
132.69200000000001
 20
51.952399999999997
 30
0.0
 11
134.34999999999991
 21
51.507899999999999
 31
0.0
  0
LINE
  5
1B4
  8
0
 62
     7
 10
134.34999999999991
 20
51.507899999999999
 30
0.0
 11
134.34999999999991
 21
52.39609999999999
 31
0.0
  0
LINE
  5
1B5
  8
0
 62
     7
 10
149.78399999999999
 20
51.518300000000004
 30
0.0
 11
151.44200000000001
 21
51.962699999999998
 31
0.0
  0
LINE
  5
1B6
  8
0
 62
     7
 10
151.44200000000001
 20
51.962699999999998
 30
0.0
 11
149.78399999999999
 21
52.407099999999993
 31
0.0
  0
LINE
  5
1B7
  8
0
 62
     7
 10
149.78399999999999
 20
52.407099999999993
 30
0.0
 11
149.78399999999999
 21
51.518300000000004
 31
0.0
  0
LINE
  5
1B8
  8
0
 62
     7
 10
132.69200000000001
 20
51.9572
 30
0.0
 11
151.44200000000001
 21
51.9572
 31
0.0
  0
LINE
  5
1B9
  8
0
 62
     7
 10
138.06700000000001
 20
63.901400000000002
 30
0.0
 11
138.06700000000001
 21
57.776699999999998
 31
0.0
  0
LINE
  5
1BA
  8
0
 62
     7
 10
146.06700000000001
 20
63.901400000000002
 30
0.0
 11
146.06700000000001
 21
57.776699999999998
 31
0.0
  0
LINE
  5
1BB
  8
0
 62
     7
 10
138.06700000000001
 20
73.321700000000007
 30
0.0
 11
138.06700000000001
 21
64.571799999999996
 31
0.0
  0
LINE
  5
1BC
  8
0
 62
     7
 10
146.06700000000001
 20
73.321700000000007
 30
0.0
 11
146.06700000000001
 21
64.571799999999996
 31
0.0
  0
LINE
  5
1BD
  8
0
  6
AIGENLINE001
 62
     7
 10
142.06700000000001
 20
136.83699999999999
 30
0.0
 11
142.06700000000001
 21
62.910600000000002
 31
0.0
  0
LINE
  5
1BE
  8
0
 62
     7
 10
123.22499999999999
 20
112.232
 30
0.0
 11
121.56699999999999
 21
111.7879999999999
 31
0.0
  0
LINE
  5
1BF
  8
0
 62
     7
 10
121.56699999999999
 20
111.7879999999999
 30
0.0
 11
123.22499999999999
 21
111.3429999999999
 31
0.0
  0
LINE
  5
1C0
  8
0
 62
     7
 10
123.22499999999999
 20
111.3429999999999
 30
0.0
 11
123.22499999999999
 21
112.232
 31
0.0
  0
LINE
  5
1C1
  8
0
 62
     7
 10
140.40899999999991
 20
111.3539999999999
 30
0.0
 11
142.06700000000001
 21
111.7979999999999
 31
0.0
  0
LINE
  5
1C2
  8
0
 62
     7
 10
142.06700000000001
 20
111.7979999999999
 30
0.0
 11
140.40899999999991
 21
112.24299999999999
 31
0.0
  0
LINE
  5
1C3
  8
0
 62
     7
 10
140.40899999999991
 20
112.24299999999999
 30
0.0
 11
140.40899999999991
 21
111.3539999999999
 31
0.0
  0
LINE
  5
1C4
  8
0
 62
     7
 10
121.56699999999999
 20
111.79299999999991
 30
0.0
 11
142.06700000000001
 21
111.79299999999991
 31
0.0
  0
LINE
  5
1C5
  8
0
 62
     7
 10
102.7239999999999
 20
112.232
 30
0.0
 11
101.06699999999999
 21
111.7879999999999
 31
0.0
  0
LINE
  5
1C6
  8
0
 62
     7
 10
101.06699999999999
 20
111.7879999999999
 30
0.0
 11
102.7239999999999
 21
111.3429999999999
 31
0.0
  0
LINE
  5
1C7
  8
0
 62
     7
 10
102.7239999999999
 20
111.3429999999999
 30
0.0
 11
102.7239999999999
 21
112.232
 31
0.0
  0
LINE
  5
1C8
  8
0
 62
     7
 10
119.90899999999991
 20
111.3539999999999
 30
0.0
 11
121.56699999999999
 21
111.7979999999999
 31
0.0
  0
LINE
  5
1C9
  8
0
 62
     7
 10
121.56699999999999
 20
111.7979999999999
 30
0.0
 11
119.90899999999991
 21
112.24299999999999
 31
0.0
  0
LINE
  5
1CA
  8
0
 62
     7
 10
119.90899999999991
 20
112.24299999999999
 30
0.0
 11
119.90899999999991
 21
111.3539999999999
 31
0.0
  0
LINE
  5
1CB
  8
0
 62
     7
 10
101.06699999999999
 20
111.79299999999991
 30
0.0
 11
121.56699999999999
 21
111.79299999999991
 31
0.0
  0
LINE
  5
1CC
  8
0
 62
     7
 10
135.447
 20
147.08699999999999
 30
0.0
 11
164.37700000000001
 21
147.08699999999999
 31
0.0
  0
LINE
  5
1CD
  8
0
 62
     7
 10
147.02500000000001
 20
64.571799999999996
 30
0.0
 11
164.3959999999999
 21
64.571799999999996
 31
0.0
  0
LINE
  5
1CE
  8
0
 62
     7
 10
116.17700000000001
 20
122.587
 30
0.0
 11
156.34200000000001
 21
122.587
 31
0.0
  0
LINE
  5
1CF
  8
0
 62
     7
 10
150.821
 20
74.3429
 30
0.0
 11
150.821
 21
76.665199999999999
 31
0.0
  0
ARC
  5
1D0
  8
0
 62
     7
 10
150.871433
 20
82.021255000000011
 30
0.0
 40
3.3816329999999999
 50
232.04024200000001
 51
242.22395499999999
  0
ARC
  5
1D1
  8
0
 62
     7
 10
151.41164900000001
 20
82.794719000000001
 30
0.0
 40
4.3240439999999998
 50
217.85254
 51
232.70060000000001
  0
ARC
  5
1D2
  8
0
 62
     7
 10
148.224996
 20
76.645601999999997
 30
0.0
 40
2.5961110000000001
 50
0.433154
 51
52.69609899999999
  0
ARC
  5
1D3
  8
0
 62
     7
 10
147.85954599999999
 20
76.207197999999991
 30
0.0
 40
3.1664080000000001
 50
52.243734000000011
 51
63.031075999999999
  0
LINE
  5
1D4
  8
0
 62
     7
 10
147.99700000000001
 20
80.141400000000004
 30
0.0
 11
147.09100000000001
 21
81.321600000000004
 31
0.0
  0
LINE
  5
1D5
  8
0
 62
     7
 10
150.821
 20
74.3429
 30
0.0
 11
150.821
 21
76.665199999999999
 31
0.0
  0
ARC
  5
1D6
  8
0
 62
     7
 10
133.25793300000001
 20
82.026878999999994
 30
0.0
 40
3.388758999999999
 50
297.8007629999999
 51
307.95962700000001
  0
ARC
  5
1D7
  8
0
 62
     7
 10
132.71677199999999
 20
82.801123000000004
 30
0.0
 40
4.3323619999999989
 50
307.30408699999998
 51
322.12572299999999
  0
ARC
  5
1D8
  8
0
 62
     7
 10
135.90898100000001
 20
76.645603000000008
 30
0.0
 40
2.5961090000000002
 50
127.30386300000001
 51
179.56684499999989
  0
ARC
  5
1D9
  8
0
 62
     7
 10
136.27443299999999
 20
76.207197999999991
 30
0.0
 40
3.1664080000000001
 50
116.96890399999999
 51
127.7562459999999
  0
LINE
  5
1DA
  8
0
 62
     7
 10
136.13699999999989
 20
80.141400000000004
 30
0.0
 11
137.04199999999989
 21
81.321600000000004
 31
0.0
  0
LINE
  5
1DB
  8
0
 62
     7
 10
133.3129999999999
 20
74.3429
 30
0.0
 11
133.3129999999999
 21
76.665199999999999
 31
0.0
  0
LINE
  5
1DC
  8
0
 62
     7
 10
151.44200000000001
 20
74.3429
 30
0.0
 11
151.44200000000001
 21
73.321700000000007
 31
0.0
  0
LINE
  5
1DD
  8
0
 62
     7
 10
132.691
 20
74.3429
 30
0.0
 11
132.691
 21
73.321700000000007
 31
0.0
  0
LINE
  5
1DE
  8
0
 62
     7
 10
135.898
 20
78.912800000000004
 30
0.0
 11
148.2359999999999
 21
78.912800000000004
 31
0.0
  0
LINE
  5
1DF
  8
0
 62
     7
 10
137.04199999999989
 20
81.321600000000004
 30
0.0
 11
147.09100000000001
 21
81.321600000000004
 31
0.0
  0
LINE
  5
1E0
  8
0
 62
     7
 10
132.691
 20
74.3429
 30
0.0
 11
151.44200000000001
 21
74.3429
 31
0.0
  0
LINE
  5
1E1
  8
0
 62
     7
 10
163.28100000000001
 20
66.229600000000005
 30
0.0
 11
163.72499999999991
 21
64.571799999999996
 31
0.0
  0
LINE
  5
1E2
  8
0
 62
     7
 10
163.72499999999991
 20
64.571799999999996
 30
0.0
 11
164.1699999999999
 21
66.229600000000005
 31
0.0
  0
LINE
  5
1E3
  8
0
 62
     7
 10
164.1699999999999
 20
66.229600000000005
 30
0.0
 11
163.28100000000001
 21
66.229600000000005
 31
0.0
  0
LINE
  5
1E4
  8
0
 62
     7
 10
164.15899999999999
 20
145.43000000000001
 30
0.0
 11
163.715
 21
147.08699999999999
 31
0.0
  0
LINE
  5
1E5
  8
0
 62
     7
 10
163.715
 20
147.08699999999999
 30
0.0
 11
163.27099999999999
 21
145.43000000000001
 31
0.0
  0
LINE
  5
1E6
  8
0
 62
     7
 10
163.27099999999999
 20
145.43000000000001
 30
0.0
 11
164.15899999999999
 21
145.43000000000001
 31
0.0
  0
LINE
  5
1E7
  8
0
 62
     7
 10
163.71999999999991
 20
64.571799999999996
 30
0.0
 11
163.71999999999991
 21
147.08699999999999
 31
0.0
  0
LINE
  5
1E8
  8
0
 62
     7
 10
155.44499999999991
 20
124.245
 30
0.0
 11
155.88900000000001
 21
122.587
 31
0.0
  0
LINE
  5
1E9
  8
0
 62
     7
 10
155.88900000000001
 20
122.587
 30
0.0
 11
156.334
 21
124.245
 31
0.0
  0
LINE
  5
1EA
  8
0
 62
     7
 10
156.334
 20
124.245
 30
0.0
 11
155.44499999999991
 21
124.245
 31
0.0
  0
LINE
  5
1EB
  8
0
 62
     7
 10
156.32299999999989
 20
145.43000000000001
 30
0.0
 11
155.87899999999991
 21
147.08699999999999
 31
0.0
  0
LINE
  5
1EC
  8
0
 62
     7
 10
155.87899999999991
 20
147.08699999999999
 30
0.0
 11
155.435
 21
145.43000000000001
 31
0.0
  0
LINE
  5
1ED
  8
0
 62
     7
 10
155.435
 20
145.43000000000001
 30
0.0
 11
156.32299999999989
 21
145.43000000000001
 31
0.0
  0
LINE
  5
1EE
  8
0
 62
     7
 10
155.88399999999999
 20
122.587
 30
0.0
 11
155.88399999999999
 21
147.08699999999999
 31
0.0
  0
LINE
  5
1EF
  8
0
 62
     7
 10
139.72499999999991
 20
58.606999999999999
 30
0.0
 11
138.06700000000001
 21
58.162500000000001
 31
0.0
  0
LINE
  5
1F0
  8
0
 62
     7
 10
138.06700000000001
 20
58.162500000000001
 30
0.0
 11
139.72499999999991
 21
57.718800000000002
 31
0.0
  0
LINE
  5
1F1
  8
0
 62
     7
 10
139.72499999999991
 20
57.718800000000002
 30
0.0
 11
139.72499999999991
 21
58.606999999999999
 31
0.0
  0
LINE
  5
1F2
  8
0
 62
     7
 10
144.40899999999991
 20
57.729799999999997
 30
0.0
 11
146.06700000000001
 21
58.1736
 31
0.0
  0
LINE
  5
1F3
  8
0
 62
     7
 10
146.06700000000001
 20
58.1736
 30
0.0
 11
144.40899999999991
 21
58.618000000000002
 31
0.0
  0
LINE
  5
1F4
  8
0
 62
     7
 10
144.40899999999991
 20
58.618000000000002
 30
0.0
 11
144.40899999999991
 21
57.729799999999997
 31
0.0
  0
LINE
  5
1F5
  8
0
 62
     7
 10
138.06700000000001
 20
58.167999999999999
 30
0.0
 11
146.06700000000001
 21
58.167999999999999
 31
0.0
  0
LINE
  5
1F6
  8
0
 62
     7
 10
138.06700000000001
 20
64.571799999999996
 30
0.0
 11
146.06700000000001
 21
64.571799999999996
 31
0.0
  0
LINE
  5
1F7
  8
0
 62
     7
 10
132.691
 20
73.321700000000007
 30
0.0
 11
151.44200000000001
 21
73.321700000000007
 31
0.0
  0
LINE
  5
1F8
  8
0
 62
     7
 10
146.06700000000001
 20
103.1099999999999
 30
0.0
 11
146.06700000000001
 21
103.1099999999999
 31
0.0
  0
ARC
  5
1F9
  8
0
 62
     7
 10
140.06486599999991
 20
98.911691000000005
 30
0.0
 40
4.6515329999999997
 50
64.505630999999994
 51
108.93608500000001
  0
ARC
  5
1FA
  8
0
 62
     7
 10
140.0586219999999
 20
98.974637000000016
 30
0.0
 40
4.5899890000000001
 50
109.11734799999989
 51
115.708006
  0
ARC
  5
1FB
  8
0
 62
     7
 10
144.118582
 20
98.825211999999993
 30
0.0
 40
4.750888999999999
 50
109.212892
 51
115.583955
  0
ARC
  5
1FC
  8
0
 62
     7
 10
144.064594
 20
98.910748999999996
 30
0.0
 40
4.652406
 50
64.510024000000001
 51
108.931693
  0
ARC
  5
1FD
  8
0
 62
     7
 10
143.85809099999989
 20
107.77264099999989
 30
0.0
 40
5.159046
 50
289.44036799999998
 51
295.348186
  0
ARC
  5
1FE
  8
0
 62
     7
 10
144.06914499999991
 20
107.30516399999991
 30
0.0
 40
4.6481799999999991
 50
244.48549800000001
 51
288.90496699999989
  0
LINE
  5
1FF
  8
0
 62
     7
 10
138.0679999999999
 20
105.4699999999999
 30
0.0
 11
138.0679999999999
 21
105.4699999999999
 31
0.0
  0
ARC
  5
200
  8
0
 62
     7
 10
144.13405299999991
 20
109.437603
 30
0.0
 40
4.411319999999999
 50
289.06753500000002
 51
295.92472500000002
  0
ARC
  5
201
  8
0
 62
     7
 10
144.06843599999999
 20
109.66774699999991
 30
0.0
 40
4.65029
 50
244.50759400000001
 51
288.90530399999989
  0
ARC
  5
202
  8
0
 62
     7
 10
140.06412199999991
 20
101.27366600000001
 30
0.0
 40
4.649985
 50
64.486373999999984
 51
108.93293199999999
  0
ARC
  5
203
  8
0
 62
     7
 10
140.0282629999999
 20
101.42270600000001
 30
0.0
 40
4.4973960000000002
 50
109.11687499999999
 51
115.846734
  0
ARC
  5
204
  8
0
 62
     7
 10
140.0714889999999
 20
109.682734
 30
0.0
 40
4.664892
 50
244.55922000000001
 51
288.860769
  0
ARC
  5
205
  8
0
 62
     7
 10
140.0883639999999
 20
109.558437
 30
0.0
 40
4.5418779999999987
 50
289.16620399999988
 51
295.82605599999988
  0
LINE
  5
206
  8
0
 62
     7
 10
131.81499999999991
 20
73.321700000000007
 30
0.0
 11
123.7119999999999
 21
73.321700000000007
 31
0.0
  0
LINE
  5
207
  8
0
 62
     7
 10
135.721
 20
81.321600000000004
 30
0.0
 11
123.7889999999999
 21
81.321600000000004
 31
0.0
  0
LINE
  5
208
  8
0
 62
     7
 10
124.67099999999991
 20
79.663899999999998
 30
0.0
 11
124.2269999999999
 21
81.321600000000004
 31
0.0
  0
LINE
  5
209
  8
0
 62
     7
 10
124.2269999999999
 20
81.321600000000004
 30
0.0
 11
123.7829999999999
 21
79.663899999999998
 31
0.0
  0
LINE
  5
20A
  8
0
 62
     7
 10
123.7829999999999
 20
79.663899999999998
 30
0.0
 11
124.67099999999991
 21
79.663899999999998
 31
0.0
  0
LINE
  5
20B
  8
0
 62
     7
 10
123.79299999999991
 20
74.979500000000002
 30
0.0
 11
124.238
 21
73.321700000000007
 31
0.0
  0
LINE
  5
20C
  8
0
 62
     7
 10
124.238
 20
73.321700000000007
 30
0.0
 11
124.682
 21
74.979500000000002
 31
0.0
  0
LINE
  5
20D
  8
0
 62
     7
 10
124.682
 20
74.979500000000002
 30
0.0
 11
123.79299999999991
 21
74.979500000000002
 31
0.0
  0
LINE
  5
20E
  8
0
 62
     7
 10
124.232
 20
81.321600000000004
 30
0.0
 11
124.232
 21
73.321700000000007
 31
0.0
  0
LINE
  5
20F
  8
0
 62
     7
 10
106.68600000000001
 20
122.587
 30
0.0
 11
89.438199999999995
 21
122.587
 31
0.0
  0
LINE
  5
210
  8
0
 62
     7
 10
94.589799999999997
 20
157.58699999999999
 30
0.0
 11
89.514700000000005
 21
157.58699999999999
 31
0.0
  0
LINE
  5
211
  8
0
 62
     7
 10
90.396900000000002
 20
155.93000000000001
 30
0.0
 11
89.9529
 21
157.58699999999999
 31
0.0
  0
LINE
  5
212
  8
0
 62
     7
 10
89.9529
 20
157.58699999999999
 30
0.0
 11
89.508799999999994
 21
155.93000000000001
 31
0.0
  0
LINE
  5
213
  8
0
 62
     7
 10
89.508799999999994
 20
155.93000000000001
 30
0.0
 11
90.396900000000002
 21
155.93000000000001
 31
0.0
  0
LINE
  5
214
  8
0
 62
     7
 10
89.519499999999994
 20
124.245
 30
0.0
 11
89.963600000000014
 21
122.587
 31
0.0
  0
LINE
  5
215
  8
0
 62
     7
 10
89.963600000000014
 20
122.587
 30
0.0
 11
90.407999999999987
 21
124.245
 31
0.0
  0
LINE
  5
216
  8
0
 62
     7
 10
90.407999999999987
 20
124.245
 30
0.0
 11
89.519499999999994
 21
124.245
 31
0.0
  0
LINE
  5
217
  8
0
 62
     7
 10
89.958399999999983
 20
157.58699999999999
 30
0.0
 11
89.958399999999983
 21
122.587
 31
0.0
  0
LINE
  5
218
  8
_________2
 62
     7
 10
205.30099999999999
 20
127.411
 30
0.0
 11
183.55000000000001
 21
127.411
 31
0.0
  0
LINE
  5
219
  8
_________2
 62
     7
 10
100.2999999999999
 20
-4.0910799999999998
 30
0.0
 11
100.2999999999999
 21
-21.070999999999991
 31
0.0
  0
LINE
  5
21A
  8
_________2
 62
     7
 10
100.2999999999999
 20
275.93099999999993
 30
0.0
 11
100.2999999999999
 21
258.911
 31
0.0
  0
LINE
  5
21B
  8
_________2
 62
     7
 10
17.049499999999998
 20
127.411
 30
0.0
 11
-4.7008599999999987
 21
127.411
 31
0.0
  0
LINE
  5
21C
  8
_________2
 62
     7
 10
76.741
 20
29.8047
 30
0.0
 11
74.554699999999997
 21
29.8047
 31
0.0
  0
LINE
  5
21D
  8
_________2
 62
     7
 10
77.233699999999999
 20
29.8047
 30
0.0
 11
76.981499999999997
 21
29.8047
 31
0.0
  0
LINE
  5
21E
  8
_________2
 62
     7
 10
77.726299999999995
 20
29.8047
 30
0.0
 11
80.651200000000003
 21
29.8047
 31
0.0
  0
LINE
  5
21F
  8
_________2
 62
     7
 10
77.233699999999999
 20
29.8047
 30
0.0
 11
77.485200000000006
 21
29.8047
 31
0.0
  0
LINE
  5
220
  8
_________2
 62
     7
 10
70.836799999999997
 20
29.8047
 30
0.0
 11
68.650499999999994
 21
29.8047
 31
0.0
  0
LINE
  5
221
  8
_________2
 62
     7
 10
71.329400000000007
 20
29.8047
 30
0.0
 11
71.077200000000005
 21
29.8047
 31
0.0
  0
LINE
  5
222
  8
_________2
 62
     7
 10
71.329400000000007
 20
30.2974
 30
0.0
 11
71.329400000000007
 21
32.484400000000001
 31
0.0
  0
LINE
  5
223
  8
_________2
 62
     7
 10
71.329400000000007
 20
29.8047
 30
0.0
 11
71.329400000000007
 21
30.057300000000001
 31
0.0
  0
LINE
  5
224
  8
_________2
 62
     7
 10
71.822100000000006
 20
29.8047
 30
0.0
 11
74.009
 21
29.8047
 31
0.0
  0
LINE
  5
225
  8
_________2
 62
     7
 10
71.329400000000007
 20
29.8047
 30
0.0
 11
71.581599999999995
 21
29.8047
 31
0.0
  0
LINE
  5
226
  8
_________2
 62
     7
 10
71.329400000000007
 20
29.312799999999999
 30
0.0
 11
71.329400000000007
 21
27.126200000000001
 31
0.0
  0
LINE
  5
227
  8
_________2
 62
     7
 10
71.329400000000007
 20
29.8047
 30
0.0
 11
71.329400000000007
 21
29.5532
 31
0.0
  0
LINE
  5
228
  8
_________2
 62
     7
 10
75.040499999999994
 20
28.5852
 30
0.0
 11
80.218500000000006
 21
27.720400000000001
 31
0.0
  0
LINE
  5
229
  8
_________2
 62
     7
 10
75.040499999999994
 20
31.024699999999999
 30
0.0
 11
80.218500000000006
 21
31.8901
 31
0.0
  0
LINE
  5
22A
  8
_________2
 62
     7
 10
80.218500000000006
 20
27.720400000000001
 30
0.0
 11
80.218500000000006
 21
31.8901
 31
0.0
  0
LINE
  5
22B
  8
_________2
 62
     7
 10
75.040499999999994
 20
28.5852
 30
0.0
 11
75.040499999999994
 21
31.024699999999999
 31
0.0
  0
ARC
  5
22C
  8
_________2
 62
     7
 10
71.282178999999999
 20
29.757850000000001
 30
0.0
 40
1.2676899999999991
 50
2.1199219999999999
 51
87.863884999999996
  0
ARC
  5
22D
  8
_________2
 62
     7
 10
71.375985
 20
29.758545999999999
 30
0.0
 40
1.2669680000000001
 50
92.105782999999988
 51
177.91037
  0
ARC
  5
22E
  8
_________2
 62
     7
 10
71.376357999999996
 20
29.851671
 30
0.0
 40
1.2673680000000001
 50
182.12203600000001
 51
267.877993
  0
ARC
  5
22F
  8
_________2
 62
     7
 10
71.282522999999983
 20
29.851649999999999
 30
0.0
 40
1.267347
 50
272.12114300000002
 51
357.87886700000001
  0
ARC
  5
230
  8
_________2
 62
     7
 10
71.249061999999995
 20
29.724731999999989
 30
0.0
 40
2.1668310000000002
 50
2.1161439999999989
 51
87.874379000000005
  0
ARC
  5
231
  8
_________2
 62
     7
 10
71.409081999999998
 20
29.72544899999999
 30
0.0
 40
2.1660879999999998
 50
92.107349999999997
 51
177.90208699999999
  0
ARC
  5
232
  8
_________2
 62
     7
 10
71.408771999999999
 20
29.884799999999998
 30
0.0
 40
2.165807
 50
182.1183979999999
 51
267.90056900000002
  0
ARC
  5
233
  8
_________2
 62
     7
 10
71.249459000000002
 20
29.885429999999989
 30
0.0
 40
2.1664590000000001
 50
272.11546800000002
 51
357.86560400000002
  0
TEXT
  5
234
  8
_________2
 62
     7
 10
104.604
 20
1.6794899999999999
 30
0.0
 40
3.0923400000000001
  1
図番
 41
0.5
  0
LINE
  5
235
  8
_________2
 62
     7
 10
103.55
 20
5.9087199999999989
 30
0.0
 11
183.55099999999999
 21
5.9087199999999989
 31
0.0
  0
TEXT
  5
236
  8
_________2
 62
     7
 10
104.604
 20
11.679299999999991
 30
0.0
 40
3.0923400000000001
  1
品番
 41
0.5
  0
TEXT
  5
237
  8
_________2
 62
     7
 10
104.604
 20
31.8184
 30
0.0
 40
3.0923400000000001
  1
名称
 41
0.5
  0
TEXT
  5
238
  8
_________2
 62
     7
 10
91.845058333333341
 20
26.822299999999998
 30
0.0
 40
3.6545800000000002
  1
mm
 41
0.5
 72
     1
 11
93.367800000000003
 21
26.822299999999998
 31
0.0
  0
TEXT
  5
239
  8
_________2
 62
     7
 10
85.643199999999993
 20
31.8184
 30
0.0
 40
3.0923400000000001
  1
単位
 41
0.5
  0
TEXT
  5
23A
  8
_________2
 62
     7
 10
85.643199999999993
 20
19.410799999999991
 30
0.0
 40
3.0923400000000001
  1
尺度
 41
0.5
  0
TEXT
  5
23B
  8
_________2
 62
     7
 10
90.548758666666686
 20
13.218199999999991
 30
0.0
 40
3.6545800000000002
  1
1 ： 4
 41
0.5
 72
     1
 11
93.959699999999998
 21
13.218199999999991
 31
0.0
  0
TEXT
  5
23C
  8
_________2
 62
     7
 10
136.66252499999999
 20
9.1082000000000001
 30
0.0
 40
3.9357000000000002
  1
CET6SVR
 41
0.5
 72
     1
 11
143.55000000000001
 21
9.1082000000000001
 31
0.0
  0
TEXT
  5
23D
  8
_________2
 62
     7
 10
136.66252499999999
 20
-0.8926299999999999
 30
0.0
 40
3.9357000000000002
  1
CET6SVR
 41
0.5
 72
     1
 11
143.55000000000001
 21
-0.8926299999999999
 31
0.0
  0
TEXT
  5
23E
  8
_________2
 62
     7
 10
24.5868
 20
0.707627
 30
0.0
 40
3.9357000000000002
  1
国産洗面器用
 41
0.5
  0
TEXT
  5
23F
  8
_________2
 62
     7
 10
109.179
 20
24.226099999999999
 30
0.0
 40
3.9357000000000002
  1
Sトラップ
 41
0.5
  0
TEXT
  5
240
  8
_________2
 62
     7
 10
39.425300333333333
 20
13.603400000000001
 30
0.0
 40
3.6545800000000002
  1
早川
 41
0.5
 72
     1
 11
41.313499999999998
 21
13.603400000000001
 31
0.0
  0
TEXT
  5
241
  8
_________2
 62
     7
 10
20.789690666666662
 20
13.603400000000001
 30
0.0
 40
3.6545800000000002
  1
石原
 41
0.5
 72
     1
 11
22.738800000000001
 21
13.603400000000001
 31
0.0
  0
TEXT
  5
242
  8
_________2
 62
     7
 10
67.7851
 20
13.218199999999991
 30
0.0
 40
3.6545800000000002
  1
12.07.27
 41
0.5
  0
TEXT
  5
243
  8
_________2
 62
     7
 10
66.593100000000007
 20
19.410799999999991
 30
0.0
 40
3.0923400000000001
  1
日付
 41
0.5
  0
TEXT
  5
244
  8
_________2
 62
     7
 10
29.639399999999998
 20
19.410799999999991
 30
0.0
 40
3.0923400000000001
  1
検図
 41
0.5
  0
TEXT
  5
245
  8
_________2
 62
     7
 10
18.021100000000001
 20
5.21143
 30
0.0
 40
3.0923400000000001
  1
備考
 41
0.5
  0
TEXT
  5
246
  8
_________2
 62
     7
 10
18.021100000000001
 20
19.410799999999991
 30
0.0
 40
3.0923400000000001
  1
製図
 41
0.5
  0
TEXT
  5
247
  8
_________2
 62
     7
 10
23.788465333333338
 20
27.936800000000002
 30
0.0
 40
4.4979399999999989
  1
セラトレーディング株式会社
 41
0.5
 72
     1
 11
41.180500000000002
 21
27.936800000000002
 31
0.0
  0
LINE
  5
248
  8
_________2
 62
     7
 10
183.55099999999999
 20
-4.0910799999999998
 30
0.0
 11
17.049499999999998
 21
-4.0910799999999998
 31
0.0
  0
LINE
  5
249
  8
_________2
 62
     7
 10
17.049499999999998
 20
-4.0910799999999998
 30
0.0
 11
17.049499999999998
 21
258.911
 31
0.0
  0
LINE
  5
24A
  8
_________2
 62
     7
 10
17.049499999999998
 20
258.911
 30
0.0
 11
183.55099999999999
 21
258.911
 31
0.0
  0
LINE
  5
24B
  8
_________2
 62
     7
 10
183.55099999999999
 20
258.911
 30
0.0
 11
183.55099999999999
 21
-4.0910799999999998
 31
0.0
  0
LINE
  5
24C
  8
_________2
 62
     7
 10
65.549199999999999
 20
9.4092999999999982
 30
0.0
 11
65.549199999999999
 21
35.909100000000002
 31
0.0
  0
LINE
  5
24D
  8
_________2
 62
     7
 10
84.549700000000016
 20
9.4092999999999982
 30
0.0
 11
84.549700000000016
 21
35.909100000000002
 31
0.0
  0
LINE
  5
24E
  8
_________2
 62
     7
 10
103.55
 20
-4.0910799999999998
 30
0.0
 11
103.55
 21
35.909100000000002
 31
0.0
  0
LINE
  5
24F
  8
_________2
 62
     7
 10
28.549299999999992
 20
9.4092999999999982
 30
0.0
 11
28.549299999999992
 21
23.409199999999998
 31
0.0
  0
LINE
  5
250
  8
_________2
 62
     7
 10
17.049499999999998
 20
9.4092999999999982
 30
0.0
 11
103.55
 21
9.4092999999999982
 31
0.0
  0
LINE
  5
251
  8
_________2
 62
     7
 10
17.049499999999998
 20
23.409199999999998
 30
0.0
 11
103.55
 21
23.409199999999998
 31
0.0
  0
LINE
  5
252
  8
_________2
 62
     7
 10
103.55
 20
15.9085
 30
0.0
 11
183.55099999999999
 21
15.9085
 31
0.0
  0
LINE
  5
253
  8
_________2
 62
     7
 10
17.049499999999998
 20
35.909100000000002
 30
0.0
 11
183.55099999999999
 21
35.909100000000002
 31
0.0
  0
ENDSEC
  0
EOF
