  0
SECTION
  2
HEADER
  9
$ACADVER
  1
AC1009
  9
$INSBASE
 10
0.0
 20
0.0
 30
0.0
  9
$EXTMIN
 10
-4.7006899999999989
 20
-21.070999999999991
 30
0.0
  9
$EXTMAX
 10
205.30099999999999
 20
275.93099999999993
 30
0.0
  9
$LIMMIN
 10
0.0
 20
0.0
  9
$LIMMAX
 10
12.0
 20
9.0
  9
$ORTHOMODE
 70
     0
  9
$REGENMODE
 70
     1
  9
$FILLMODE
 70
     1
  9
$QTEXTMODE
 70
     0
  9
$MIRRTEXT
 70
     1
  9
$DRAGMODE
 70
     2
  9
$LTSCALE
 40
1.0
  9
$OSMODE
 70
    37
  9
$ATTMODE
 70
     1
  9
$TEXTSIZE
 40
0.0
  9
$TRACEWID
 40
0.05
  9
$TEXTSTYLE
  7
STANDARD
  9
$CLAYER
  8
0
  9
$CELTYPE
  6
CONTINUOUS
  9
$CECOLOR
 62
   256
  9
$DIMSCALE
 40
1.0
  9
$DIMASZ
 40
0.18
  9
$DIMEXO
 40
0.0625
  9
$DIMDLI
 40
0.38
  9
$DIMRND
 40
0.0
  9
$DIMDLE
 40
0.0
  9
$DIMEXE
 40
0.18
  9
$DIMTP
 40
0.0
  9
$DIMTM
 40
0.0
  9
$DIMTXT
 40
0.18
  9
$DIMCEN
 40
0.09
  9
$DIMTSZ
 40
0.0
  9
$DIMTOL
 70
     0
  9
$DIMLIM
 70
     0
  9
$DIMTIH
 70
     1
  9
$DIMTOH
 70
     1
  9
$DIMSE1
 70
     0
  9
$DIMSE2
 70
     0
  9
$DIMTAD
 70
     0
  9
$DIMZIN
 70
     0
  9
$DIMBLK
  1

  9
$DIMASO
 70
     1
  9
$DIMSHO
 70
     1
  9
$DIMPOST
  1

  9
$DIMAPOST
  1

  9
$DIMALT
 70
     0
  9
$DIMALTD
 70
     2
  9
$DIMALTF
 40
25.399999999999999
  9
$DIMLFAC
 40
1.0
  9
$DIMTOFL
 70
     0
  9
$DIMTVP
 40
0.0
  9
$DIMTIX
 70
     0
  9
$DIMSOXD
 70
     0
  9
$DIMSAH
 70
     0
  9
$DIMBLK1
  1

  9
$DIMBLK2
  1

  9
$DIMSTYLE
  2
STANDARD
  9
$DIMCLRD
 70
     0
  9
$DIMCLRE
 70
     0
  9
$DIMCLRT
 70
     0
  9
$DIMTFAC
 40
1.0
  9
$DIMGAP
 40
0.09
  9
$LUNITS
 70
     2
  9
$LUPREC
 70
     4
  9
$SKETCHINC
 40
0.1
  9
$FILLETRAD
 40
0.0
  9
$AUNITS
 70
     0
  9
$AUPREC
 70
     0
  9
$MENU
  1
.
  9
$ELEVATION
 40
0.0
  9
$PELEVATION
 40
0.0
  9
$THICKNESS
 40
0.0
  9
$LIMCHECK
 70
     0
  9
$BLIPMODE
 70
     0
  9
$CHAMFERA
 40
0.0
  9
$CHAMFERB
 40
0.0
  9
$SKPOLY
 70
     0
  9
$TDCREATE
 40
2444972.375
  9
$TDUPDATE
 40
2456708.2484372682
  9
$TDINDWG
 40
0.0000049421
  9
$TDUSRTIMER
 40
0.0000049421
  9
$USRTIMER
 70
     1
  9
$ANGBASE
 50
0.0
  9
$ANGDIR
 70
     0
  9
$PDMODE
 70
     0
  9
$PDSIZE
 40
0.0
  9
$PLINEWID
 40
0.0
  9
$COORDS
 70
     1
  9
$SPLFRAME
 70
     0
  9
$SPLINETYPE
 70
     6
  9
$SPLINESEGS
 70
     8
  9
$ATTDIA
 70
     0
  9
$ATTREQ
 70
     1
  9
$HANDLING
 70
     1
  9
$HANDSEED
  5
FB
  9
$SURFTAB1
 70
     6
  9
$SURFTAB2
 70
     6
  9
$SURFTYPE
 70
     6
  9
$SURFU
 70
     6
  9
$SURFV
 70
     6
  9
$UCSNAME
  2

  9
$UCSORG
 10
0.0
 20
0.0
 30
0.0
  9
$UCSXDIR
 10
1.0
 20
0.0
 30
0.0
  9
$UCSYDIR
 10
0.0
 20
1.0
 30
0.0
  9
$PUCSNAME
  2

  9
$PUCSORG
 10
0.0
 20
0.0
 30
0.0
  9
$PUCSXDIR
 10
1.0
 20
0.0
 30
0.0
  9
$PUCSYDIR
 10
0.0
 20
1.0
 30
0.0
  9
$USERI1
 70
     0
  9
$USERI2
 70
     0
  9
$USERI3
 70
     0
  9
$USERI4
 70
     0
  9
$USERI5
 70
     0
  9
$USERR1
 40
0.0
  9
$USERR2
 40
0.0
  9
$USERR3
 40
0.0
  9
$USERR4
 40
0.0
  9
$USERR5
 40
0.0
  9
$WORLDVIEW
 70
     1
  9
$SHADEDGE
 70
     3
  9
$SHADEDIF
 70
    70
  9
$TILEMODE
 70
     1
  9
$MAXACTVP
 70
    48
  9
$PLIMCHECK
 70
     0
  9
$PEXTMIN
 10
1.0000000000000000E+020
 20
1.0000000000000000E+020
 30
1.0000000000000000E+020
  9
$PEXTMAX
 10
-1.0000000000000000E+020
 20
-1.0000000000000000E+020
 30
-1.0000000000000000E+020
  9
$PLIMMIN
 10
0.0
 20
0.0
  9
$PLIMMAX
 10
12.0
 20
9.0
  9
$UNITMODE
 70
     0
  9
$VISRETAIN
 70
     1
  9
$PLINEGEN
 70
     0
  9
$PSLTSCALE
 70
     1
  0
ENDSEC
  0
SECTION
  2
TABLES
  0
TABLE
  2
VPORT
 70
     2
  0
VPORT
  2
*ACTIVE
 70
     0
 10
0.0
 20
0.0
 11
1.0
 21
1.0
 12
202.006561769564
 22
127.42999999999989
 13
0.0
 23
0.0
 14
1.0
 24
1.0
 15
0.0
 25
0.0
 16
0.0
 26
0.0
 36
1.0
 17
0.0
 27
0.0
 37
0.0
 40
299.45318569463541
 41
2.2894736842105261
 42
50.0
 43
0.0
 44
0.0
 50
0.0
 51
0.0
 71
     0
 72
   100
 73
     1
 74
     1
 75
     0
 76
     0
 77
     0
 78
     0
  0
ENDTAB
  0
TABLE
  2
LTYPE
 70
     2
  0
LTYPE
  2
CONTINUOUS
 70
     0
  3
Solid line
 72
    65
 73
     0
 40
0.0
  0
LTYPE
  2
AIGENLINE001
 70
     0
  3
generate AI->DXF Converter
 72
    65
 73
     4
 40
5.8561449999999988
 49
3.5278
 49
-0.776115
 49
0.776115
 49
-0.776115
  0
ENDTAB
  0
TABLE
  2
LAYER
 70
     2
  0
LAYER
  2
0
 70
     0
 62
     7
  6
CONTINUOUS
  0
LAYER
  2
_________2
 70
     0
 62
     7
  6
CONTINUOUS
  0
ENDTAB
  0
TABLE
  2
STYLE
 70
     1
  0
STYLE
  2
STANDARD
 70
     0
 40
0.0
 41
0.0
 50
0.0
 71
     0
 42
0.0
  3
TXT
  4
EXTFONT.SHX
  0
ENDTAB
  0
TABLE
  2
VIEW
 70
     0
  0
ENDTAB
  0
TABLE
  2
UCS
 70
     0
  0
ENDTAB
  0
TABLE
  2
APPID
 70
     1
  0
APPID
  2
ACAD
 70
     0
  0
ENDTAB
  0
TABLE
  2
DIMSTYLE
 70
     1
  0
DIMSTYLE
  2
STANDARD
 70
     0
  3

  4

  5

  6

  7

 40
1.0
 41
0.18
 42
0.0625
 43
0.38
 44
0.18
 45
0.0
 46
0.0
 47
0.0
 48
0.0
140
0.18
141
0.09
142
0.0
143
25.399999999999999
144
1.0
145
0.0
146
1.0
147
0.09
 71
     0
 72
     0
 73
     1
 74
     1
 75
     0
 76
     0
 77
     0
 78
     0
170
     0
171
     2
172
     0
173
     0
174
     0
175
     0
176
     0
177
     0
178
     0
  0
ENDTAB
  0
ENDSEC
  0
SECTION
  2
BLOCKS
  0
BLOCK
  8
0
  2
$MODEL_SPACE
 70
     0
 10
0.0
 20
0.0
 30
0.0
  3
$MODEL_SPACE
  1

  0
ENDBLK
  5
1A
  8
0
  0
BLOCK
 67
     1
  8
0
  2
$PAPER_SPACE
 70
     0
 10
0.0
 20
0.0
 30
0.0
  3
$PAPER_SPACE
  1

  0
ENDBLK
  5
17
 67
     1
  8
0
  0
ENDSEC
  0
SECTION
  2
ENTITIES
  0
TEXT
  5
22
  8
0
 62
     7
 10
125.7349999999999
 20
166.87065416666661
 30
0.0
 40
3.3224300000000002
  1
24
 50
90.0
 41
0.5
 72
     1
 11
125.7349999999999
 21
168.25499999999991
 31
0.0
  0
TEXT
  5
23
  8
0
 62
     7
 10
97.750254166666679
 20
76.983199999999997
 30
0.0
 40
3.3224300000000002
  1
28
 41
0.5
 72
     1
 11
99.134600000000006
 21
76.983199999999997
 31
0.0
  0
TEXT
  5
24
  8
0
 62
     7
 10
118.785
 20
162.14252333333329
 30
0.0
 40
3.3224300000000002
  1
14
 50
90.0
 41
0.5
 72
     1
 11
118.785
 21
163.25
 31
0.0
  0
TEXT
  5
25
  8
0
 62
     7
 10
94.137568083333335
 20
190.154
 30
0.0
 40
3.3224300000000002
  1
W24山20
 41
0.5
 72
     1
 11
99.148899999999983
 21
190.154
 31
0.0
  0
TEXT
  5
26
  8
0
 62
     7
 10
106.2491739219145
 20
116.06788670701749
 30
0.0
 40
3.3248500000000001
  1
%%c30
 50
62.19230000000001
 41
0.5
 72
     2
 11
108.1879999999999
 21
119.744
 31
0.0
  0
TEXT
  5
27
  8
0
 62
     7
 10
96.264008333333351
 20
148.73099999999991
 30
0.0
 40
3.3224300000000002
  1
G1/2
 41
0.5
 72
     1
 11
99.032700000000006
 21
148.73099999999991
 31
0.0
  0
LINE
  5
28
  8
0
 62
     7
 10
125.8869999999999
 20
178.17899999999989
 30
0.0
 11
126.444
 21
180.25899999999999
 31
0.0
  0
LINE
  5
29
  8
0
 62
     7
 10
126.444
 20
180.25899999999999
 30
0.0
 11
127.002
 21
178.17899999999989
 31
0.0
  0
LINE
  5
2A
  8
0
 62
     7
 10
127.002
 20
178.17899999999989
 30
0.0
 11
125.8869999999999
 21
178.17899999999989
 31
0.0
  0
LINE
  5
2B
  8
0
 62
     7
 10
126.988
 20
158.33099999999999
 30
0.0
 11
126.431
 21
156.25
 31
0.0
  0
LINE
  5
2C
  8
0
 62
     7
 10
126.431
 20
156.25
 30
0.0
 11
125.87299999999991
 21
158.33099999999999
 31
0.0
  0
LINE
  5
2D
  8
0
 62
     7
 10
125.87299999999991
 20
158.33099999999999
 30
0.0
 11
126.988
 21
158.33099999999999
 31
0.0
  0
LINE
  5
2E
  8
0
 62
     7
 10
126.4379999999999
 20
178.86299999999989
 30
0.0
 11
126.431
 21
156.25
 31
0.0
  0
LINE
  5
2F
  8
0
 62
     7
 10
114.443
 20
170.33000000000001
 30
0.0
 11
120.1459999999999
 21
170.33000000000001
 31
0.0
  0
LINE
  5
30
  8
0
 62
     7
 10
114.002
 20
180.29900000000001
 30
0.0
 11
127.20099999999999
 21
180.29900000000001
 31
0.0
  0
LINE
  5
31
  8
0
 62
     7
 10
109.2389999999999
 20
156.23400000000001
 30
0.0
 11
127.0839999999999
 21
156.23400000000001
 31
0.0
  0
LINE
  5
32
  8
0
 62
     7
 10
118.93899999999989
 20
168.29099999999991
 30
0.0
 11
119.495
 21
170.3709999999999
 31
0.0
  0
LINE
  5
33
  8
0
 62
     7
 10
119.495
 20
170.3709999999999
 30
0.0
 11
120.053
 21
168.29099999999991
 31
0.0
  0
LINE
  5
34
  8
0
 62
     7
 10
120.053
 20
168.29099999999991
 30
0.0
 11
118.93899999999989
 21
168.29099999999991
 31
0.0
  0
LINE
  5
35
  8
0
 62
     7
 10
120.039
 20
158.33199999999999
 30
0.0
 11
119.482
 21
156.25200000000001
 31
0.0
  0
LINE
  5
36
  8
0
 62
     7
 10
119.482
 20
156.25200000000001
 30
0.0
 11
118.92399999999989
 21
158.33199999999999
 31
0.0
  0
LINE
  5
37
  8
0
 62
     7
 10
118.92399999999989
 20
158.33199999999999
 30
0.0
 11
120.039
 21
158.33199999999999
 31
0.0
  0
LINE
  5
38
  8
0
 62
     7
 10
119.4879999999999
 20
170.33000000000001
 30
0.0
 11
119.482
 21
156.12899999999991
 31
0.0
  0
LINE
  5
39
  8
0
 62
     7
 10
87.675799999999995
 20
180.98599999999999
 30
0.0
 11
87.675799999999995
 21
190.154
 31
0.0
  0
LINE
  5
3A
  8
0
 62
     7
 10
110.5929999999999
 20
180.94099999999989
 30
0.0
 11
110.5929999999999
 21
190.14699999999999
 31
0.0
  0
LINE
  5
3B
  8
0
 62
     7
 10
89.756299999999996
 20
188.8959999999999
 30
0.0
 11
87.675799999999995
 21
189.45400000000001
 31
0.0
  0
LINE
  5
3C
  8
0
 62
     7
 10
87.675799999999995
 20
189.45400000000001
 30
0.0
 11
89.756299999999996
 21
190.012
 31
0.0
  0
LINE
  5
3D
  8
0
 62
     7
 10
89.756299999999996
 20
190.012
 30
0.0
 11
89.756299999999996
 21
188.8959999999999
 31
0.0
  0
LINE
  5
3E
  8
0
 62
     7
 10
108.5409999999999
 20
190.01099999999991
 30
0.0
 11
110.622
 21
189.45400000000001
 31
0.0
  0
LINE
  5
3F
  8
0
 62
     7
 10
110.622
 20
189.45400000000001
 30
0.0
 11
108.5409999999999
 21
188.89500000000001
 31
0.0
  0
LINE
  5
40
  8
0
 62
     7
 10
108.5409999999999
 20
188.89500000000001
 30
0.0
 11
108.5409999999999
 21
190.01099999999991
 31
0.0
  0
LINE
  5
41
  8
0
 62
     7
 10
87.675799999999995
 20
189.45400000000001
 30
0.0
 11
110.622
 21
189.45400000000001
 31
0.0
  0
LINE
  5
42
  8
0
 62
     7
 10
92.669200000000004
 20
88.518199999999993
 30
0.0
 11
92.159300000000002
 21
86.287099999999995
 31
0.0
  0
LINE
  5
43
  8
0
 62
     7
 10
92.159300000000002
 20
86.287099999999995
 30
0.0
 11
93.716499999999996
 21
87.964200000000005
 31
0.0
  0
LINE
  5
44
  8
0
 62
     7
 10
93.716499999999996
 20
87.964200000000005
 30
0.0
 11
92.669200000000004
 21
88.518199999999993
 31
0.0
  0
LINE
  5
45
  8
0
 62
     7
 10
105.58199999999999
 20
110.3599999999999
 30
0.0
 11
106.092
 21
112.59099999999999
 31
0.0
  0
LINE
  5
46
  8
0
 62
     7
 10
106.092
 20
112.59099999999999
 30
0.0
 11
104.535
 21
110.9129999999999
 31
0.0
  0
LINE
  5
47
  8
0
 62
     7
 10
104.535
 20
110.9129999999999
 30
0.0
 11
105.58199999999999
 21
110.3599999999999
 31
0.0
  0
LINE
  5
48
  8
0
 62
     7
 10
92.159300000000002
 20
86.287099999999995
 30
0.0
 11
109.55799999999989
 21
119.1449999999999
 31
0.0
  0
LINE
  5
49
  8
0
 62
     7
 10
110.9909999999999
 20
75.732600000000005
 30
0.0
 11
113.0719999999999
 21
76.289699999999996
 31
0.0
  0
LINE
  5
4A
  8
0
 62
     7
 10
113.0719999999999
 20
76.289699999999996
 30
0.0
 11
110.9909999999999
 21
76.847800000000007
 31
0.0
  0
LINE
  5
4B
  8
0
 62
     7
 10
110.9909999999999
 20
76.847800000000007
 30
0.0
 11
110.9909999999999
 21
75.732600000000005
 31
0.0
  0
LINE
  5
4C
  8
0
 62
     7
 10
87.328900000000004
 20
76.833699999999993
 30
0.0
 11
85.248400000000004
 21
76.276600000000002
 31
0.0
  0
LINE
  5
4D
  8
0
 62
     7
 10
85.248400000000004
 20
76.276600000000002
 30
0.0
 11
87.328900000000004
 21
75.718500000000006
 31
0.0
  0
LINE
  5
4E
  8
0
 62
     7
 10
87.328900000000004
 20
75.718500000000006
 30
0.0
 11
87.328900000000004
 21
76.833699999999993
 31
0.0
  0
LINE
  5
4F
  8
0
 62
     7
 10
113.0719999999999
 20
76.283199999999994
 30
0.0
 11
85.248400000000004
 21
76.283199999999994
 31
0.0
  0
LINE
  5
50
  8
0
 62
     7
 10
109.81100000000001
 20
147.1999999999999
 30
0.0
 11
109.81100000000001
 21
156.559
 31
0.0
  0
LINE
  5
51
  8
0
 62
     7
 10
88.286299999999997
 20
156.20599999999999
 30
0.0
 11
88.286299999999997
 21
147.1999999999999
 31
0.0
  0
LINE
  5
52
  8
0
 62
     7
 10
90.486699999999985
 20
147.446
 30
0.0
 11
88.276300000000006
 21
148.0379999999999
 31
0.0
  0
LINE
  5
53
  8
0
 62
     7
 10
88.276300000000006
 20
148.0379999999999
 30
0.0
 11
90.486699999999985
 21
148.62999999999991
 31
0.0
  0
LINE
  5
54
  8
0
 62
     7
 10
90.486699999999985
 20
148.62999999999991
 30
0.0
 11
90.486699999999985
 21
147.446
 31
0.0
  0
LINE
  5
55
  8
0
 62
     7
 10
107.57899999999999
 20
148.61500000000001
 30
0.0
 11
109.789
 21
148.02299999999991
 31
0.0
  0
LINE
  5
56
  8
0
 62
     7
 10
109.789
 20
148.02299999999991
 30
0.0
 11
107.57899999999999
 21
147.43100000000001
 31
0.0
  0
LINE
  5
57
  8
0
 62
     7
 10
107.57899999999999
 20
147.43100000000001
 30
0.0
 11
107.57899999999999
 21
148.61500000000001
 31
0.0
  0
LINE
  5
58
  8
0
 62
     7
 10
88.276300000000006
 20
148.02999999999989
 30
0.0
 11
109.789
 21
148.02999999999989
 31
0.0
  0
LINE
  5
59
  8
0
 62
     7
 10
111.6789999999999
 20
170.2709999999999
 30
0.0
 11
113.79600000000001
 21
172.447
 31
0.0
  0
LINE
  5
5A
  8
0
 62
     7
 10
105.4049999999999
 20
164.21700000000001
 30
0.0
 11
108.1839999999999
 21
166.99700000000001
 31
0.0
  0
ARC
  5
5B
  8
0
 62
     7
 10
99.138069999999999
 20
99.432283000000012
 30
0.0
 40
14.000265000000001
 50
179.99996999999991
 51
270.00002000000001
  0
ARC
  5
5C
  8
0
 62
     7
 10
99.138075000000001
 20
99.432283000000012
 30
0.0
 40
14.00027
 50
90.0
 51
179.99996999999991
  0
ARC
  5
5D
  8
0
 62
     7
 10
99.137897999999993
 20
99.432455000000004
 30
0.0
 40
14.000097999999999
 50
359.99930499999999
 51
89.999274999999997
  0
ARC
  5
5E
  8
0
 62
     7
 10
99.137897999999993
 20
99.432116000000008
 30
0.0
 40
14.000097999999999
 50
270.00072499999999
 51
0.000695
  0
ARC
  5
5F
  8
0
 62
     7
 10
98.876483999999991
 20
99.819840999999997
 30
0.0
 40
15.389818999999999
 50
270.97393999999991
 51
337.94086399999998
  0
ARC
  5
60
  8
0
 62
     7
 10
99.40101300000002
 20
99.822254000000001
 30
0.0
 40
15.39225499999999
 50
202.08178100000001
 51
269.02120000000002
  0
LINE
  5
61
  8
0
 62
     7
 10
85.137799999999999
 20
94.035899999999984
 30
0.0
 11
85.138499999999993
 21
104.83
 31
0.0
  0
ARC
  5
62
  8
0
 62
     7
 10
99.400626000000003
 20
99.042866000000004
 30
0.0
 40
15.391698999999999
 50
90.977395000000016
 51
157.91266699999991
  0
ARC
  5
63
  8
0
 62
     7
 10
98.874550999999997
 20
99.041788999999994
 30
0.0
 40
15.392792999999999
 50
22.077535000000001
 51
89.019051999999988
  0
LINE
  5
64
  8
0
 62
     7
 10
113.1389999999999
 20
104.827
 30
0.0
 11
113.1399999999999
 21
94.040000000000006
 31
0.0
  0
ARC
  5
65
  8
0
 62
     7
 10
99.388825999999995
 20
99.157774000000003
 30
0.0
 40
6.8865819999999998
 50
92.11251
 51
177.8904379999999
  0
ARC
  5
66
  8
0
 62
     7
 10
99.389150000000015
 20
99.665091000000004
 30
0.0
 40
6.8869179999999988
 50
182.11215799999991
 51
267.88489299999998
  0
ARC
  5
67
  8
0
 62
     7
 10
98.881163000000001
 20
99.665794000000005
 30
0.0
 40
6.8876080000000002
 50
272.11183999999992
 51
357.88221399999998
  0
ARC
  5
68
  8
0
 62
     7
 10
98.881811999999996
 20
99.157394999999994
 30
0.0
 40
6.8869360000000004
 50
2.1125919999999989
 51
87.893353000000005
  0
ARC
  5
69
  8
0
 62
     7
 10
99.502548000000004
 20
99.044409999999999
 30
0.0
 40
9.9569299999999998
 50
92.115633999999986
 51
177.88845599999999
  0
ARC
  5
6A
  8
0
 62
     7
 10
99.503186000000014
 20
99.778768999999997
 30
0.0
 40
9.9575919999999982
 50
182.11508099999989
 51
267.88082900000001
  0
ARC
  5
6B
  8
0
 62
     7
 10
98.767430000000004
 20
99.779169999999993
 30
0.0
 40
9.957967
 50
272.11523699999998
 51
357.88271299999991
  0
ARC
  5
6C
  8
0
 62
     7
 10
98.767754999999994
 20
99.043695000000014
 30
0.0
 40
9.9576309999999992
 50
2.115491
 51
87.886559000000005
  0
ARC
  5
6D
  8
0
 62
     7
 10
99.539901999999984
 20
99.006341000000006
 30
0.0
 40
10.980295999999999
 50
92.113414000000006
 51
177.88655600000001
  0
ARC
  5
6E
  8
0
 62
     7
 10
99.540293999999989
 20
99.816593000000026
 30
0.0
 40
10.980703
 50
182.1154159999999
 51
267.884614
  0
ARC
  5
6F
  8
0
 62
     7
 10
98.729675000000015
 20
99.816925000000012
 30
0.0
 40
10.981033999999999
 50
272.11520799999988
 51
357.88293399999992
  0
ARC
  5
70
  8
0
 62
     7
 10
98.730391999999995
 20
99.006332999999998
 30
0.0
 40
10.980290999999999
 50
2.113465999999999
 51
87.88839200000001
  0
LINE
  5
71
  8
0
 62
     7
 10
105.32899999999999
 20
169.80099999999999
 30
0.0
 11
107.857
 21
172.38800000000001
 31
0.0
  0
LINE
  5
72
  8
0
 62
     7
 10
110.486
 20
177.79300000000001
 30
0.0
 11
112.855
 21
180.26599999999991
 31
0.0
  0
LINE
  5
73
  8
0
 62
     7
 10
110.55200000000001
 20
175.05699999999999
 30
0.0
 11
113.79600000000001
 21
178.209
 31
0.0
  0
LINE
  5
74
  8
0
 62
     7
 10
105.29000000000001
 20
166.82299999999989
 30
0.0
 11
113.68300000000001
 21
175.16200000000001
 31
0.0
  0
LINE
  5
75
  8
0
 62
     7
 10
105.4049999999999
 20
161.80600000000001
 30
0.0
 11
108.1839999999999
 21
164.5859999999999
 31
0.0
  0
LINE
  5
76
  8
0
 62
     7
 10
105.4049999999999
 20
158.90700000000001
 30
0.0
 11
108.1839999999999
 21
161.68700000000001
 31
0.0
  0
LINE
  5
77
  8
0
 62
     7
 10
105.7409999999999
 20
156.45400000000001
 30
0.0
 11
108.1839999999999
 21
158.976
 31
0.0
  0
LINE
  5
78
  8
0
 62
     7
 10
108.242
 20
169.80099999999999
 30
0.0
 11
108.242
 21
156.411
 31
0.0
  0
LINE
  5
79
  8
0
 62
     7
 10
109.661
 20
168.202
 30
0.0
 11
108.4739999999999
 21
168.202
 31
0.0
  0
LINE
  5
7A
  8
0
 62
     7
 10
99.092600000000004
 20
156.84399999999999
 30
0.0
 11
105.11499999999999
 21
156.84399999999999
 31
0.0
  0
LINE
  5
7B
  8
0
 62
     7
 10
105.11499999999999
 20
156.84399999999999
 30
0.0
 11
105.976
 21
156.27699999999999
 31
0.0
  0
LINE
  5
7C
  8
0
 62
     7
 10
105.288
 20
172.255
 30
0.0
 11
105.288
 21
156.77000000000001
 31
0.0
  0
LINE
  5
7D
  8
0
 62
     7
 10
110.905
 20
173.93499999999989
 30
0.0
 11
99.092600000000004
 21
173.93499999999989
 31
0.0
  0
LINE
  5
7E
  8
0
 62
     7
 10
99.092600000000004
 20
172.38800000000001
 30
0.0
 11
110.26899999999991
 21
172.38800000000001
 31
0.0
  0
LINE
  5
7F
  8
0
 62
     7
 10
110.26899999999991
 20
172.38800000000001
 30
0.0
 11
110.8479999999999
 21
172.83500000000001
 31
0.0
  0
LINE
  5
80
  8
0
 62
     7
 10
110.8479999999999
 20
172.83500000000001
 30
0.0
 11
110.8479999999999
 21
174.28200000000001
 31
0.0
  0
ARC
  5
81
  8
0
 62
     7
 10
110.1720169999999
 20
174.282377
 30
0.0
 40
0.676009
 50
359.99191200000001
 51
21.982423999999991
  0
ARC
  5
82
  8
0
 62
     7
 10
110.3050639999999
 20
174.32002399999999
 30
0.0
 40
0.538748
 50
23.566466999999999
 51
59.040486000000008
  0
ARC
  5
83
  8
0
 62
     7
 10
110.156347
 20
174.08848499999999
 30
0.0
 40
0.8138489999999999
 50
58.447763000000002
 51
80.117818999999997
  0
ARC
  5
84
  8
0
 62
     7
 10
110.00138799999991
 20
173.417867
 30
0.0
 40
1.5015810000000001
 50
78.684254999999993
 51
90.847885000000005
  0
ARC
  5
85
  8
0
 62
     7
 10
104.535882
 20
-62.440746999999988
 30
0.0
 40
237.42243699999989
 50
88.686278999999985
 51
91.313700999999995
  0
LINE
  5
86
  8
0
 62
     7
 10
109.515
 20
175.0929999999999
 30
0.0
 11
109.515
 21
178.09099999999989
 31
0.0
  0
LINE
  5
87
  8
0
 62
     7
 10
99.092600000000004
 20
178.97099999999989
 30
0.0
 11
110.45699999999999
 21
178.97099999999989
 31
0.0
  0
LINE
  5
88
  8
0
 62
     7
 10
110.45699999999999
 20
178.97099999999989
 30
0.0
 11
110.45699999999999
 21
174.84700000000001
 31
0.0
  0
LINE
  5
89
  8
0
 62
     7
 10
110.67400000000001
 20
180.11199999999999
 30
0.0
 11
110.67400000000001
 21
178.95400000000001
 31
0.0
  0
LINE
  5
8A
  8
0
 62
     7
 10
110.67400000000001
 20
178.95400000000001
 30
0.0
 11
109.515
 21
178.32299999999989
 31
0.0
  0
LINE
  5
8B
  8
0
 62
     7
 10
109.515
 20
178.32299999999989
 30
0.0
 11
99.092600000000004
 21
178.32299999999989
 31
0.0
  0
LINE
  5
8C
  8
0
 62
     7
 10
84.209999999999994
 20
179.476
 30
0.0
 11
92.491399999999999
 21
179.476
 31
0.0
  0
LINE
  5
8D
  8
0
 62
     7
 10
92.491399999999999
 20
171.44499999999999
 30
0.0
 11
92.491399999999999
 21
179.30199999999999
 31
0.0
  0
LINE
  5
8E
  8
0
 62
     7
 10
92.491399999999999
 20
179.30199999999999
 30
0.0
 11
93.243799999999993
 21
180.22799999999989
 31
0.0
  0
LINE
  5
8F
  8
0
 62
     7
 10
84.094999999999985
 20
171.44499999999999
 30
0.0
 11
92.491399999999999
 21
171.44499999999999
 31
0.0
  0
LINE
  5
90
  8
0
 62
     7
 10
92.491399999999999
 20
171.44499999999999
 30
0.0
 11
93.475700000000003
 21
170.345
 31
0.0
  0
LINE
  5
91
  8
0
 62
     7
 10
99.092600000000004
 20
170.36000000000001
 30
0.0
 11
85.774100000000004
 21
170.36000000000001
 31
0.0
  0
LINE
  5
92
  8
0
 62
     7
 10
85.774100000000004
 20
170.36000000000001
 30
0.0
 11
84.094999999999985
 21
171.44499999999999
 31
0.0
  0
LINE
  5
93
  8
0
 62
     7
 10
84.094999999999985
 20
171.44499999999999
 30
0.0
 11
84.094999999999985
 21
179.822
 31
0.0
  0
LINE
  5
94
  8
0
 62
     7
 10
84.094999999999985
 20
179.822
 30
0.0
 11
85.0792
 21
180.28599999999989
 31
0.0
  0
LINE
  5
95
  8
0
 62
     7
 10
85.0792
 20
180.28599999999989
 30
0.0
 11
112.932
 21
180.28599999999989
 31
0.0
  0
LINE
  5
96
  8
0
 62
     7
 10
112.932
 20
180.28599999999989
 30
0.0
 11
113.8589999999999
 21
179.417
 31
0.0
  0
LINE
  5
97
  8
0
 62
     7
 10
113.8589999999999
 20
179.417
 30
0.0
 11
113.8589999999999
 21
171.155
 31
0.0
  0
ARC
  5
98
  8
0
 62
     7
 10
113.16938399999999
 20
171.52810299999999
 30
0.0
 40
0.784058
 50
326.26393100000001
 51
331.59684499999997
  0
ARC
  5
99
  8
0
 62
     7
 10
112.25788
 20
172.11085399999999
 30
0.0
 40
1.865834999999999
 50
294.05857500000002
 51
326.92728899999997
  0
ARC
  5
9A
  8
0
 62
     7
 10
112.41738599999999
 20
171.842085
 30
0.0
 40
1.5558069999999991
 50
269.780326
 51
292.72972499999992
  0
ARC
  5
9B
  8
0
 62
     7
 10
110.634084
 20
-71.879664000000005
 30
0.0
 40
242.17247599999999
 50
89.579484999999977
 51
90.420494999999988
  0
LINE
  5
9C
  8
0
 62
     7
 10
113.13500000000001
 20
92.409800000000004
 30
0.0
 11
113.13500000000001
 21
75.652699999999996
 31
0.0
  0
LINE
  5
9D
  8
0
 62
     7
 10
85.134699999999995
 20
90.557699999999997
 30
0.0
 11
85.134699999999995
 21
75.417400000000001
 31
0.0
  0
LINE
  5
9E
  8
0
  6
AIGENLINE001
 62
     7
 10
99.134600000000006
 20
115.98699999999999
 30
0.0
 11
99.134600000000006
 21
82.884699999999995
 31
0.0
  0
LINE
  5
9F
  8
0
  6
AIGENLINE001
 62
     7
 10
82.599400000000003
 20
99.427499999999995
 30
0.0
 11
115.467
 21
99.427499999999995
 31
0.0
  0
LINE
  5
A0
  8
0
  6
AIGENLINE001
 62
     7
 10
99.134600000000006
 20
182.02999999999989
 30
0.0
 11
99.134600000000006
 21
154.74899999999991
 31
0.0
  0
LINE
  5
A1
  8
0
 62
     7
 10
99.061599999999984
 20
168.06099999999989
 30
0.0
 11
88.434100000000001
 21
168.06099999999989
 31
0.0
  0
LINE
  5
A2
  8
0
 62
     7
 10
89.664000000000001
 20
156.286
 30
0.0
 11
89.664000000000001
 21
168.238
 31
0.0
  0
LINE
  5
A3
  8
0
 62
     7
 10
89.664000000000001
 20
168.238
 30
0.0
 11
88.448899999999995
 21
170.084
 31
0.0
  0
LINE
  5
A4
  8
0
 62
     7
 10
88.471000000000004
 20
157.48400000000001
 30
0.0
 11
99.092600000000004
 21
157.48400000000001
 31
0.0
  0
LINE
  5
A5
  8
0
 62
     7
 10
89.664000000000001
 20
156.286
 30
0.0
 11
99.092600000000004
 21
156.286
 31
0.0
  0
LINE
  5
A6
  8
0
 62
     7
 10
89.480699999999985
 20
156.286
 30
0.0
 11
88.286600000000007
 21
157.48400000000001
 31
0.0
  0
LINE
  5
A7
  8
0
 62
     7
 10
108.5629999999999
 20
156.286
 30
0.0
 11
109.76000000000001
 21
157.48400000000001
 31
0.0
  0
LINE
  5
A8
  8
0
 62
     7
 10
109.76000000000001
 20
157.48400000000001
 30
0.0
 11
109.76000000000001
 21
170.28599999999989
 31
0.0
  0
LINE
  5
A9
  8
0
 62
     7
 10
88.286600000000007
 20
157.48400000000001
 30
0.0
 11
88.286600000000007
 21
170.38900000000001
 31
0.0
  0
LINE
  5
AA
  8
0
 62
     7
 10
89.664000000000001
 20
156.286
 30
0.0
 11
108.5629999999999
 21
156.286
 31
0.0
  0
LINE
  5
AB
  8
_________2
 62
     7
 10
205.30099999999999
 20
127.411
 30
0.0
 11
183.55000000000001
 21
127.411
 31
0.0
  0
LINE
  5
AC
  8
_________2
 62
     7
 10
100.2999999999999
 20
-4.0910799999999998
 30
0.0
 11
100.2999999999999
 21
-21.070999999999991
 31
0.0
  0
LINE
  5
AD
  8
_________2
 62
     7
 10
100.2999999999999
 20
275.93099999999993
 30
0.0
 11
100.2999999999999
 21
258.911
 31
0.0
  0
LINE
  5
AE
  8
_________2
 62
     7
 10
17.049399999999991
 20
127.411
 30
0.0
 11
-4.7006899999999989
 21
127.411
 31
0.0
  0
LINE
  5
AF
  8
_________2
 62
     7
 10
76.740799999999993
 20
29.8047
 30
0.0
 11
74.554599999999994
 21
29.8047
 31
0.0
  0
LINE
  5
B0
  8
_________2
 62
     7
 10
77.233500000000006
 20
29.8047
 30
0.0
 11
76.981300000000005
 21
29.8047
 31
0.0
  0
LINE
  5
B1
  8
_________2
 62
     7
 10
77.726200000000006
 20
29.8047
 30
0.0
 11
80.6511
 21
29.8047
 31
0.0
  0
LINE
  5
B2
  8
_________2
 62
     7
 10
77.233500000000006
 20
29.8047
 30
0.0
 11
77.485299999999995
 21
29.8047
 31
0.0
  0
LINE
  5
B3
  8
_________2
 62
     7
 10
70.837000000000003
 20
29.8047
 30
0.0
 11
68.650300000000001
 21
29.8047
 31
0.0
  0
LINE
  5
B4
  8
_________2
 62
     7
 10
71.329300000000003
 20
29.8047
 30
0.0
 11
71.077399999999983
 21
29.8047
 31
0.0
  0
LINE
  5
B5
  8
_________2
 62
     7
 10
71.329300000000003
 20
30.2974
 30
0.0
 11
71.329300000000003
 21
32.484400000000001
 31
0.0
  0
LINE
  5
B6
  8
_________2
 62
     7
 10
71.329300000000003
 20
29.8047
 30
0.0
 11
71.329300000000003
 21
30.057300000000001
 31
0.0
  0
LINE
  5
B7
  8
_________2
 62
     7
 10
71.821899999999999
 20
29.8047
 30
0.0
 11
74.008899999999997
 21
29.8047
 31
0.0
  0
LINE
  5
B8
  8
_________2
 62
     7
 10
71.329300000000003
 20
29.8047
 30
0.0
 11
71.581400000000002
 21
29.8047
 31
0.0
  0
LINE
  5
B9
  8
_________2
 62
     7
 10
71.329300000000003
 20
29.312799999999999
 30
0.0
 11
71.329300000000003
 21
27.126200000000001
 31
0.0
  0
LINE
  5
BA
  8
_________2
 62
     7
 10
71.329300000000003
 20
29.8047
 30
0.0
 11
71.329300000000003
 21
29.5532
 31
0.0
  0
LINE
  5
BB
  8
_________2
 62
     7
 10
75.040300000000002
 20
28.5852
 30
0.0
 11
80.218299999999985
 21
27.720400000000001
 31
0.0
  0
LINE
  5
BC
  8
_________2
 62
     7
 10
75.040300000000002
 20
31.024699999999999
 30
0.0
 11
80.218299999999985
 21
31.8901
 31
0.0
  0
LINE
  5
BD
  8
_________2
 62
     7
 10
80.218299999999985
 20
27.720400000000001
 30
0.0
 11
80.218299999999985
 21
31.8901
 31
0.0
  0
LINE
  5
BE
  8
_________2
 62
     7
 10
75.040300000000002
 20
28.5852
 30
0.0
 11
75.040300000000002
 21
31.024699999999999
 31
0.0
  0
ARC
  5
BF
  8
_________2
 62
     7
 10
71.282340000000005
 20
29.757825
 30
0.0
 40
1.2677020000000001
 50
2.1210029999999991
 51
87.878986999999995
  0
ARC
  5
C0
  8
_________2
 62
     7
 10
71.375812999999994
 20
29.758545999999999
 30
0.0
 40
1.2669680000000001
 50
92.105782999999988
 51
177.91037
  0
ARC
  5
C1
  8
_________2
 62
     7
 10
71.376186000000004
 20
29.851671
 30
0.0
 40
1.2673680000000001
 50
182.12203600000001
 51
267.877993
  0
ARC
  5
C2
  8
_________2
 62
     7
 10
71.282359999999997
 20
29.851998999999989
 30
0.0
 40
1.267695999999999
 50
272.12015300000002
 51
357.863674
  0
ARC
  5
C3
  8
_________2
 62
     7
 10
71.248890000000003
 20
29.724731999999989
 30
0.0
 40
2.1668310000000002
 50
2.1161439999999989
 51
87.874379000000005
  0
ARC
  5
C4
  8
_________2
 62
     7
 10
71.408918999999983
 20
29.725798000000001
 30
0.0
 40
2.1657399999999991
 50
92.107930000000025
 51
177.91097500000001
  0
ARC
  5
C5
  8
_________2
 62
     7
 10
71.408934000000002
 20
29.884775999999999
 30
0.0
 40
2.1657950000000001
 50
182.11776599999999
 51
267.89173399999999
  0
ARC
  5
C6
  8
_________2
 62
     7
 10
71.249286999999995
 20
29.885429999999989
 30
0.0
 40
2.1664590000000001
 50
272.11546800000002
 51
357.86560400000002
  0
TEXT
  5
C7
  8
_________2
 62
     7
 10
104.604
 20
1.6794899999999999
 30
0.0
 40
3.0923400000000001
  1
図番
 41
0.5
  0
LINE
  5
C8
  8
_________2
 62
     7
 10
103.55
 20
5.9087199999999989
 30
0.0
 11
183.55099999999999
 21
5.9087199999999989
 31
0.0
  0
TEXT
  5
C9
  8
_________2
 62
     7
 10
104.604
 20
11.679299999999991
 30
0.0
 40
3.0923400000000001
  1
品番
 41
0.5
  0
TEXT
  5
CA
  8
_________2
 62
     7
 10
104.604
 20
31.8184
 30
0.0
 40
3.0923400000000001
  1
名称
 41
0.5
  0
TEXT
  5
CB
  8
_________2
 62
     7
 10
91.844958333333338
 20
26.822299999999998
 30
0.0
 40
3.6545800000000002
  1
mm
 41
0.5
 72
     1
 11
93.367699999999985
 21
26.822299999999998
 31
0.0
  0
TEXT
  5
CC
  8
_________2
 62
     7
 10
85.642999999999986
 20
31.8184
 30
0.0
 40
3.0923400000000001
  1
単位
 41
0.5
  0
TEXT
  5
CD
  8
_________2
 62
     7
 10
85.642999999999986
 20
19.410799999999991
 30
0.0
 40
3.0923400000000001
  1
尺度
 41
0.5
  0
TEXT
  5
CE
  8
_________2
 62
     7
 10
90.853106999999994
 20
13.218199999999991
 30
0.0
 40
3.6545800000000002
  1
1 ： 1
 41
0.5
 72
     1
 11
93.959500000000006
 21
13.218199999999991
 31
0.0
  0
TEXT
  5
CF
  8
_________2
 62
     7
 10
137.4824625
 20
9.1082000000000001
 30
0.0
 40
3.9357000000000002
  1
CET7051
 41
0.5
 72
     1
 11
143.55000000000001
 21
9.1082000000000001
 31
0.0
  0
TEXT
  5
D0
  8
_________2
 62
     7
 10
137.4824625
 20
-0.8926299999999999
 30
0.0
 40
3.9357000000000002
  1
CET7051
 41
0.5
 72
     1
 11
143.55000000000001
 21
-0.8926299999999999
 31
0.0
  0
TEXT
  5
D1
  8
_________2
 62
     7
 10
109.179
 20
24.226099999999999
 30
0.0
 40
3.9357000000000002
  1
TOTOシャワーバス水栓用アダプター
 41
0.5
  0
TEXT
  5
D2
  8
_________2
 62
     7
 10
109.179
 20
19.3064
 30
0.0
 40
3.9357000000000002
  1
（ハンスグローエ・グローエ・KWC製シャワーホース用）
 41
0.5
  0
TEXT
  5
D3
  8
_________2
 62
     7
 10
39.425100333333333
 20
13.603400000000001
 30
0.0
 40
3.6545800000000002
  1
早川
 41
0.5
 72
     1
 11
41.313299999999998
 21
13.603400000000001
 31
0.0
  0
TEXT
  5
D4
  8
_________2
 62
     7
 10
20.789890666666661
 20
13.603400000000001
 30
0.0
 40
3.6545800000000002
  1
石原
 41
0.5
 72
     1
 11
22.739000000000001
 21
13.603400000000001
 31
0.0
  0
TEXT
  5
D5
  8
_________2
 62
     7
 10
67.785300000000007
 20
13.218199999999991
 30
0.0
 40
3.6545800000000002
  1
14.02.17
 41
0.5
  0
TEXT
  5
D6
  8
_________2
 62
     7
 10
66.5929
 20
19.410799999999991
 30
0.0
 40
3.0923400000000001
  1
日付
 41
0.5
  0
TEXT
  5
D7
  8
_________2
 62
     7
 10
29.639199999999992
 20
19.410799999999991
 30
0.0
 40
3.0923400000000001
  1
検図
 41
0.5
  0
TEXT
  5
D8
  8
_________2
 62
     7
 10
18.020900000000001
 20
5.21143
 30
0.0
 40
3.0923400000000001
  1
備考
 41
0.5
  0
TEXT
  5
D9
  8
_________2
 62
     7
 10
18.020900000000001
 20
19.410799999999991
 30
0.0
 40
3.0923400000000001
  1
製図
 41
0.5
  0
TEXT
  5
DA
  8
_________2
 62
     7
 10
23.788265333333339
 20
27.936800000000002
 30
0.0
 40
4.4979399999999989
  1
セラトレーディング株式会社
 41
0.5
 72
     1
 11
41.180300000000003
 21
27.936800000000002
 31
0.0
  0
LINE
  5
DB
  8
_________2
 62
     7
 10
183.55099999999999
 20
-4.0910799999999998
 30
0.0
 11
17.049399999999991
 21
-4.0910799999999998
 31
0.0
  0
LINE
  5
DC
  8
_________2
 62
     7
 10
17.049399999999991
 20
-4.0910799999999998
 30
0.0
 11
17.049399999999991
 21
258.911
 31
0.0
  0
LINE
  5
DD
  8
_________2
 62
     7
 10
17.049399999999991
 20
258.911
 30
0.0
 11
183.55099999999999
 21
258.911
 31
0.0
  0
LINE
  5
DE
  8
_________2
 62
     7
 10
183.55099999999999
 20
258.911
 30
0.0
 11
183.55099999999999
 21
-4.0910799999999998
 31
0.0
  0
LINE
  5
DF
  8
_________2
 62
     7
 10
65.549400000000006
 20
9.4092999999999982
 30
0.0
 11
65.549400000000006
 21
35.909100000000002
 31
0.0
  0
LINE
  5
E0
  8
_________2
 62
     7
 10
84.549599999999984
 20
9.4092999999999982
 30
0.0
 11
84.549599999999984
 21
35.909100000000002
 31
0.0
  0
LINE
  5
E1
  8
_________2
 62
     7
 10
103.55
 20
-4.0910799999999998
 30
0.0
 11
103.55
 21
35.909100000000002
 31
0.0
  0
LINE
  5
E2
  8
_________2
 62
     7
 10
28.549199999999988
 20
9.4092999999999982
 30
0.0
 11
28.549199999999988
 21
23.409199999999998
 31
0.0
  0
LINE
  5
E3
  8
_________2
 62
     7
 10
17.049399999999991
 20
9.4092999999999982
 30
0.0
 11
103.55
 21
9.4092999999999982
 31
0.0
  0
LINE
  5
E4
  8
_________2
 62
     7
 10
17.049399999999991
 20
23.409199999999998
 30
0.0
 11
103.55
 21
23.409199999999998
 31
0.0
  0
LINE
  5
E5
  8
_________2
 62
     7
 10
103.55
 20
15.9085
 30
0.0
 11
183.55099999999999
 21
15.9085
 31
0.0
  0
LINE
  5
E6
  8
_________2
 62
     7
 10
17.049399999999991
 20
35.909100000000002
 30
0.0
 11
183.55099999999999
 21
35.909100000000002
 31
0.0
  0
ENDSEC
  0
EOF
