  0
SECTION
  2
HEADER
  9
$ACADVER
  1
AC1009
  9
$INSBASE
 10
0.0
 20
0.0
 30
0.0
  9
$EXTMIN
 10
-4.70052
 20
-21.070900000000002
 30
0.0
  9
$EXTMAX
 10
205.30099999999999
 20
275.93099999999993
 30
0.0
  9
$LIMMIN
 10
0.0
 20
0.0
  9
$LIMMAX
 10
12.0
 20
9.0
  9
$ORTHOMODE
 70
     0
  9
$REGENMODE
 70
     1
  9
$FILLMODE
 70
     1
  9
$QTEXTMODE
 70
     0
  9
$MIRRTEXT
 70
     1
  9
$DRAGMODE
 70
     2
  9
$LTSCALE
 40
1.0
  9
$OSMODE
 70
    37
  9
$ATTMODE
 70
     1
  9
$TEXTSIZE
 40
0.0
  9
$TRACEWID
 40
0.05
  9
$TEXTSTYLE
  7
STANDARD
  9
$CLAYER
  8
0
  9
$CELTYPE
  6
CONTINUOUS
  9
$CECOLOR
 62
   256
  9
$DIMSCALE
 40
1.0
  9
$DIMASZ
 40
0.18
  9
$DIMEXO
 40
0.0625
  9
$DIMDLI
 40
0.38
  9
$DIMRND
 40
0.0
  9
$DIMDLE
 40
0.0
  9
$DIMEXE
 40
0.18
  9
$DIMTP
 40
0.0
  9
$DIMTM
 40
0.0
  9
$DIMTXT
 40
0.18
  9
$DIMCEN
 40
0.09
  9
$DIMTSZ
 40
0.0
  9
$DIMTOL
 70
     0
  9
$DIMLIM
 70
     0
  9
$DIMTIH
 70
     1
  9
$DIMTOH
 70
     1
  9
$DIMSE1
 70
     0
  9
$DIMSE2
 70
     0
  9
$DIMTAD
 70
     0
  9
$DIMZIN
 70
     0
  9
$DIMBLK
  1

  9
$DIMASO
 70
     1
  9
$DIMSHO
 70
     1
  9
$DIMPOST
  1

  9
$DIMAPOST
  1

  9
$DIMALT
 70
     0
  9
$DIMALTD
 70
     2
  9
$DIMALTF
 40
25.399999999999999
  9
$DIMLFAC
 40
1.0
  9
$DIMTOFL
 70
     0
  9
$DIMTVP
 40
0.0
  9
$DIMTIX
 70
     0
  9
$DIMSOXD
 70
     0
  9
$DIMSAH
 70
     0
  9
$DIMBLK1
  1

  9
$DIMBLK2
  1

  9
$DIMSTYLE
  2
STANDARD
  9
$DIMCLRD
 70
     0
  9
$DIMCLRE
 70
     0
  9
$DIMCLRT
 70
     0
  9
$DIMTFAC
 40
1.0
  9
$DIMGAP
 40
0.09
  9
$LUNITS
 70
     2
  9
$LUPREC
 70
     4
  9
$SKETCHINC
 40
0.1
  9
$FILLETRAD
 40
0.0
  9
$AUNITS
 70
     0
  9
$AUPREC
 70
     0
  9
$MENU
  1
.
  9
$ELEVATION
 40
0.0
  9
$PELEVATION
 40
0.0
  9
$THICKNESS
 40
0.0
  9
$LIMCHECK
 70
     0
  9
$BLIPMODE
 70
     0
  9
$CHAMFERA
 40
0.0
  9
$CHAMFERB
 40
0.0
  9
$SKPOLY
 70
     0
  9
$TDCREATE
 40
2444972.375
  9
$TDUPDATE
 40
2453622.2529618749
  9
$TDINDWG
 40
0.0001015046
  9
$TDUSRTIMER
 40
0.0001015046
  9
$USRTIMER
 70
     1
  9
$ANGBASE
 50
0.0
  9
$ANGDIR
 70
     0
  9
$PDMODE
 70
     0
  9
$PDSIZE
 40
0.0
  9
$PLINEWID
 40
0.0
  9
$COORDS
 70
     1
  9
$SPLFRAME
 70
     0
  9
$SPLINETYPE
 70
     6
  9
$SPLINESEGS
 70
     8
  9
$ATTDIA
 70
     0
  9
$ATTREQ
 70
     1
  9
$HANDLING
 70
 22529
  9
$HANDSEED
  5
154
  9
$SURFTAB1
 70
     6
  9
$SURFTAB2
 70
     6
  9
$SURFTYPE
 70
     6
  9
$SURFU
 70
     6
  9
$SURFV
 70
     6
  9
$UCSNAME
  2

  9
$UCSORG
 10
0.0
 20
0.0
 30
0.0
  9
$UCSXDIR
 10
1.0
 20
0.0
 30
0.0
  9
$UCSYDIR
 10
0.0
 20
1.0
 30
0.0
  9
$PUCSNAME
  2

  9
$PUCSORG
 10
0.0
 20
0.0
 30
0.0
  9
$PUCSXDIR
 10
1.0
 20
0.0
 30
0.0
  9
$PUCSYDIR
 10
0.0
 20
1.0
 30
0.0
  9
$USERI1
 70
     0
  9
$USERI2
 70
     0
  9
$USERI3
 70
     0
  9
$USERI4
 70
     0
  9
$USERI5
 70
     0
  9
$USERR1
 40
0.0
  9
$USERR2
 40
0.0
  9
$USERR3
 40
0.0
  9
$USERR4
 40
0.0
  9
$USERR5
 40
0.0
  9
$WORLDVIEW
 70
     1
  9
$SHADEDGE
 70
     3
  9
$SHADEDIF
 70
    70
  9
$TILEMODE
 70
     1
  9
$MAXACTVP
 70
    48
  9
$PLIMCHECK
 70
     0
  9
$PEXTMIN
 10
1.0000000000000000E+020
 20
1.0000000000000000E+020
 30
1.0000000000000000E+020
  9
$PEXTMAX
 10
-1.0000000000000000E+020
 20
-1.0000000000000000E+020
 30
-1.0000000000000000E+020
  9
$PLIMMIN
 10
0.0
 20
0.0
  9
$PLIMMAX
 10
12.0
 20
9.0
  9
$UNITMODE
 70
     0
  9
$VISRETAIN
 70
     1
  9
$PLINEGEN
 70
     0
  9
$PSLTSCALE
 70
     1
  0
ENDSEC
  0
SECTION
  2
TABLES
  0
TABLE
  2
VPORT
 70
     2
  0
VPORT
  2
*ACTIVE
 70
     0
 10
0.0
 20
0.0
 11
1.0
 21
1.0
 12
200.17533677571029
 22
127.43004999999989
 13
0.0
 23
0.0
 14
1.0
 24
1.0
 15
0.0
 25
0.0
 16
0.0
 26
0.0
 36
1.0
 17
0.0
 27
0.0
 37
0.0
 40
299.1857374999999
 41
2.1842105263157889
 42
50.0
 43
0.0
 44
0.0
 50
0.0
 51
0.0
 71
     0
 72
   100
 73
     1
 74
     1
 75
     0
 76
     0
 77
     0
 78
     0
  0
ENDTAB
  0
TABLE
  2
LTYPE
 70
     2
  0
LTYPE
  2
CONTINUOUS
 70
     0
  3
Solid line
 72
    65
 73
     0
 40
0.0
  0
LTYPE
  2
AIGENLINE001
 70
     0
  3
generate AI->DXF Converter
 72
    65
 73
     4
 40
5.8561449999999988
 49
3.5278
 49
-0.776115
 49
0.776115
 49
-0.776115
  0
ENDTAB
  0
TABLE
  2
LAYER
 70
     2
  0
LAYER
  2
0
 70
     0
 62
     7
  6
CONTINUOUS
  0
LAYER
  2
_________2
 70
     0
 62
     7
  6
CONTINUOUS
  0
ENDTAB
  0
TABLE
  2
STYLE
 70
     1
  0
STYLE
  2
STANDARD
 70
     0
 40
0.0
 41
0.0
 50
0.0
 71
     0
 42
0.0
  3
TXT
  4
EXTFONT.SHX
  0
ENDTAB
  0
TABLE
  2
VIEW
 70
     0
  0
ENDTAB
  0
TABLE
  2
UCS
 70
     0
  0
ENDTAB
  0
TABLE
  2
APPID
 70
     1
  0
APPID
  2
ACAD
 70
     0
  0
ENDTAB
  0
TABLE
  2
DIMSTYLE
 70
     1
  0
DIMSTYLE
  2
STANDARD
 70
     0
  3

  4

  5

  6

  7

 40
1.0
 41
0.18
 42
0.0625
 43
0.38
 44
0.18
 45
0.0
 46
0.0
 47
0.0
 48
0.0
140
0.18
141
0.09
142
0.0
143
25.399999999999999
144
1.0
145
0.0
146
1.0
147
0.09
 71
     0
 72
     0
 73
     1
 74
     1
 75
     0
 76
     0
 77
     0
 78
     0
170
     0
171
     2
172
     0
173
     0
174
     0
175
     0
176
     0
177
     0
178
     0
  0
ENDTAB
  0
ENDSEC
  0
SECTION
  2
BLOCKS
  0
BLOCK
  8
0
  2
$MODEL_SPACE
 70
     0
 10
0.0
 20
0.0
 30
0.0
  3
$MODEL_SPACE
  1

  0
ENDBLK
  5
1A
  8
0
  0
BLOCK
 67
     1
  8
0
  2
$PAPER_SPACE
 70
     0
 10
0.0
 20
0.0
 30
0.0
  3
$PAPER_SPACE
  1

  0
ENDBLK
  5
17
 67
     1
  8
0
  0
ENDSEC
  0
SECTION
  2
ENTITIES
  0
LINE
  5
22
  8
0
 62
     7
 10
100.55
 20
110.277
 30
0.0
 11
102.801
 21
110.6879999999999
 31
0.0
  0
LINE
  5
23
  8
0
 62
     7
 10
102.801
 20
110.6879999999999
 30
0.0
 11
100.645
 21
111.45699999999999
 31
0.0
  0
LINE
  5
24
  8
0
 62
     7
 10
100.645
 20
111.45699999999999
 30
0.0
 11
100.55
 21
110.277
 31
0.0
  0
LINE
  5
25
  8
0
 62
     7
 10
112.24799999999991
 20
112.94199999999999
 30
0.0
 11
110.318
 21
111.71299999999989
 31
0.0
  0
LINE
  5
26
  8
0
 62
     7
 10
110.318
 20
111.71299999999989
 30
0.0
 11
112.6039999999999
 21
111.8129999999999
 31
0.0
  0
LINE
  5
27
  8
0
 62
     7
 10
112.6039999999999
 20
111.8129999999999
 30
0.0
 11
112.24799999999991
 21
112.94199999999999
 31
0.0
  0
ARC
  5
28
  8
0
 62
     7
 10
102.71816
 20
138.95800299999991
 30
0.0
 40
28.262277000000001
 50
270.07699500000001
 51
305.26770299999993
  0
ARC
  5
29
  8
0
 62
     7
 10
102.76628100000001
 20
139.03308699999999
 30
0.0
 40
28.337336999999991
 50
251.40707199999991
 51
269.97949399999987
  0
TEXT
  5
2A
  8
0
 62
     7
 10
95.018699999999995
 20
112.729
 30
0.0
 40
3.0923400000000001
  1
15%%d
 41
0.5
  0
TEXT
  5
2B
  8
0
 62
     7
 10
88.972000000000008
 20
173.9309999999999
 30
0.0
 40
3.0923400000000001
  1
G1/2
 50
15.253199999999991
 41
0.5
  0
TEXT
  5
2C
  8
0
 62
     7
 10
98.212500000000006
 20
100.47499999999999
 30
0.0
 40
3.0923400000000001
  1
G1/2
 41
0.5
  0
LINE
  5
2D
  8
0
 62
     7
 10
101.87
 20
180.28399999999999
 30
0.0
 11
105.577
 21
166.50899999999999
 31
0.0
  0
LINE
  5
2E
  8
0
 62
     7
 10
113.3809999999999
 20
120.42399999999989
 30
0.0
 11
113.3809999999999
 21
97.947599999999994
 31
0.0
  0
LINE
  5
2F
  8
0
 62
     7
 10
92.419399999999996
 20
120.045
 30
0.0
 11
92.419399999999996
 21
97.947599999999994
 31
0.0
  0
LINE
  5
30
  8
0
 62
     7
 10
88.4739
 20
173.374
 30
0.0
 11
86.492099999999994
 21
172.2299999999999
 31
0.0
  0
LINE
  5
31
  8
0
 62
     7
 10
86.492099999999994
 20
172.2299999999999
 30
0.0
 11
88.780699999999996
 21
172.2299999999999
 31
0.0
  0
LINE
  5
32
  8
0
 62
     7
 10
88.780699999999996
 20
172.2299999999999
 30
0.0
 11
88.4739
 21
173.374
 31
0.0
  0
LINE
  5
33
  8
0
 62
     7
 10
86.402299999999997
 20
172.7409999999999
 30
0.0
 11
84.420500000000004
 21
171.59700000000001
 31
0.0
  0
LINE
  5
34
  8
0
 62
     7
 10
84.420500000000004
 20
171.59700000000001
 30
0.0
 11
86.709100000000007
 21
171.59700000000001
 31
0.0
  0
LINE
  5
35
  8
0
 62
     7
 10
86.709100000000007
 20
171.59700000000001
 30
0.0
 11
86.402299999999997
 21
172.7409999999999
 31
0.0
  0
LINE
  5
36
  8
0
 62
     7
 10
100.8839999999999
 20
175.46999999999991
 30
0.0
 11
102.8659999999999
 21
176.614
 31
0.0
  0
LINE
  5
37
  8
0
 62
     7
 10
102.8659999999999
 20
176.614
 30
0.0
 11
100.577
 21
176.614
 31
0.0
  0
LINE
  5
38
  8
0
 62
     7
 10
100.577
 20
176.614
 30
0.0
 11
100.8839999999999
 21
175.46999999999991
 31
0.0
  0
LINE
  5
39
  8
0
 62
     7
 10
84.420500000000004
 20
171.59700000000001
 30
0.0
 11
102.8659999999999
 21
176.614
 31
0.0
  0
LINE
  5
3A
  8
0
 62
     7
 10
94.635300000000001
 20
99.444999999999993
 30
0.0
 11
92.424899999999994
 21
98.852800000000016
 31
0.0
  0
LINE
  5
3B
  8
0
 62
     7
 10
92.424899999999994
 20
98.852800000000016
 30
0.0
 11
94.635300000000001
 21
98.260400000000004
 31
0.0
  0
LINE
  5
3C
  8
0
 62
     7
 10
94.635300000000001
 20
98.260400000000004
 30
0.0
 11
94.635300000000001
 21
99.444999999999993
 31
0.0
  0
LINE
  5
3D
  8
0
 62
     7
 10
111.1279999999999
 20
98.275099999999995
 30
0.0
 11
113.339
 21
98.8673
 31
0.0
  0
LINE
  5
3E
  8
0
 62
     7
 10
113.339
 20
98.8673
 30
0.0
 11
111.1279999999999
 21
99.459699999999998
 31
0.0
  0
LINE
  5
3F
  8
0
 62
     7
 10
111.1279999999999
 20
99.459699999999998
 30
0.0
 11
111.1279999999999
 21
98.275099999999995
 31
0.0
  0
LINE
  5
40
  8
0
 62
     7
 10
92.424899999999994
 20
98.860100000000003
 30
0.0
 11
113.339
 21
98.860100000000003
 31
0.0
  0
LINE
  5
41
  8
0
 62
     7
 10
112.044
 20
128.44499999999991
 30
0.0
 11
113.3599999999999
 21
128.44499999999991
 31
0.0
  0
LINE
  5
42
  8
0
 62
     7
 10
113.40600000000001
 20
130.529
 30
0.0
 11
113.40600000000001
 21
122.675
 31
0.0
  0
LINE
  5
43
  8
0
 62
     7
 10
113.40600000000001
 20
122.675
 30
0.0
 11
111.387
 21
121.65000000000001
 31
0.0
  0
LINE
  5
44
  8
0
 62
     7
 10
99.679599999999994
 20
152.36000000000001
 30
0.0
 11
100.39700000000001
 21
149.732
 31
0.0
  0
LINE
  5
45
  8
0
 62
     7
 10
100.307
 20
152.5389999999999
 30
0.0
 11
101.024
 21
149.91099999999989
 31
0.0
  0
LINE
  5
46
  8
0
 62
     7
 10
100.9349999999999
 20
152.71899999999999
 30
0.0
 11
101.651
 21
150.09100000000001
 31
0.0
  0
LINE
  5
47
  8
0
 62
     7
 10
101.562
 20
152.89799999999991
 30
0.0
 11
102.27800000000001
 21
150.27000000000001
 31
0.0
  0
LINE
  5
48
  8
0
 62
     7
 10
102.18899999999989
 20
153.07699999999991
 30
0.0
 11
102.905
 21
150.4489999999999
 31
0.0
  0
LINE
  5
49
  8
0
 62
     7
 10
102.8159999999999
 20
153.256
 30
0.0
 11
103.5329999999999
 21
150.6279999999999
 31
0.0
  0
LINE
  5
4A
  8
0
 62
     7
 10
103.4429999999999
 20
153.435
 30
0.0
 11
104.16
 21
150.80699999999999
 31
0.0
  0
LINE
  5
4B
  8
0
 62
     7
 10
103.98099999999999
 20
153.61500000000001
 30
0.0
 11
104.69799999999999
 21
150.9859999999999
 31
0.0
  0
ARC
  5
4C
  8
0
 62
     7
 10
109.8365409999999
 20
148.87802600000001
 30
0.0
 40
3.0302489999999991
 50
52.916343000000012
 51
76.364892999999995
  0
ARC
  5
4D
  8
0
 62
     7
 10
110.6548879999999
 20
150.017156
 30
0.0
 40
1.6284099999999999
 50
31.466982999999999
 51
51.718853000000003
  0
ARC
  5
4E
  8
0
 62
     7
 10
109.32450300000001
 20
149.29070799999991
 30
0.0
 40
3.143251999999999
 50
23.883611999999989
 51
30.102402000000001
  0
ARC
  5
4F
  8
0
 62
     7
 10
100.094987
 20
145.00373300000001
 30
0.0
 40
13.319412
 50
20.863769999999999
 51
24.670984000000001
  0
ARC
  5
50
  8
0
 62
     7
 10
87.882050000000007
 20
140.2694789999999
 30
0.0
 40
26.417740999999989
 50
6.4161149999999987
 51
21.024750999999998
  0
ARC
  5
51
  8
0
 62
     7
 10
-59.713993999999992
 20
127.69097099999991
 30
0.0
 40
174.54065
 50
2.2679629999999991
 51
5.1049369999999996
  0
ARC
  5
52
  8
0
 62
     7
 10
106.016087
 20
134.22160600000001
 30
0.0
 40
8.6820140000000006
 50
355.5358359999999
 51
2.485288999999999
  0
ARC
  5
53
  8
0
 62
     7
 10
98.156468000000004
 20
135.74226899999991
 30
0.0
 40
16.660709000000001
 50
349.76427699999999
 51
352.42447099999998
  0
ARC
  5
54
  8
0
 62
     7
 10
109.001175
 20
133.802931
 30
0.0
 40
5.6440089999999987
 50
337.22946899999988
 51
349.57531799999998
  0
ARC
  5
55
  8
0
 62
     7
 10
111.52291200000001
 20
132.8039499999999
 30
0.0
 40
2.9326779999999988
 50
318.42392699999999
 51
336.15695599999992
  0
ARC
  5
56
  8
0
 62
     7
 10
131.45902699999991
 20
114.580411
 30
0.0
 40
24.077798000000001
 50
137.46560700000001
 51
139.69903299999999
  0
ARC
  5
57
  8
0
 62
     7
 10
175.013575
 20
77.114490000000004
 30
0.0
 40
81.529047999999989
 50
139.41618299999999
 51
140.6326149999999
  0
LINE
  5
58
  8
0
 62
     7
 10
111.9839999999999
 20
128.828
 30
0.0
 11
111.9839999999999
 21
122.914
 31
0.0
  0
LINE
  5
59
  8
0
 62
     7
 10
111.9839999999999
 20
122.914
 30
0.0
 11
111.327
 21
122.5559999999999
 31
0.0
  0
LINE
  5
5A
  8
0
 62
     7
 10
111.327
 20
122.5559999999999
 30
0.0
 11
111.327
 21
121.4709999999999
 31
0.0
  0
LINE
  5
5B
  8
0
 62
     7
 10
111.327
 20
121.4709999999999
 30
0.0
 11
102.905
 21
121.4709999999999
 31
0.0
  0
LINE
  5
5C
  8
0
 62
     7
 10
104.458
 20
153.7939999999999
 30
0.0
 11
108.759
 21
138.62200000000001
 31
0.0
  0
LINE
  5
5D
  8
0
 62
     7
 10
108.759
 20
138.62200000000001
 30
0.0
 11
109.1169999999999
 21
137.464
 31
0.0
  0
LINE
  5
5E
  8
0
 62
     7
 10
109.1169999999999
 20
137.464
 30
0.0
 11
109.1169999999999
 21
121.53
 31
0.0
  0
LINE
  5
5F
  8
0
 62
     7
 10
111.8649999999999
 20
124.76599999999991
 30
0.0
 11
109.1169999999999
 21
122.0179999999999
 31
0.0
  0
LINE
  5
60
  8
0
 62
     7
 10
111.9839999999999
 20
127.45399999999999
 30
0.0
 11
109.05799999999989
 21
124.76599999999991
 31
0.0
  0
LINE
  5
61
  8
0
 62
     7
 10
114.73099999999999
 20
134.08299999999991
 30
0.0
 11
109.17700000000001
 21
128.648
 31
0.0
  0
LINE
  5
62
  8
0
 62
     7
 10
114.672
 20
137.667
 30
0.0
 11
109.1169999999999
 21
132.23199999999991
 31
0.0
  0
LINE
  5
63
  8
0
 62
     7
 10
114.3739999999999
 20
141.48899999999989
 30
0.0
 11
109.23699999999999
 21
136.47200000000001
 31
0.0
  0
LINE
  5
64
  8
0
 62
     7
 10
114.0149999999999
 20
144.715
 30
0.0
 11
108.45999999999999
 21
139.28
 31
0.0
  0
LINE
  5
65
  8
0
 62
     7
 10
113.358
 20
147.2829999999999
 30
0.0
 11
109.834
 21
144.17699999999999
 31
0.0
  0
ARC
  5
66
  8
0
 62
     7
 10
112.3831389999999
 20
121.5988139999999
 30
0.0
 40
17.217942999999991
 50
101.94776400000001
 51
104.59010600000001
  0
ARC
  5
67
  8
0
 62
     7
 10
154.78515300000001
 20
-46.534886999999991
 30
0.0
 40
190.61550700000001
 50
104.19374499999989
 51
105.607123
  0
ARC
  5
68
  8
0
 62
     7
 10
111.67442699999999
 20
125.211854
 30
0.0
 40
14.378954999999991
 50
101.94330600000001
 51
104.9396429999999
  0
ARC
  5
69
  8
0
 62
     7
 10
138.2994009999999
 20
21.38883499999999
 30
0.0
 40
121.560952
 50
104.4491
 51
105.666477
  0
ARC
  5
6A
  8
0
 62
     7
 10
173.55197399999989
 20
-107.7755809999999
 30
0.0
 40
255.44811699999991
 50
105.456473
 51
105.95742299999991
  0
ARC
  5
6B
  8
0
 62
     7
 10
108.578648
 20
142.12704899999989
 30
0.0
 40
1.212030999999999
 50
303.48325
 51
313.69164899999998
  0
ARC
  5
6C
  8
0
 62
     7
 10
107.403865
 20
143.78807499999991
 30
0.0
 40
3.2461439999999988
 50
288.14630099999999
 51
304.60320499999989
  0
ARC
  5
6D
  8
0
 62
     7
 10
106.803905
 20
145.33982299999991
 30
0.0
 40
4.9083370000000004
 50
281.74537500000002
 51
289.16001799999998
  0
ARC
  5
6E
  8
0
 62
     7
 10
111.678045
 20
122.210246
 30
0.0
 40
18.729251999999999
 50
101.940434
 51
104.547051
  0
ARC
  5
6F
  8
0
 62
     7
 10
150.42933099999999
 20
-32.153646000000002
 30
0.0
 40
177.88234
 50
104.14011000000001
 51
105.4955969999999
  0
LINE
  5
70
  8
0
 62
     7
 10
109.05799999999989
 20
143.10299999999989
 30
0.0
 11
109.89400000000001
 21
143.6999999999999
 31
0.0
  0
LINE
  5
71
  8
0
 62
     7
 10
108.0419999999999
 20
147.1639999999999
 30
0.0
 11
109.17700000000001
 21
146.86500000000001
 31
0.0
  0
LINE
  5
72
  8
0
 62
     7
 10
109.17700000000001
 20
146.86500000000001
 30
0.0
 11
112.58199999999999
 21
149.971
 31
0.0
  0
LINE
  5
73
  8
0
 62
     7
 10
108.45999999999999
 20
148.95599999999999
 30
0.0
 11
107.8629999999999
 21
147.94
 31
0.0
  0
LINE
  5
74
  8
0
 62
     7
 10
107.8629999999999
 20
147.94
 30
0.0
 11
109.5949999999999
 21
141.19099999999989
 31
0.0
  0
LINE
  5
75
  8
0
 62
     7
 10
109.5949999999999
 20
141.19099999999989
 30
0.0
 11
110.13200000000001
 21
143.34100000000001
 31
0.0
  0
LINE
  5
76
  8
0
 62
     7
 10
110.13200000000001
 20
143.34100000000001
 30
0.0
 11
108.45999999999999
 21
148.95599999999999
 31
0.0
  0
LINE
  5
77
  8
0
 62
     7
 10
106.96599999999999
 20
145.01300000000001
 30
0.0
 11
108.938
 21
143.40100000000001
 31
0.0
  0
LINE
  5
78
  8
0
 62
     7
 10
107.9829999999999
 20
141.49000000000001
 30
0.0
 11
108.938
 21
140.71299999999991
 31
0.0
  0
LINE
  5
79
  8
0
 62
     7
 10
105.77199999999991
 20
149.31399999999991
 30
0.0
 11
107.9229999999999
 21
147.46299999999991
 31
0.0
  0
LINE
  5
7A
  8
0
 62
     7
 10
110.90899999999991
 20
151.584
 30
0.0
 11
108.6989999999999
 21
149.13499999999991
 31
0.0
  0
LINE
  5
7B
  8
0
 62
     7
 10
108.6989999999999
 20
149.13499999999991
 30
0.0
 11
107.38499999999991
 21
152.95699999999991
 31
0.0
  0
ARC
  5
7C
  8
0
 62
     7
 10
106.9386439999999
 20
154.8554409999999
 30
0.0
 40
1.949865999999999
 50
283.23311100000001
 51
302.12908399999992
  0
ARC
  5
7D
  8
0
 62
     7
 10
107.51975
 20
153.935462
 30
0.0
 40
0.8617360000000001
 50
301.9402429999999
 51
342.3327109999999
  0
ARC
  5
7E
  8
0
 62
     7
 10
116.53629599999989
 20
151.843199
 30
0.0
 40
8.3974429999999991
 50
163.602631
 51
167.407747
  0
ARC
  5
7F
  8
0
 62
     7
 10
147.80380500000001
 20
143.0893639999999
 30
0.0
 40
40.866644000000001
 50
162.546268
 51
164.20401899999999
  0
LINE
  5
80
  8
0
 62
     7
 10
108.8189999999999
 20
155.34700000000001
 30
0.0
 11
110.5509999999999
 21
157.19799999999989
 31
0.0
  0
LINE
  5
81
  8
0
 62
     7
 10
107.584
 20
155.7949999999999
 30
0.0
 11
105.44499999999989
 21
155.238
 31
0.0
  0
LINE
  5
82
  8
0
 62
     7
 10
105.44499999999989
 20
155.238
 30
0.0
 11
105.0989999999999
 21
156.56700000000001
 31
0.0
  0
LINE
  5
83
  8
0
 62
     7
 10
105.0989999999999
 20
156.56700000000001
 30
0.0
 11
107.238
 21
157.12399999999991
 31
0.0
  0
LINE
  5
84
  8
0
 62
     7
 10
107.238
 20
157.12399999999991
 30
0.0
 11
107.584
 21
155.7949999999999
 31
0.0
  0
LINE
  5
85
  8
0
 62
     7
 10
104.69799999999999
 20
154.15199999999999
 30
0.0
 11
107.9229999999999
 21
151.166
 31
0.0
  0
LINE
  5
86
  8
0
 62
     7
 10
111.06999999999999
 20
154.732
 30
0.0
 11
108.58
 21
152.00200000000001
 31
0.0
  0
LINE
  5
87
  8
0
 62
     7
 10
109.875
 20
159.21100000000001
 30
0.0
 11
108.383
 21
157.59899999999999
 31
0.0
  0
LINE
  5
88
  8
0
 62
     7
 10
109.1169999999999
 20
161.73799999999989
 30
0.0
 11
107.624
 21
160.125
 31
0.0
  0
LINE
  5
89
  8
0
 62
     7
 10
108.45999999999999
 20
164.42500000000001
 30
0.0
 11
106.96599999999999
 21
162.8129999999999
 31
0.0
  0
LINE
  5
8A
  8
0
 62
     7
 10
107.56399999999989
 20
165.67899999999989
 30
0.0
 11
106.4889999999999
 21
164.66399999999999
 31
0.0
  0
ARC
  5
8B
  8
0
 62
     7
 10
685.33807999999999
 20
-193.27023299999999
 30
0.0
 40
673.85692400000005
 50
148.95828099999989
 51
148.98791800000001
  0
ARC
  5
8C
  8
0
 62
     7
 10
107.77792599999999
 20
154.331782
 30
0.0
 40
0.237222
 50
329.69006300000001
 51
354.12016199999988
  0
ARC
  5
8D
  8
0
 62
     7
 10
107.262533
 20
154.39929599999991
 30
0.0
 40
0.7569560000000001
 50
353.03312099999999
 51
8.7598320000000012
  0
ARC
  5
8E
  8
0
 62
     7
 10
105.549778
 20
154.16565700000001
 30
0.0
 40
2.4854949999999998
 50
8.0699419999999993
 51
17.068992000000001
  0
ARC
  5
8F
  8
0
 62
     7
 10
101.464288
 20
152.950839
 30
0.0
 40
6.7477099999999997
 50
16.747358999999989
 51
24.091069999999998
  0
LINE
  5
90
  8
0
 62
     7
 10
107.624
 20
155.70500000000001
 30
0.0
 11
106.4289999999999
 21
155.227
 31
0.0
  0
ARC
  5
91
  8
0
 62
     7
 10
111.42622299999999
 20
159.76491100000001
 30
0.0
 40
6.7497129999999999
 50
222.241874
 51
234.4762629999999
  0
ARC
  5
92
  8
0
 62
     7
 10
94.37311600000001
 20
134.577889
 30
0.0
 40
23.669974
 50
53.296672999999998
 51
56.305526999999998
  0
LINE
  5
93
  8
0
 62
     7
 10
107.9829999999999
 20
155.34700000000001
 30
0.0
 11
107.9829999999999
 21
154.21199999999999
 31
0.0
  0
LINE
  5
94
  8
0
 62
     7
 10
107.9829999999999
 20
154.21199999999999
 30
0.0
 11
108.58
 21
153.9129999999999
 31
0.0
  0
LINE
  5
95
  8
0
 62
     7
 10
111.327
 20
152.65899999999991
 30
0.0
 11
107.684
 21
151.68499999999989
 31
0.0
  0
LINE
  5
96
  8
0
 62
     7
 10
105.295
 20
151.10599999999999
 30
0.0
 11
99.859499999999997
 21
149.65399999999991
 31
0.0
  0
LINE
  5
97
  8
0
 62
     7
 10
105.474
 20
150.80699999999999
 30
0.0
 11
100.039
 21
149.35599999999991
 31
0.0
  0
ARC
  5
98
  8
0
 62
     7
 10
100.16561299999999
 20
155.8452189999999
 30
0.0
 40
9.5644270000000002
 50
141.97027099999991
 51
149.51437200000001
  0
ARC
  5
99
  8
0
 62
     7
 10
92.751843999999977
 20
160.24211699999989
 30
0.0
 40
0.9453309999999998
 50
151.20492200000001
 51
161.42003399999999
  0
ARC
  5
9A
  8
0
 62
     7
 10
87.805547000000004
 20
158.48537899999991
 30
0.0
 40
2.4051960000000001
 50
151.65337899999989
 51
176.513892
  0
ARC
  5
9B
  8
0
 62
     7
 10
86.297409999999999
 20
159.25280399999991
 30
0.0
 40
0.714679
 50
104.21581999999999
 51
148.39140999999989
  0
ARC
  5
9C
  8
0
 62
     7
 10
85.264880999999988
 20
164.27214900000001
 30
0.0
 40
4.4106149999999991
 50
281.204362
 51
286.66446799999989
  0
ARC
  5
9D
  8
0
 62
     7
 10
-12.684464999999999
 20
533.11009499999989
 30
0.0
 40
386.03068400000001
 50
284.89279199999987
 51
285.5403869999999
  0
ARC
  5
9E
  8
0
 62
     7
 10
-717.71395499999994
 20
3094.4690000000001
 30
0.0
 40
3042.6489999999999
 50
285.40898700000002
 51
285.723859
  0
ARC
  5
9F
  8
0
 62
     7
 10
107.61196
 20
163.3983969999999
 30
0.0
 40
2.4054269999999991
 50
92.779022999999995
 51
108.52890499999999
  0
ARC
  5
A0
  8
0
 62
     7
 10
107.5013379999999
 20
164.97403899999989
 30
0.0
 40
0.8269770000000001
 50
29.448478999999999
 51
90.415949999999995
  0
ARC
  5
A1
  8
0
 62
     7
 10
-1318.98
 20
-228.39807999999999
 30
0.0
 40
1480.5289999999991
 50
15.147486999999989
 51
15.424695
  0
ARC
  5
A2
  8
0
 62
     7
 10
-27.361585000000002
 20
120.075006
 30
0.0
 40
142.732855
 50
13.467174999999999
 51
15.605112
  0
ARC
  5
A3
  8
0
 62
     7
 10
106.765783
 20
152.842884
 30
0.0
 40
4.704663
 50
0.8269859999999999
 51
5.7693300000000001
  0
ARC
  5
A4
  8
0
 62
     7
 10
110.639484
 20
152.90648100000001
 30
0.0
 40
0.8304829999999999
 50
328.39387299999999
 51
0.29707
  0
ARC
  5
A5
  8
0
 62
     7
 10
110.78985
 20
152.872151
 30
0.0
 40
0.686222
 50
306.078259
 51
324.251777
  0
ARC
  5
A6
  8
0
 62
     7
 10
110.412983
 20
153.4116149999999
 30
0.0
 40
1.3442199999999991
 50
286.29500400000001
 51
305.52007500000002
  0
ARC
  5
A7
  8
0
 62
     7
 10
108.4674219999999
 20
159.11865700000001
 30
0.0
 40
7.3727049999999998
 50
284.27671199999997
 51
288.36347699999999
  0
ARC
  5
A8
  8
0
 62
     7
 10
96.116598999999994
 20
205.58266
 30
0.0
 40
55.449846999999998
 50
282.29350199999999
 51
284.80486000000002
  0
ARC
  5
A9
  8
0
 62
     7
 10
100.65656
 20
154.265672
 30
0.0
 40
7.4860089999999992
 50
225.17800399999999
 51
233.79164599999999
  0
ARC
  5
AA
  8
0
 62
     7
 10
96.638099999999994
 20
148.78331099999991
 30
0.0
 40
0.688646
 50
234.11041399999999
 51
254.55207799999991
  0
ARC
  5
AB
  8
0
 62
     7
 10
94.157185999999996
 20
152.48482999999999
 30
0.0
 40
7.5014429999999992
 50
225.17817400000001
 51
233.77363199999991
  0
ARC
  5
AC
  8
0
 62
     7
 10
90.128253000000015
 20
146.9920459999999
 30
0.0
 40
0.689483
 50
234.10463300000001
 51
254.52273299999999
  0
ARC
  5
AD
  8
0
 62
     7
 10
99.395341000000016
 20
153.38084900000001
 30
0.0
 40
0.079708
 50
103.1264509999999
 51
149.70111299999991
  0
ARC
  5
AE
  8
0
 62
     7
 10
100.450729
 20
150.98182600000001
 30
0.0
 40
2.6992910000000001
 50
104.2579369999999
 51
113.43404699999989
  0
LINE
  5
AF
  8
0
 62
     7
 10
99.785899999999998
 20
153.5979999999999
 30
0.0
 11
104.535
 21
155.00999999999999
 31
0.0
  0
ARC
  5
B0
  8
0
 62
     7
 10
105.210508
 20
152.65849299999999
 30
0.0
 40
2.4467689999999989
 50
94.475567000000012
 51
106.0301649999999
  0
LINE
  5
B1
  8
0
 62
     7
 10
105.02
 20
155.0979999999999
 30
0.0
 11
104.736
 21
153.96700000000001
 31
0.0
  0
ARC
  5
B2
  8
0
 62
     7
 10
104.6779109999999
 20
153.99578399999999
 30
0.0
 40
0.064894
 50
283.006686
 51
333.27132499999988
  0
ARC
  5
B3
  8
0
 62
     7
 10
103.65834099999989
 20
156.2477659999999
 30
0.0
 40
2.5356900000000002
 50
284.11717099999993
 51
294.06972599999989
  0
LINE
  5
B4
  8
0
 62
     7
 10
104.2769999999999
 20
153.7889999999999
 30
0.0
 11
100.08799999999989
 21
152.51799999999989
 31
0.0
  0
ARC
  5
B5
  8
0
 62
     7
 10
99.392368999999988
 20
154.9888389999999
 30
0.0
 40
2.5667459999999989
 50
274.71074599999992
 51
285.73425499999991
  0
ARC
  5
B6
  8
0
 62
     7
 10
98.873281999999975
 20
154.6617169999999
 30
0.0
 40
0.055241
 50
105.194996
 51
160.77339499999999
  0
ARC
  5
B7
  8
0
 62
     7
 10
99.752944999999997
 20
152.89031799999989
 30
0.0
 40
2.0320070000000001
 50
103.5284959999999
 51
116.105738
  0
LINE
  5
B8
  8
0
 62
     7
 10
99.277600000000007
 20
154.86600000000001
 30
0.0
 11
104.661
 21
156.37499999999989
 31
0.0
  0
ARC
  5
B9
  8
0
 62
     7
 10
105.6133769999999
 20
152.9761949999999
 30
0.0
 40
3.530186
 50
99.435295999999965
 51
105.655135
  0
ARC
  5
BA
  8
0
 62
     7
 10
105.0882389999999
 20
156.373166
 30
0.0
 40
0.100864
 50
53.731752999999998
 51
122.086877
  0
LINE
  5
BB
  8
0
 62
     7
 10
105.1479999999999
 20
156.45400000000001
 30
0.0
 11
105.4759999999999
 21
155.2829999999999
 31
0.0
  0
ARC
  5
BC
  8
0
 62
     7
 10
105.4242239999999
 20
155.3016669999999
 30
0.0
 40
0.055144
 50
285.06525799999997
 51
340.56807500000002
  0
ARC
  5
BD
  8
0
 62
     7
 10
104.550303
 20
157.06127499999999
 30
0.0
 40
2.018772999999999
 50
283.441641
 51
296.10367200000002
  0
LINE
  5
BE
  8
0
 62
     7
 10
105.02
 20
155.0979999999999
 30
0.0
 11
99.636099999999999
 21
153.58799999999991
 31
0.0
  0
ARC
  5
BF
  8
0
 62
     7
 10
98.658249999999995
 20
157.06756399999989
 30
0.0
 40
3.6141989999999988
 50
279.937411
 51
285.696887
  0
ARC
  5
C0
  8
0
 62
     7
 10
99.216706000000002
 20
153.62851599999999
 30
0.0
 40
0.13741
 50
240.36095599999999
 51
298.35178100000002
  0
LINE
  5
C1
  8
0
 62
     7
 10
105.1749999999999
 20
164.5449999999999
 30
0.0
 11
107.6969999999999
 21
155.53399999999991
 31
0.0
  0
ARC
  5
C2
  8
0
 62
     7
 10
109.2416009999999
 20
155.9708029999999
 30
0.0
 40
1.6054019999999991
 50
195.79000999999991
 51
204.51251799999989
  0
ARC
  5
C3
  8
0
 62
     7
 10
107.989237
 20
155.36441099999999
 30
0.0
 40
0.216723
 50
195.98331699999989
 51
244.94439700000001
  0
LINE
  5
C4
  8
0
 62
     7
 10
107.89699999999991
 20
155.16800000000001
 30
0.0
 11
108.928
 21
155.45599999999999
 31
0.0
  0
ARC
  5
C5
  8
0
 62
     7
 10
108.89840700000001
 20
155.50513299999989
 30
0.0
 40
0.056983
 50
300.95548300000002
 51
358.68982
  0
ARC
  5
C6
  8
0
 62
     7
 10
108.3684149999999
 20
155.57467799999989
 30
0.0
 40
0.59122
 50
353.117501
 51
11.04239699999999
  0
ARC
  5
C7
  8
0
 62
     7
 10
107.37035400000001
 20
155.43318099999999
 30
0.0
 40
1.5987610000000001
 50
9.1682129999999997
 51
15.972612
  0
LINE
  5
C8
  8
0
 62
     7
 10
108.907
 20
155.87299999999991
 30
0.0
 11
106.495
 21
164.47599999999991
 31
0.0
  0
ARC
  5
C9
  8
0
 62
     7
 10
105.0032429999999
 20
164.06377299999991
 30
0.0
 40
1.547882999999999
 50
15.435782
 51
24.465112999999999
  0
ARC
  5
CA
  8
0
 62
     7
 10
106.203497
 20
164.6451669999999
 30
0.0
 40
0.217008
 50
15.953120999999999
 51
64.972245000000001
  0
LINE
  5
CB
  8
0
 62
     7
 10
96.514600000000002
 20
162.03599999999989
 30
0.0
 11
104.58799999999989
 21
164.30199999999999
 31
0.0
  0
LINE
  5
CC
  8
0
 62
     7
 10
104.58799999999989
 20
164.30199999999999
 30
0.0
 11
106.2329999999999
 21
164.72399999999999
 31
0.0
  0
ARC
  5
CD
  8
0
 62
     7
 10
107.041555
 20
157.40019699999991
 30
0.0
 40
0.164406
 50
346.49094600000001
 51
15.487416
  0
ARC
  5
CE
  8
0
 62
     7
 10
106.9199559999999
 20
157.43294099999989
 30
0.0
 40
0.29031
 50
320.00120500000003
 51
345.813605
  0
ARC
  5
CF
  8
0
 62
     7
 10
106.6341929999999
 20
157.66565800000001
 30
0.0
 40
0.6588270000000001
 50
302.65119399999992
 51
320.471316
  0
ARC
  5
D0
  8
0
 62
     7
 10
106.3336959999999
 20
158.12052899999989
 30
0.0
 40
1.203964
 50
285.13696499999992
 51
303.01270099999999
  0
LINE
  5
D1
  8
0
 62
     7
 10
106.6479999999999
 20
156.958
 30
0.0
 11
99.368399999999994
 21
154.917
 31
0.0
  0
ARC
  5
D2
  8
0
 62
     7
 10
99.037673999999996
 20
156.09143999999989
 30
0.0
 40
1.219679999999999
 50
263.13658399999991
 51
285.732124
  0
ARC
  5
D3
  8
0
 62
     7
 10
98.953590000000005
 20
155.30882999999989
 30
0.0
 40
0.4327470000000001
 50
237.279766
 51
261.80688199999992
  0
ARC
  5
D4
  8
0
 62
     7
 10
98.820875000000001
 20
155.101213
 30
0.0
 40
0.186337
 50
197.69546800000001
 51
237.104725
  0
ARC
  5
D5
  8
0
 62
     7
 10
94.805778000000004
 20
149.25017199999991
 30
0.0
 40
0.534944
 50
286.75662899999992
 51
13.450233999999989
  0
LINE
  5
D6
  8
0
 62
     7
 10
94.959999999999994
 20
148.73799999999989
 30
0.0
 11
89.199099999999987
 21
147.12299999999999
 31
0.0
  0
ARC
  5
D7
  8
0
 62
     7
 10
89.070154000000002
 20
147.65137999999999
 30
0.0
 40
0.544175
 50
198.80174600000001
 51
283.70501000000002
  0
LINE
  5
D8
  8
0
 62
     7
 10
88.555000000000007
 20
147.476
 30
0.0
 11
85.501099999999994
 21
158.36600000000001
 31
0.0
  0
ARC
  5
D9
  8
0
 62
     7
 10
86.021508999999995
 20
158.49050099999991
 30
0.0
 40
0.5350590000000001
 50
106.692041
 51
193.43506599999989
  0
LINE
  5
DA
  8
0
 62
     7
 10
85.867800000000003
 20
159.0029999999999
 30
0.0
 11
91.628100000000003
 21
160.61799999999991
 31
0.0
  0
ARC
  5
DB
  8
0
 62
     7
 10
91.757597000000004
 20
160.09068600000001
 30
0.0
 40
0.543241
 50
18.711628000000001
 51
103.79508800000001
  0
LINE
  5
DC
  8
0
 62
     7
 10
92.272099999999995
 20
160.2649999999999
 30
0.0
 11
95.326099999999997
 21
149.375
 31
0.0
  0
LINE
  5
DD
  8
0
 62
     7
 10
102.905
 20
132.21600000000001
 30
0.0
 11
91.676500000000004
 21
132.21600000000001
 31
0.0
  0
ARC
  5
DE
  8
0
 62
     7
 10
91.626142999999985
 20
132.448746
 30
0.0
 40
0.237935
 50
258.03758999999991
 51
282.210061
  0
ARC
  5
DF
  8
0
 62
     7
 10
91.661969999999997
 20
132.626383
 30
0.0
 40
0.4191430000000001
 50
211.388643
 51
258.27947499999999
  0
ARC
  5
E0
  8
0
 62
     7
 10
92.126677999999998
 20
132.98842500000001
 30
0.0
 40
1.0066429999999991
 50
200.708628
 51
215.2061259999999
  0
ARC
  5
E1
  8
0
 62
     7
 10
93.010124000000005
 20
133.33180399999989
 30
0.0
 40
1.9544549999999989
 50
191.07629299999991
 51
200.966418
  0
ARC
  5
E2
  8
0
 62
     7
 10
95.038273000000004
 20
133.724568
 30
0.0
 40
4.020281999999999
 50
181.46722899999989
 51
191.01655199999999
  0
ARC
  5
E3
  8
0
 62
     7
 10
-81.246054000000001
 20
127.1376929999999
 30
0.0
 40
172.3873449999999
 50
2.1555509999999991
 51
2.9581469999999999
  0
ARC
  5
E4
  8
0
 62
     7
 10
28.482593000000001
 20
132.651658
 30
0.0
 40
62.52055
 50
3.1011949999999988
 51
4.9585299999999997
  0
ARC
  5
E5
  8
0
 62
     7
 10
64.055944999999994
 20
135.82388599999999
 30
0.0
 40
26.806277000000001
 50
4.7756019999999992
 51
9.6589369999999999
  0
ARC
  5
E6
  8
0
 62
     7
 10
78.459195999999991
 20
138.08838
 30
0.0
 40
12.22865099999999
 50
10.52213999999999
 51
22.259804999999989
  0
ARC
  5
E7
  8
0
 62
     7
 10
-425.10201899999998
 20
-76.708096999999995
 30
0.0
 40
559.68642299999999
 50
23.082526999999999
 51
23.225373999999992
  0
ARC
  5
E8
  8
0
 62
     7
 10
91.564862000000005
 20
144.8454429999999
 30
0.0
 40
2.4839950000000002
 50
184.417158
 51
199.808787
  0
ARC
  5
E9
  8
0
 62
     7
 10
90.633693999999991
 20
144.72801399999989
 30
0.0
 40
1.5472129999999991
 50
133.62216599999991
 51
182.73698799999991
  0
ARC
  5
EA
  8
0
 62
     7
 10
91.511889999999994
 20
143.85374400000001
 30
0.0
 40
2.7861590000000001
 50
113.021894
 51
134.29200299999991
  0
ARC
  5
EB
  8
0
 62
     7
 10
93.597143000000003
 20
139.59935100000001
 30
0.0
 40
7.5215550000000002
 50
110.97275999999999
 51
114.96742999999999
  0
ARC
  5
EC
  8
0
 62
     7
 10
96.872698999999997
 20
131.19006699999991
 30
0.0
 40
16.54620199999999
 50
107.814786
 51
111.1412789999999
  0
ARC
  5
ED
  8
0
 62
     7
 10
102.107131
 20
115.03339799999991
 30
0.0
 40
33.529617999999999
 50
105.38693499999999
 51
107.883911
  0
ARC
  5
EE
  8
0
 62
     7
 10
107.6069149999999
 20
95.316443000000007
 30
0.0
 40
53.999177000000003
 50
103.021961
 51
105.462293
  0
LINE
  5
EF
  8
0
 62
     7
 10
95.439599999999999
 20
147.92699999999999
 30
0.0
 11
100.2179999999999
 21
149.0739999999999
 31
0.0
  0
LINE
  5
F0
  8
0
 62
     7
 10
102.905
 20
130.184
 30
0.0
 11
92.512900000000002
 21
130.184
 31
0.0
  0
LINE
  5
F1
  8
0
 62
     7
 10
92.512900000000002
 20
130.184
 30
0.0
 11
91.736099999999993
 21
131.27600000000001
 31
0.0
  0
LINE
  5
F2
  8
0
 62
     7
 10
91.736099999999993
 20
131.27600000000001
 30
0.0
 11
92.871199999999988
 21
132.172
 31
0.0
  0
LINE
  5
F3
  8
0
 62
     7
 10
113.2419999999999
 20
122.77500000000001
 30
0.0
 11
111.327
 21
122.76299999999991
 31
0.0
  0
LINE
  5
F4
  8
0
 62
     7
 10
93.734599999999986
 20
121.44499999999999
 30
0.0
 11
102.905
 21
121.46599999999999
 31
0.0
  0
LINE
  5
F5
  8
0
 62
     7
 10
93.734599999999986
 20
121.44499999999999
 30
0.0
 11
92.487099999999998
 21
122.767
 31
0.0
  0
LINE
  5
F6
  8
0
 62
     7
 10
93.8352
 20
121.44499999999999
 30
0.0
 11
93.834999999999994
 21
128.40899999999991
 31
0.0
  0
LINE
  5
F7
  8
0
 62
     7
 10
93.834999999999994
 20
128.40899999999991
 30
0.0
 11
92.546000000000006
 21
130.05799999999991
 31
0.0
  0
LINE
  5
F8
  8
0
 62
     7
 10
92.458900000000014
 20
130.14099999999991
 30
0.0
 11
92.471599999999995
 21
122.76299999999991
 31
0.0
  0
LINE
  5
F9
  8
0
 62
     7
 10
102.777
 20
122.822
 30
0.0
 11
92.418700000000001
 21
122.822
 31
0.0
  0
LINE
  5
FA
  8
0
 62
     7
 10
102.80200000000001
 20
128.45299999999989
 30
0.0
 11
93.839500000000001
 21
128.441
 31
0.0
  0
LINE
  5
FB
  8
0
  6
AIGENLINE001
 62
     7
 10
102.794
 20
109.9379999999999
 30
0.0
 11
102.8489999999999
 21
139.20799999999991
 31
0.0
  0
LINE
  5
FC
  8
0
  6
AIGENLINE001
 62
     7
 10
110.458
 20
111.0689999999999
 30
0.0
 11
95.430599999999998
 21
165.80000000000001
 31
0.0
  0
LINE
  5
FD
  8
_________2
 62
     7
 10
76.741200000000006
 20
28.740500000000001
 30
0.0
 11
74.554699999999997
 21
28.740500000000001
 31
0.0
  0
LINE
  5
FE
  8
_________2
 62
     7
 10
77.233800000000002
 20
28.740500000000001
 30
0.0
 11
76.981700000000004
 21
28.740500000000001
 31
0.0
  0
LINE
  5
FF
  8
_________2
 62
     7
 10
77.726299999999995
 20
28.740500000000001
 30
0.0
 11
80.651399999999995
 21
28.740500000000001
 31
0.0
  0
LINE
  5
100
  8
_________2
 62
     7
 10
77.233800000000002
 20
28.740500000000001
 30
0.0
 11
77.485699999999994
 21
28.740500000000001
 31
0.0
  0
LINE
  5
101
  8
_________2
 62
     7
 10
70.837299999999999
 20
28.740500000000001
 30
0.0
 11
68.650499999999994
 21
28.740500000000001
 31
0.0
  0
LINE
  5
102
  8
_________2
 62
     7
 10
71.329800000000006
 20
28.740500000000001
 30
0.0
 11
71.077799999999996
 21
28.740500000000001
 31
0.0
  0
LINE
  5
103
  8
_________2
 62
     7
 10
71.329800000000006
 20
29.233000000000001
 30
0.0
 11
71.329800000000006
 21
31.419599999999999
 31
0.0
  0
LINE
  5
104
  8
_________2
 62
     7
 10
71.329800000000006
 20
28.740500000000001
 30
0.0
 11
71.329800000000006
 21
28.992699999999989
 31
0.0
  0
LINE
  5
105
  8
_________2
 62
     7
 10
71.822400000000002
 20
28.740500000000001
 30
0.0
 11
74.009
 21
28.740500000000001
 31
0.0
  0
LINE
  5
106
  8
_________2
 62
     7
 10
71.329800000000006
 20
28.740500000000001
 30
0.0
 11
71.581999999999994
 21
28.740500000000001
 31
0.0
  0
LINE
  5
107
  8
_________2
 62
     7
 10
71.329800000000006
 20
28.248100000000001
 30
0.0
 11
71.329800000000006
 21
26.061499999999992
 31
0.0
  0
LINE
  5
108
  8
_________2
 62
     7
 10
71.329800000000006
 20
28.740500000000001
 30
0.0
 11
71.329800000000006
 21
28.488700000000001
 31
0.0
  0
LINE
  5
109
  8
_________2
 62
     7
 10
75.040899999999993
 20
27.521000000000001
 30
0.0
 11
80.218500000000006
 21
26.6557
 31
0.0
  0
LINE
  5
10A
  8
_________2
 62
     7
 10
75.040899999999993
 20
29.960100000000001
 30
0.0
 11
80.218500000000006
 21
30.825399999999991
 31
0.0
  0
LINE
  5
10B
  8
_________2
 62
     7
 10
80.218500000000006
 20
26.6557
 30
0.0
 11
80.218500000000006
 21
30.825399999999991
 31
0.0
  0
LINE
  5
10C
  8
_________2
 62
     7
 10
75.040899999999993
 20
27.521000000000001
 30
0.0
 11
75.040899999999993
 21
29.960100000000001
 31
0.0
  0
ARC
  5
10D
  8
_________2
 62
     7
 10
71.329860999999994
 20
28.740459999999992
 30
0.0
 40
1.219657999999999
 50
0.004056
 51
90.004025999999996
  0
ARC
  5
10E
  8
_________2
 62
     7
 10
71.329689000000002
 20
28.740459999999992
 30
0.0
 40
1.219657999999999
 50
89.995953999999998
 51
179.99592399999989
  0
ARC
  5
10F
  8
_________2
 62
     7
 10
71.329689000000002
 20
28.740632000000002
 30
0.0
 40
1.2196569999999991
 50
180.00405599999999
 51
270.00406600000002
  0
ARC
  5
110
  8
_________2
 62
     7
 10
71.329860999999994
 20
28.740632999999999
 30
0.0
 40
1.219657999999999
 50
269.99597399999999
 51
359.99594400000001
  0
ARC
  5
111
  8
_________2
 62
     7
 10
71.329688000000004
 20
28.740632000000002
 30
0.0
 40
2.0847269999999991
 50
359.9976430000001
 51
89.997613000000015
  0
ARC
  5
112
  8
_________2
 62
     7
 10
71.329774999999984
 20
28.740545999999998
 30
0.0
 40
2.084813
 50
90.0
 51
179.99996999999991
  0
ARC
  5
113
  8
_________2
 62
     7
 10
71.329774999999984
 20
28.740545999999998
 30
0.0
 40
2.084811999999999
 50
179.99996999999991
 51
270.00002000000001
  0
ARC
  5
114
  8
_________2
 62
     7
 10
71.329688000000004
 20
28.740461
 30
0.0
 40
2.0847269999999991
 50
270.00238699999989
 51
0.002357
  0
TEXT
  5
115
  8
_________2
 62
     7
 10
32.7119
 20
18.486999999999998
 30
0.0
 40
2.5300899999999991
  1
福田
 41
0.5
  0
TEXT
  5
116
  8
_________2
 62
     7
 10
22.456299999999992
 20
18.486999999999998
 30
0.0
 40
2.5300899999999991
  1
石原
 41
0.5
  0
TEXT
  5
117
  8
_________2
 62
     7
 10
104.605
 20
11.6669
 30
0.0
 40
2.248969999999999
  1
図番
 41
0.5
  0
TEXT
  5
118
  8
_________2
 62
     7
 10
104.605
 20
30.805199999999989
 30
0.0
 40
2.248969999999999
  1
名称
 41
0.5
  0
TEXT
  5
119
  8
_________2
 62
     7
 10
90.890100000000004
 20
25.319700000000001
 30
0.0
 40
3.3734599999999988
  1
m m
 41
0.5
  0
TEXT
  5
11A
  8
_________2
 62
     7
 10
85.643199999999993
 20
30.805199999999989
 30
0.0
 40
2.248969999999999
  1
単位
 41
0.5
  0
TEXT
  5
11B
  8
_________2
 62
     7
 10
85.643199999999993
 20
20.398199999999999
 30
0.0
 40
2.248969999999999
  1
尺度
 41
0.5
  0
TEXT
  5
11C
  8
_________2
 62
     7
 10
88.186599999999984
 20
14.077999999999991
 30
0.0
 40
3.6545800000000002
  1
1 ： 1
 41
0.5
  0
TEXT
  5
11D
  8
_________2
 62
     7
 10
137.15448749999999
 20
1.64625
 30
0.0
 40
3.9357000000000002
  1
CET7052
 41
0.5
 72
     1
 11
143.55000000000001
 21
1.64625
 31
0.0
  0
TEXT
  5
11E
  8
_________2
 62
     7
 10
109.179
 20
24.226099999999999
 30
0.0
 40
3.9357000000000002
  1
TOTOシャワーホース用アダプター
 41
0.5
  0
TEXT
  5
11F
  8
_________2
 62
     7
 10
109.179
 20
19.3064
 30
0.0
 40
3.9357000000000002
  1
（ハンスグローエ製シャワーヘッド用）
 41
0.5
  0
TEXT
  5
120
  8
_________2
 62
     7
 10
67.785600000000002
 20
14.077999999999991
 30
0.0
 40
3.6545800000000002
  1
01.11.30
 41
0.5
  0
TEXT
  5
121
  8
_________2
 62
     7
 10
66.593100000000007
 20
20.398199999999999
 30
0.0
 40
2.248969999999999
  1
日付
 41
0.5
  0
TEXT
  5
122
  8
_________2
 62
     7
 10
29.639399999999998
 20
20.398199999999999
 30
0.0
 40
2.248969999999999
  1
検図
 41
0.5
  0
TEXT
  5
123
  8
_________2
 62
     7
 10
18.021399999999989
 20
6.1988000000000003
 30
0.0
 40
2.248969999999999
  1
備考
 41
0.5
  0
TEXT
  5
124
  8
_________2
 62
     7
 10
18.021399999999989
 20
20.398199999999999
 30
0.0
 40
2.248969999999999
  1
製図
 41
0.5
  0
TEXT
  5
125
  8
_________2
 62
     7
 10
23.788665333333341
 20
26.7179
 30
0.0
 40
4.4979399999999989
  1
セラトレーディング株式会社
 41
0.5
 72
     1
 11
41.180700000000002
 21
26.7179
 31
0.0
  0
LINE
  5
126
  8
_________2
 62
     7
 10
205.30099999999999
 20
127.41200000000001
 30
0.0
 11
183.55099999999999
 21
127.41200000000001
 31
0.0
  0
LINE
  5
127
  8
_________2
 62
     7
 10
100.2999999999999
 20
-4.0909000000000004
 30
0.0
 11
100.2999999999999
 21
-21.070900000000002
 31
0.0
  0
LINE
  5
128
  8
_________2
 62
     7
 10
100.2999999999999
 20
275.93099999999993
 30
0.0
 11
100.2999999999999
 21
258.911
 31
0.0
  0
LINE
  5
129
  8
_________2
 62
     7
 10
17.049600000000002
 20
127.41200000000001
 30
0.0
 11
-4.70052
 21
127.41200000000001
 31
0.0
  0
LINE
  5
12A
  8
_________2
 62
     7
 10
183.55099999999999
 20
-4.0909000000000004
 30
0.0
 11
17.049600000000002
 21
-4.0909000000000004
 31
0.0
  0
LINE
  5
12B
  8
_________2
 62
     7
 10
17.049600000000002
 20
-4.0909000000000004
 30
0.0
 11
17.049600000000002
 21
258.911
 31
0.0
  0
LINE
  5
12C
  8
_________2
 62
     7
 10
17.049600000000002
 20
258.911
 30
0.0
 11
183.55099999999999
 21
258.911
 31
0.0
  0
LINE
  5
12D
  8
_________2
 62
     7
 10
183.55099999999999
 20
258.911
 30
0.0
 11
183.55099999999999
 21
-4.0909000000000004
 31
0.0
  0
LINE
  5
12E
  8
_________2
 62
     7
 10
65.549700000000001
 20
9.4091300000000011
 30
0.0
 11
65.549700000000001
 21
33.909300000000002
 31
0.0
  0
LINE
  5
12F
  8
_________2
 62
     7
 10
84.549899999999994
 20
9.4091300000000011
 30
0.0
 11
84.549899999999994
 21
33.909300000000002
 31
0.0
  0
LINE
  5
130
  8
_________2
 62
     7
 10
103.55
 20
-4.0909000000000004
 30
0.0
 11
103.55
 21
33.909300000000002
 31
0.0
  0
LINE
  5
131
  8
_________2
 62
     7
 10
28.549700000000001
 20
9.4091300000000011
 30
0.0
 11
28.549700000000001
 21
23.409199999999998
 31
0.0
  0
LINE
  5
132
  8
_________2
 62
     7
 10
17.049600000000002
 20
9.4091300000000011
 30
0.0
 11
103.55
 21
9.4091300000000011
 31
0.0
  0
LINE
  5
133
  8
_________2
 62
     7
 10
17.049600000000002
 20
23.409199999999998
 30
0.0
 11
103.55
 21
23.409199999999998
 31
0.0
  0
LINE
  5
134
  8
_________2
 62
     7
 10
103.55
 20
14.9091
 30
0.0
 11
183.55099999999999
 21
14.9091
 31
0.0
  0
LINE
  5
135
  8
_________2
 62
     7
 10
17.049600000000002
 20
33.909300000000002
 30
0.0
 11
183.55099999999999
 21
33.909300000000002
 31
0.0
  0
ENDSEC
  0
EOF
