  0
SECTION
  2
HEADER
  9
$ACADVER
  1
AC1009
  9
$INSBASE
 10
0.0
 20
0.0
 30
0.0
  9
$EXTMIN
 10
0.238058
 20
0.4482100000000001
 30
0.0
  9
$EXTMAX
 10
210.24000000000001
 20
297.44999999999999
 30
0.0
  9
$LIMMIN
 10
0.0
 20
0.0
  9
$LIMMAX
 10
12.0
 20
9.0
  9
$ORTHOMODE
 70
     0
  9
$REGENMODE
 70
     1
  9
$FILLMODE
 70
     1
  9
$QTEXTMODE
 70
     0
  9
$MIRRTEXT
 70
     1
  9
$DRAGMODE
 70
     2
  9
$LTSCALE
 40
1.0
  9
$OSMODE
 70
    37
  9
$ATTMODE
 70
     1
  9
$TEXTSIZE
 40
0.0
  9
$TRACEWID
 40
0.05
  9
$TEXTSTYLE
  7
STANDARD
  9
$CLAYER
  8
0
  9
$CELTYPE
  6
CONTINUOUS
  9
$CECOLOR
 62
   256
  9
$DIMSCALE
 40
1.0
  9
$DIMASZ
 40
0.18
  9
$DIMEXO
 40
0.0625
  9
$DIMDLI
 40
0.38
  9
$DIMRND
 40
0.0
  9
$DIMDLE
 40
0.0
  9
$DIMEXE
 40
0.18
  9
$DIMTP
 40
0.0
  9
$DIMTM
 40
0.0
  9
$DIMTXT
 40
0.18
  9
$DIMCEN
 40
0.09
  9
$DIMTSZ
 40
0.0
  9
$DIMTOL
 70
     0
  9
$DIMLIM
 70
     0
  9
$DIMTIH
 70
     1
  9
$DIMTOH
 70
     1
  9
$DIMSE1
 70
     0
  9
$DIMSE2
 70
     0
  9
$DIMTAD
 70
     0
  9
$DIMZIN
 70
     0
  9
$DIMBLK
  1

  9
$DIMASO
 70
     1
  9
$DIMSHO
 70
     1
  9
$DIMPOST
  1

  9
$DIMAPOST
  1

  9
$DIMALT
 70
     0
  9
$DIMALTD
 70
     2
  9
$DIMALTF
 40
25.399999999999999
  9
$DIMLFAC
 40
1.0
  9
$DIMTOFL
 70
     0
  9
$DIMTVP
 40
0.0
  9
$DIMTIX
 70
     0
  9
$DIMSOXD
 70
     0
  9
$DIMSAH
 70
     0
  9
$DIMBLK1
  1

  9
$DIMBLK2
  1

  9
$DIMSTYLE
  2
STANDARD
  9
$DIMCLRD
 70
     0
  9
$DIMCLRE
 70
     0
  9
$DIMCLRT
 70
     0
  9
$DIMTFAC
 40
1.0
  9
$DIMGAP
 40
0.09
  9
$LUNITS
 70
     2
  9
$LUPREC
 70
     4
  9
$SKETCHINC
 40
0.1
  9
$FILLETRAD
 40
0.0
  9
$AUNITS
 70
     0
  9
$AUPREC
 70
     0
  9
$MENU
  1
.
  9
$ELEVATION
 40
0.0
  9
$PELEVATION
 40
0.0
  9
$THICKNESS
 40
0.0
  9
$LIMCHECK
 70
     0
  9
$BLIPMODE
 70
     0
  9
$CHAMFERA
 40
0.0
  9
$CHAMFERB
 40
0.0
  9
$SKPOLY
 70
     0
  9
$TDCREATE
 40
2444972.375
  9
$TDUPDATE
 40
2458812.2467636811
  9
$TDINDWG
 40
0.0000380093
  9
$TDUSRTIMER
 40
0.0000380093
  9
$USRTIMER
 70
     1
  9
$ANGBASE
 50
0.0
  9
$ANGDIR
 70
     0
  9
$PDMODE
 70
     0
  9
$PDSIZE
 40
0.0
  9
$PLINEWID
 40
0.0
  9
$COORDS
 70
     1
  9
$SPLFRAME
 70
     0
  9
$SPLINETYPE
 70
     6
  9
$SPLINESEGS
 70
     8
  9
$ATTDIA
 70
     1
  9
$ATTREQ
 70
     1
  9
$HANDLING
 70
     1
  9
$HANDSEED
  5
508
  9
$SURFTAB1
 70
     6
  9
$SURFTAB2
 70
     6
  9
$SURFTYPE
 70
     6
  9
$SURFU
 70
     6
  9
$SURFV
 70
     6
  9
$UCSNAME
  2

  9
$UCSORG
 10
0.0
 20
0.0
 30
0.0
  9
$UCSXDIR
 10
1.0
 20
0.0
 30
0.0
  9
$UCSYDIR
 10
0.0
 20
1.0
 30
0.0
  9
$PUCSNAME
  2

  9
$PUCSORG
 10
0.0
 20
0.0
 30
0.0
  9
$PUCSXDIR
 10
1.0
 20
0.0
 30
0.0
  9
$PUCSYDIR
 10
0.0
 20
1.0
 30
0.0
  9
$USERI1
 70
     0
  9
$USERI2
 70
     0
  9
$USERI3
 70
     0
  9
$USERI4
 70
     0
  9
$USERI5
 70
     0
  9
$USERR1
 40
0.0
  9
$USERR2
 40
0.0
  9
$USERR3
 40
0.0
  9
$USERR4
 40
0.0
  9
$USERR5
 40
0.0
  9
$WORLDVIEW
 70
     1
  9
$SHADEDGE
 70
     3
  9
$SHADEDIF
 70
    70
  9
$TILEMODE
 70
     1
  9
$MAXACTVP
 70
    48
  9
$PLIMCHECK
 70
     0
  9
$PEXTMIN
 10
1.0000000000000000E+020
 20
1.0000000000000000E+020
 30
1.0000000000000000E+020
  9
$PEXTMAX
 10
-1.0000000000000000E+020
 20
-1.0000000000000000E+020
 30
-1.0000000000000000E+020
  9
$PLIMMIN
 10
0.0
 20
0.0
  9
$PLIMMAX
 10
12.0
 20
9.0
  9
$UNITMODE
 70
     0
  9
$VISRETAIN
 70
     1
  9
$PLINEGEN
 70
     0
  9
$PSLTSCALE
 70
     1
  0
ENDSEC
  0
SECTION
  2
TABLES
  0
TABLE
  2
VPORT
 70
     1
  0
VPORT
  2
*ACTIVE
 70
     0
 10
0.0
 20
0.0
 11
1.0
 21
1.0
 12
197.0277451411859
 22
148.72499999999991
 13
0.0
 23
0.0
 14
1.0
 24
1.0
 15
0.0
 25
0.0
 16
0.0
 26
0.0
 36
1.0
 17
0.0
 27
0.0
 37
0.0
 40
285.74693752941619
 41
2.2716468590831909
 42
50.0
 43
0.0
 44
0.0
 50
0.0
 51
0.0
 71
     0
 72
   100
 73
     1
 74
     1
 75
     0
 76
     0
 77
     0
 78
     0
  0
ENDTAB
  0
TABLE
  2
LTYPE
 70
     2
  0
LTYPE
  2
CONTINUOUS
 70
     0
  3
Solid line
 72
    65
 73
     0
 40
0.0
  0
LTYPE
  2
AIGENLINE001
 70
     0
  3
generate AI->DXF Converter
 72
    65
 73
     4
 40
5.8561449999999988
 49
3.5278
 49
-0.776115
 49
0.776115
 49
-0.776115
  0
ENDTAB
  0
TABLE
  2
LAYER
 70
     4
  0
LAYER
  2
0
 70
     0
 62
     7
  6
CONTINUOUS
  0
LAYER
  2
____
 70
     0
 62
     7
  6
CONTINUOUS
  0
LAYER
  2
_________1
 70
     0
 62
     7
  6
CONTINUOUS
  0
LAYER
  2
_________2
 70
     0
 62
     7
  6
CONTINUOUS
  0
ENDTAB
  0
TABLE
  2
STYLE
 70
     1
  0
STYLE
  2
STANDARD
 70
     0
 40
0.0
 41
0.0
 50
0.0
 71
     0
 42
0.0
  3
TXT
  4
EXTFONT.SHX
  0
ENDTAB
  0
TABLE
  2
VIEW
 70
     0
  0
ENDTAB
  0
TABLE
  2
UCS
 70
     0
  0
ENDTAB
  0
TABLE
  2
APPID
 70
     3
  0
APPID
  2
ACAD
 70
     0
  0
APPID
  2
ACAD_NAV_VCDISPLAY
 70
     0
  0
APPID
  2
ACAD_MLEADERVER
 70
     0
  0
ENDTAB
  0
TABLE
  2
DIMSTYLE
 70
     1
  0
DIMSTYLE
  2
STANDARD
 70
     0
  3

  4

  5

  6

  7

 40
1.0
 41
0.18
 42
0.0625
 43
0.38
 44
0.18
 45
0.0
 46
0.0
 47
0.0
 48
0.0
140
0.18
141
0.09
142
0.0
143
25.399999999999999
144
1.0
145
0.0
146
1.0
147
0.09
 71
     0
 72
     0
 73
     1
 74
     1
 75
     0
 76
     0
 77
     0
 78
     0
170
     0
171
     2
172
     0
173
     0
174
     0
175
     0
176
     0
177
     0
178
     0
  0
ENDTAB
  0
ENDSEC
  0
SECTION
  2
BLOCKS
  0
BLOCK
  8
0
  2
$MODEL_SPACE
 70
     0
 10
0.0
 20
0.0
 30
0.0
  3
$MODEL_SPACE
  1

  0
ENDBLK
  5
1A
  8
0
  0
BLOCK
 67
     1
  8
0
  2
$PAPER_SPACE
 70
     0
 10
0.0
 20
0.0
 30
0.0
  3
$PAPER_SPACE
  1

  0
ENDBLK
  5
17
 67
     1
  8
0
  0
BLOCK
  8
_________1
  2
AIGNBL02010002
 70
     0
 10
0.0
 20
0.0
 30
0.0
  3
AIGNBL02010002
  1

  0
LINE
  5
26
  8
_________1
 62
     7
 10
136.28299999999999
 20
120.66800000000001
 30
0.0
 11
135.691
 21
122.879
 31
0.0
  0
LINE
  5
27
  8
_________1
 62
     7
 10
135.691
 20
122.879
 30
0.0
 11
135.09899999999999
 21
120.66800000000001
 31
0.0
  0
LINE
  5
28
  8
_________1
 62
     7
 10
135.09899999999999
 20
120.66800000000001
 30
0.0
 11
136.28299999999999
 21
120.66800000000001
 31
0.0
  0
LINE
  5
29
  8
_________1
 62
     7
 10
135.10599999999999
 20
119.59
 30
0.0
 11
135.69800000000001
 21
117.378
 31
0.0
  0
LINE
  5
2A
  8
_________1
 62
     7
 10
135.69800000000001
 20
117.378
 30
0.0
 11
136.291
 21
119.59
 31
0.0
  0
LINE
  5
2B
  8
_________1
 62
     7
 10
136.291
 20
119.59
 30
0.0
 11
135.10599999999999
 21
119.59
 31
0.0
  0
LINE
  5
2C
  8
_________1
 62
     7
 10
135.69499999999999
 20
122.879
 30
0.0
 11
135.69499999999999
 21
117.378
 31
0.0
  0
ENDBLK
  5
2D
  8
_________1
  0
BLOCK
  8
_________1
  2
AIGNBL02010003
 70
     0
 10
0.0
 20
0.0
 30
0.0
  3
AIGNBL02010003
  1

  0
LINE
  5
30
  8
_________1
 62
     7
 10
136.28299999999999
 20
135.66800000000001
 30
0.0
 11
135.691
 21
137.87799999999999
 31
0.0
  0
LINE
  5
31
  8
_________1
 62
     7
 10
135.691
 20
137.87799999999999
 30
0.0
 11
135.09899999999999
 21
135.66800000000001
 31
0.0
  0
LINE
  5
32
  8
_________1
 62
     7
 10
135.09899999999999
 20
135.66800000000001
 30
0.0
 11
136.28299999999999
 21
135.66800000000001
 31
0.0
  0
LINE
  5
33
  8
_________1
 62
     7
 10
135.10599999999999
 20
125.089
 30
0.0
 11
135.69800000000001
 21
122.879
 31
0.0
  0
LINE
  5
34
  8
_________1
 62
     7
 10
135.69800000000001
 20
122.879
 30
0.0
 11
136.291
 21
125.089
 31
0.0
  0
LINE
  5
35
  8
_________1
 62
     7
 10
136.291
 20
125.089
 30
0.0
 11
135.10599999999999
 21
125.089
 31
0.0
  0
LINE
  5
36
  8
_________1
 62
     7
 10
135.69499999999999
 20
137.87799999999999
 30
0.0
 11
135.69499999999999
 21
122.879
 31
0.0
  0
ENDBLK
  5
37
  8
_________1
  0
BLOCK
  8
_________1
  2
AIGNBL02010004
 70
     0
 10
0.0
 20
0.0
 30
0.0
  3
AIGNBL02010004
  1

  0
LINE
  5
3A
  8
_________1
 62
     7
 10
136.28299999999999
 20
156.66800000000001
 30
0.0
 11
135.691
 21
158.87799999999999
 31
0.0
  0
LINE
  5
3B
  8
_________1
 62
     7
 10
135.691
 20
158.87799999999999
 30
0.0
 11
135.09899999999999
 21
156.66800000000001
 31
0.0
  0
LINE
  5
3C
  8
_________1
 62
     7
 10
135.09899999999999
 20
156.66800000000001
 30
0.0
 11
136.28299999999999
 21
156.66800000000001
 31
0.0
  0
LINE
  5
3D
  8
_________1
 62
     7
 10
135.10599999999999
 20
140.089
 30
0.0
 11
135.69800000000001
 21
137.87799999999999
 31
0.0
  0
LINE
  5
3E
  8
_________1
 62
     7
 10
135.69800000000001
 20
137.87799999999999
 30
0.0
 11
136.291
 21
140.089
 31
0.0
  0
LINE
  5
3F
  8
_________1
 62
     7
 10
136.291
 20
140.089
 30
0.0
 11
135.10599999999999
 21
140.089
 31
0.0
  0
LINE
  5
40
  8
_________1
 62
     7
 10
135.69499999999999
 20
158.87799999999999
 30
0.0
 11
135.69499999999999
 21
137.87799999999999
 31
0.0
  0
ENDBLK
  5
41
  8
_________1
  0
BLOCK
  8
_________1
  2
AIGNBL02010005
 70
     0
 10
0.0
 20
0.0
 30
0.0
  3
AIGNBL02010005
  1

  0
LINE
  5
44
  8
_________1
 62
     7
 10
136.28299999999999
 20
169.66800000000001
 30
0.0
 11
135.691
 21
171.87899999999999
 31
0.0
  0
LINE
  5
45
  8
_________1
 62
     7
 10
135.691
 20
171.87899999999999
 30
0.0
 11
135.09899999999999
 21
169.66800000000001
 31
0.0
  0
LINE
  5
46
  8
_________1
 62
     7
 10
135.09899999999999
 20
169.66800000000001
 30
0.0
 11
136.28299999999999
 21
169.66800000000001
 31
0.0
  0
LINE
  5
47
  8
_________1
 62
     7
 10
135.10599999999999
 20
169.09
 30
0.0
 11
135.69800000000001
 21
166.87899999999999
 31
0.0
  0
LINE
  5
48
  8
_________1
 62
     7
 10
135.69800000000001
 20
166.87899999999999
 30
0.0
 11
136.291
 21
169.09
 31
0.0
  0
LINE
  5
49
  8
_________1
 62
     7
 10
136.291
 20
169.09
 30
0.0
 11
135.10599999999999
 21
169.09
 31
0.0
  0
LINE
  5
4A
  8
_________1
 62
     7
 10
135.69499999999999
 20
171.87899999999999
 30
0.0
 11
135.69499999999999
 21
166.87899999999999
 31
0.0
  0
ENDBLK
  5
4B
  8
_________1
  0
BLOCK
  8
_________1
  2
AIGNBL02010006
 70
     0
 10
0.0
 20
0.0
 30
0.0
  3
AIGNBL02010006
  1

  0
LINE
  5
4E
  8
_________1
 62
     7
 10
136.28299999999999
 20
164.66800000000001
 30
0.0
 11
135.691
 21
166.87899999999999
 31
0.0
  0
LINE
  5
4F
  8
_________1
 62
     7
 10
135.691
 20
166.87899999999999
 30
0.0
 11
135.09899999999999
 21
164.66800000000001
 31
0.0
  0
LINE
  5
50
  8
_________1
 62
     7
 10
135.09899999999999
 20
164.66800000000001
 30
0.0
 11
136.28299999999999
 21
164.66800000000001
 31
0.0
  0
LINE
  5
51
  8
_________1
 62
     7
 10
135.10599999999999
 20
161.09
 30
0.0
 11
135.69800000000001
 21
158.87799999999999
 31
0.0
  0
LINE
  5
52
  8
_________1
 62
     7
 10
135.69800000000001
 20
158.87799999999999
 30
0.0
 11
136.291
 21
161.09
 31
0.0
  0
LINE
  5
53
  8
_________1
 62
     7
 10
136.291
 20
161.09
 30
0.0
 11
135.10599999999999
 21
161.09
 31
0.0
  0
LINE
  5
54
  8
_________1
 62
     7
 10
135.69499999999999
 20
166.87899999999999
 30
0.0
 11
135.69499999999999
 21
158.87799999999999
 31
0.0
  0
ENDBLK
  5
55
  8
_________1
  0
BLOCK
  8
_________1
  2
AIGNBL02010007
 70
     0
 10
0.0
 20
0.0
 30
0.0
  3
AIGNBL02010007
  1

  0
LINE
  5
58
  8
_________1
 62
     7
 10
114.946
 20
107.98999999999999
 30
0.0
 11
117.15600000000001
 21
108.581
 31
0.0
  0
LINE
  5
59
  8
_________1
 62
     7
 10
117.15600000000001
 20
108.581
 30
0.0
 11
114.946
 21
109.17400000000001
 31
0.0
  0
LINE
  5
5A
  8
_________1
 62
     7
 10
114.946
 20
109.17400000000001
 30
0.0
 11
114.946
 21
107.98999999999999
 31
0.0
  0
LINE
  5
5B
  8
_________1
 62
     7
 10
98.780799999999999
 20
109.167
 30
0.0
 11
96.569700000000012
 21
108.575
 31
0.0
  0
LINE
  5
5C
  8
_________1
 62
     7
 10
96.569700000000012
 20
108.575
 30
0.0
 11
98.780799999999999
 21
107.982
 31
0.0
  0
LINE
  5
5D
  8
_________1
 62
     7
 10
98.780799999999999
 20
107.982
 30
0.0
 11
98.780799999999999
 21
109.167
 31
0.0
  0
LINE
  5
5E
  8
_________1
 62
     7
 10
117.15600000000001
 20
108.578
 30
0.0
 11
96.569700000000012
 21
108.578
 31
0.0
  0
ENDBLK
  5
5F
  8
_________1
  0
BLOCK
  8
_________1
  2
AIGNBL02010008
 70
     0
 10
0.0
 20
0.0
 30
0.0
  3
AIGNBL02010008
  1

  0
LINE
  5
62
  8
_________1
 62
     7
 10
116.85599999999999
 20
212.29300000000001
 30
0.0
 11
118.0
 21
214.27500000000001
 31
0.0
  0
LINE
  5
63
  8
_________1
 62
     7
 10
118.0
 20
214.27500000000001
 30
0.0
 11
116.018
 21
213.131
 31
0.0
  0
LINE
  5
64
  8
_________1
 62
     7
 10
116.018
 20
213.131
 30
0.0
 11
116.85599999999999
 21
212.29300000000001
 31
0.0
  0
LINE
  5
65
  8
_________1
 62
     7
 10
96.872900000000001
 20
193.98099999999999
 30
0.0
 11
95.728399999999993
 21
191.99799999999999
 31
0.0
  0
LINE
  5
66
  8
_________1
 62
     7
 10
95.728399999999993
 20
191.99799999999999
 30
0.0
 11
97.710800000000006
 21
193.143
 31
0.0
  0
LINE
  5
67
  8
_________1
 62
     7
 10
97.710800000000006
 20
193.143
 30
0.0
 11
96.872900000000001
 21
193.98099999999999
 31
0.0
  0
LINE
  5
68
  8
_________1
 62
     7
 10
118.003
 20
214.27199999999999
 30
0.0
 11
95.725999999999985
 21
192.00099999999989
 31
0.0
  0
ENDBLK
  5
69
  8
_________1
  0
BLOCK
  8
_________1
  2
AIGNBL02010009
 70
     0
 10
0.0
 20
0.0
 30
0.0
  3
AIGNBL02010009
  1

  0
LINE
  5
6C
  8
_________1
  6
AIGENLINE001
 62
     7
 10
85.154300000000006
 20
203.13800000000001
 30
0.0
 11
127.434
 21
203.13800000000001
 31
0.0
  0
ENDBLK
  5
6D
  8
_________1
  0
BLOCK
  8
_________1
  2
AIGNBL0201000A
 70
     0
 10
0.0
 20
0.0
 30
0.0
  3
AIGNBL0201000A
  1

  0
LINE
  5
70
  8
_________1
  6
AIGENLINE001
 62
     7
 10
106.863
 20
224.41200000000001
 30
0.0
 11
106.863
 21
182.13300000000001
 31
0.0
  0
ENDBLK
  5
71
  8
_________1
  0
BLOCK
  8
_________1
  2
AIGNBL0201000B
 70
     0
 10
0.0
 20
0.0
 30
0.0
  3
AIGNBL0201000B
  1

  0
LINE
  5
74
  8
_________1
  6
AIGENLINE001
 62
     7
 10
106.863
 20
173.19999999999999
 30
0.0
 11
106.863
 21
114.324
 31
0.0
  0
ENDBLK
  5
75
  8
_________1
  0
BLOCK
  8
_________1
  2
AIGNBL0201000C
 70
     0
 10
0.0
 20
0.0
 30
0.0
  3
AIGNBL0201000C
  1

  0
LINE
  5
78
  8
_________1
 62
     7
 10
97.214100000000002
 20
122.13500000000001
 30
0.0
 11
97.214100000000002
 21
117.52800000000001
 31
0.0
  0
ENDBLK
  5
79
  8
_________1
  0
BLOCK
  8
_________1
  2
AIGNBL0201000D
 70
     0
 10
0.0
 20
0.0
 30
0.0
  3
AIGNBL0201000D
  1

  0
LINE
  5
7C
  8
_________1
 62
     7
 10
116.511
 20
117.52800000000001
 30
0.0
 11
116.511
 21
122.13500000000001
 31
0.0
  0
ENDBLK
  5
7D
  8
_________1
  0
BLOCK
  8
_________1
  2
AIGNBL0201000E
 70
     0
 10
0.0
 20
0.0
 30
0.0
  3
AIGNBL0201000E
  1

  0
LINE
  5
80
  8
_________1
 62
     7
 10
95.949799999999996
 20
133.77099999999999
 30
0.0
 11
117.776
 21
133.77099999999999
 31
0.0
  0
ENDBLK
  5
81
  8
_________1
  0
BLOCK
  8
_________1
  2
AIGNBL0201000F
 70
     0
 10
0.0
 20
0.0
 30
0.0
  3
AIGNBL0201000F
  1

  0
LINE
  5
84
  8
_________1
 62
     7
 10
95.766000000000005
 20
134.029
 30
0.0
 11
117.95999999999999
 21
134.029
 31
0.0
  0
ENDBLK
  5
85
  8
_________1
  0
BLOCK
  8
_________1
  2
AIGNBL02010010
 70
     0
 10
0.0
 20
0.0
 30
0.0
  3
AIGNBL02010010
  1

  0
LINE
  5
88
  8
_________1
 62
     7
 10
91.361099999999993
 20
135.81200000000001
 30
0.0
 11
122.36499999999999
 21
135.81200000000001
 31
0.0
  0
ENDBLK
  5
89
  8
_________1
  0
BLOCK
  8
_________1
  2
AIGNBL02010011
 70
     0
 10
0.0
 20
0.0
 30
0.0
  3
AIGNBL02010011
  1

  0
LINE
  5
8C
  8
_________1
 62
     7
 10
91.579099999999997
 20
136.37799999999999
 30
0.0
 11
122.14700000000001
 21
136.37799999999999
 31
0.0
  0
ENDBLK
  5
8D
  8
_________1
  0
BLOCK
  8
_________1
  2
AIGNBL02010012
 70
     0
 10
0.0
 20
0.0
 30
0.0
  3
AIGNBL02010012
  1

  0
LINE
  5
90
  8
_________1
 62
     7
 10
92.755499999999998
 20
137.64400000000001
 30
0.0
 11
120.97
 21
137.64400000000001
 31
0.0
  0
ENDBLK
  5
91
  8
_________1
  0
BLOCK
  8
_________1
  2
AIGNBL02010013
 70
     0
 10
0.0
 20
0.0
 30
0.0
  3
AIGNBL02010013
  1

  0
LINE
  5
94
  8
_________1
 62
     7
 10
96.823300000000003
 20
161.96799999999999
 30
0.0
 11
116.90300000000001
 21
161.96799999999999
 31
0.0
  0
ENDBLK
  5
95
  8
_________1
  0
BLOCK
  8
_________1
  2
AIGNBL02010014
 70
     0
 10
0.0
 20
0.0
 30
0.0
  3
AIGNBL02010014
  1

  0
LINE
  5
98
  8
_________1
 62
     7
 10
96.823300000000003
 20
162.46199999999999
 30
0.0
 11
116.90300000000001
 21
162.46199999999999
 31
0.0
  0
ENDBLK
  5
99
  8
_________1
  0
BLOCK
  8
_________1
  2
AIGNBL02010015
 70
     0
 10
0.0
 20
0.0
 30
0.0
  3
AIGNBL02010015
  1

  0
LINE
  5
9C
  8
_________1
 62
     7
 10
98.642700000000005
 20
161.285
 30
0.0
 11
115.083
 21
161.285
 31
0.0
  0
ENDBLK
  5
9D
  8
_________1
  0
BLOCK
  8
_________1
  2
AIGNBL02010016
 70
     0
 10
0.0
 20
0.0
 30
0.0
  3
AIGNBL02010016
  1

  0
LINE
  5
A0
  8
_________1
 62
     7
 10
115.083
 20
163.14599999999999
 30
0.0
 11
98.642700000000005
 21
163.14599999999999
 31
0.0
  0
ENDBLK
  5
A1
  8
_________1
  0
BLOCK
  8
_________1
  2
AIGNBL02010017
 70
     0
 10
0.0
 20
0.0
 30
0.0
  3
AIGNBL02010017
  1

  0
LINE
  5
A4
  8
_________1
 62
     7
 10
91.112999999999985
 20
167.47
 30
0.0
 11
122.613
 21
167.47
 31
0.0
  0
ENDBLK
  5
A5
  8
_________1
  0
BLOCK
  8
_________1
  2
AIGNBL02010018
 70
     0
 10
0.0
 20
0.0
 30
0.0
  3
AIGNBL02010018
  1

  0
LINE
  5
A8
  8
_________1
 62
     7
 10
122.404
 20
166.87899999999999
 30
0.0
 11
122.613
 21
167.02699999999999
 31
0.0
  0
ENDBLK
  5
A9
  8
_________1
  0
BLOCK
  8
_________1
  2
AIGNBL02010019
 70
     0
 10
0.0
 20
0.0
 30
0.0
  3
AIGNBL02010019
  1

  0
LINE
  5
AC
  8
_________1
 62
     7
 10
91.322299999999984
 20
166.87899999999999
 30
0.0
 11
91.113200000000006
 21
167.02699999999999
 31
0.0
  0
ENDBLK
  5
AD
  8
_________1
  0
BLOCK
  8
_________1
  2
AIGNBL0201001A
 70
     0
 10
0.0
 20
0.0
 30
0.0
  3
AIGNBL0201001A
  1

  0
LINE
  5
B0
  8
_________1
 62
     7
 10
122.613
 20
167.02699999999999
 30
0.0
 11
122.613
 21
167.47
 31
0.0
  0
ENDBLK
  5
B1
  8
_________1
  0
BLOCK
  8
_________1
  2
AIGNBL0201001B
 70
     0
 10
0.0
 20
0.0
 30
0.0
  3
AIGNBL0201001B
  1

  0
LINE
  5
B4
  8
_________1
 62
     7
 10
91.113200000000006
 20
167.02699999999999
 30
0.0
 11
91.112999999999985
 21
167.47
 31
0.0
  0
ENDBLK
  5
B5
  8
_________1
  0
BLOCK
  8
_________1
  2
AIGNBL0201001C
 70
     0
 10
0.0
 20
0.0
 30
0.0
  3
AIGNBL0201001C
  1

  0
ARC
  5
B8
  8
_________1
 62
     7
 10
121.95922
 20
167.48697999999999
 30
0.0
 40
0.653755
 50
358.518597
 51
52.064253000000001
  0
ARC
  5
B9
  8
_________1
 62
     7
 10
122.164818
 20
167.71145899999999
 30
0.0
 40
0.351142
 50
56.007904000000011
 51
64.162150999999994
  0
ENDBLK
  5
BA
  8
_________1
  0
BLOCK
  8
_________1
  2
AIGNBL0201001D
 70
     0
 10
0.0
 20
0.0
 30
0.0
  3
AIGNBL0201001D
  1

  0
ARC
  5
BD
  8
_________1
 62
     7
 10
91.571106000000015
 20
167.69079600000001
 30
0.0
 40
0.374014
 50
115.810346
 51
134.37967800000001
  0
ARC
  5
BE
  8
_________1
 62
     7
 10
91.760637000000003
 20
167.492898
 30
0.0
 40
0.648022
 50
134.11875900000001
 51
182.01803100000001
  0
ENDBLK
  5
BF
  8
_________1
  0
BLOCK
  8
_________1
  2
AIGNBL0201001E
 70
     0
 10
0.0
 20
0.0
 30
0.0
  3
AIGNBL0201001E
  1

  0
ARC
  5
C2
  8
_________1
 62
     7
 10
110.865714
 20
149.14876000000001
 30
0.0
 40
22.080722000000002
 50
58.758331999999982
 51
68.63737900000001
  0
ARC
  5
C3
  8
_________1
 62
     7
 10
108.498745
 20
143.546435
 30
0.0
 40
28.160822
 50
68.304540000000003
 51
78.496337999999994
  0
ARC
  5
C4
  8
_________1
 62
     7
 10
106.881615
 20
136.46509599999999
 30
0.0
 40
35.422834999999999
 50
78.217466000000002
 51
105.129226
  0
ARC
  5
C5
  8
_________1
 62
     7
 10
105.075017
 20
143.9748699999999
 30
0.0
 40
27.702677999999999
 50
105.57607
 51
114.729681
  0
ARC
  5
C6
  8
_________1
 62
     7
 10
102.939764
 20
148.93305599999999
 30
0.0
 40
22.306349999999998
 50
115.07584
 51
121.128573
  0
ENDBLK
  5
C7
  8
_________1
  0
BLOCK
  8
_________1
  2
AIGNBL0201001F
 70
     0
 10
0.0
 20
0.0
 30
0.0
  3
AIGNBL0201001F
  1

  0
LINE
  5
CA
  8
_________1
 62
     7
 10
91.322299999999984
 20
166.87899999999999
 30
0.0
 11
122.404
 21
166.87899999999999
 31
0.0
  0
ENDBLK
  5
CB
  8
_________1
  0
BLOCK
  8
_________1
  2
AIGNBL02010020
 70
     0
 10
0.0
 20
0.0
 30
0.0
  3
AIGNBL02010020
  1

  0
LINE
  5
CE
  8
_________1
 62
     7
 10
91.113200000000006
 20
167.02699999999999
 30
0.0
 11
122.613
 21
167.02699999999999
 31
0.0
  0
ENDBLK
  5
CF
  8
_________1
  0
BLOCK
  8
_________1
  2
AIGNBL02010021
 70
     0
 10
0.0
 20
0.0
 30
0.0
  3
AIGNBL02010021
  1

  0
LINE
  5
D2
  8
_________1
 62
     7
 10
91.408299999999997
 20
168.02699999999999
 30
0.0
 11
122.318
 21
168.02699999999999
 31
0.0
  0
ENDBLK
  5
D3
  8
_________1
  0
BLOCK
  8
_________1
  2
AIGNBL02010022
 70
     0
 10
0.0
 20
0.0
 30
0.0
  3
AIGNBL02010022
  1

  0
LINE
  5
D6
  8
_________1
 62
     7
 10
97.263900000000021
 20
140.02799999999999
 30
0.0
 11
97.263900000000021
 21
137.87799999999999
 31
0.0
  0
ENDBLK
  5
D7
  8
_________1
  0
BLOCK
  8
_________1
  2
AIGNBL02010023
 70
     0
 10
0.0
 20
0.0
 30
0.0
  3
AIGNBL02010023
  1

  0
LINE
  5
DA
  8
_________1
 62
     7
 10
116.462
 20
137.87799999999999
 30
0.0
 11
116.462
 21
140.02799999999999
 31
0.0
  0
ENDBLK
  5
DB
  8
_________1
  0
BLOCK
  8
_________1
  2
AIGNBL02010024
 70
     0
 10
0.0
 20
0.0
 30
0.0
  3
AIGNBL02010024
  1

  0
LINE
  5
DE
  8
_________1
 62
     7
 10
96.743499999999997
 20
153.864
 30
0.0
 11
116.982
 21
153.864
 31
0.0
  0
ENDBLK
  5
DF
  8
_________1
  0
BLOCK
  8
_________1
  2
AIGNBL02010025
 70
     0
 10
0.0
 20
0.0
 30
0.0
  3
AIGNBL02010025
  1

  0
LINE
  5
E2
  8
_________1
 62
     7
 10
96.569700000000012
 20
122.13500000000001
 30
0.0
 11
117.15600000000001
 21
122.13500000000001
 31
0.0
  0
ENDBLK
  5
E3
  8
_________1
  0
BLOCK
  8
_________1
  2
AIGNBL02010026
 70
     0
 10
0.0
 20
0.0
 30
0.0
  3
AIGNBL02010026
  1

  0
LINE
  5
E6
  8
_________1
 62
     7
 10
96.273499999999984
 20
124.614
 30
0.0
 11
96.273499999999984
 21
132.21899999999999
 31
0.0
  0
ENDBLK
  5
E7
  8
_________1
  0
BLOCK
  8
_________1
  2
AIGNBL02010027
 70
     0
 10
0.0
 20
0.0
 30
0.0
  3
AIGNBL02010027
  1

  0
ARC
  5
EA
  8
_________1
 62
     7
 10
99.103172999999998
 20
126.14281200000001
 30
0.0
 40
6.7032100000000003
 50
100.142346
 51
114.969972
  0
ARC
  5
EB
  8
_________1
 62
     7
 10
98.85283299999999
 20
127.142051
 30
0.0
 40
5.6759399999999989
 50
70.59333199999999
 51
99.430984999999993
  0
ARC
  5
EC
  8
_________1
 62
     7
 10
98.520189999999999
 20
126.01343
 30
0.0
 40
6.8512380000000004
 50
64.934889999999996
 51
71.105682999999999
  0
ENDBLK
  5
ED
  8
_________1
  0
BLOCK
  8
_________1
  2
AIGNBL02010028
 70
     0
 10
0.0
 20
0.0
 30
0.0
  3
AIGNBL02010028
  1

  0
LINE
  5
F0
  8
_________1
 62
     7
 10
101.423
 20
132.21899999999999
 30
0.0
 11
101.423
 21
124.614
 31
0.0
  0
ENDBLK
  5
F1
  8
_________1
  0
BLOCK
  8
_________1
  2
AIGNBL02010029
 70
     0
 10
0.0
 20
0.0
 30
0.0
  3
AIGNBL02010029
  1

  0
ARC
  5
F4
  8
_________1
 62
     7
 10
98.590361999999999
 20
130.69601299999999
 30
0.0
 40
6.7094639999999988
 50
280.15464300000002
 51
294.96984099999997
  0
ARC
  5
F5
  8
_________1
 62
     7
 10
98.843373999999983
 20
129.68989300000001
 30
0.0
 40
5.6749489999999989
 50
250.588742
 51
279.43107700000002
  0
ARC
  5
F6
  8
_________1
 62
     7
 10
99.171452000000002
 20
130.805319
 30
0.0
 40
6.836282999999999
 50
244.91808
 51
251.102339
  0
ENDBLK
  5
F7
  8
_________1
  0
BLOCK
  8
_________1
  2
AIGNBL0201002A
 70
     0
 10
0.0
 20
0.0
 30
0.0
  3
AIGNBL0201002A
  1

  0
LINE
  5
FA
  8
_________1
 62
     7
 10
103.22199999999999
 20
124.614
 30
0.0
 11
103.22199999999999
 21
132.21899999999999
 31
0.0
  0
ENDBLK
  5
FB
  8
_________1
  0
BLOCK
  8
_________1
  2
AIGNBL0201002B
 70
     0
 10
0.0
 20
0.0
 30
0.0
  3
AIGNBL0201002B
  1

  0
ARC
  5
FE
  8
_________1
 62
     7
 10
106.96817799999999
 20
120.836304
 30
0.0
 40
11.983775
 50
91.047427999999982
 51
108.216657
  0
ARC
  5
FF
  8
_________1
 62
     7
 10
106.858881
 20
121.431589
 30
0.0
 40
11.387017
 50
71.331055000000006
 51
90.552323999999984
  0
ENDBLK
  5
100
  8
_________1
  0
BLOCK
  8
_________1
  2
AIGNBL0201002C
 70
     0
 10
0.0
 20
0.0
 30
0.0
  3
AIGNBL0201002C
  1

  0
LINE
  5
103
  8
_________1
 62
     7
 10
110.504
 20
132.21899999999999
 30
0.0
 11
110.504
 21
124.614
 31
0.0
  0
ENDBLK
  5
104
  8
_________1
  0
BLOCK
  8
_________1
  2
AIGNBL0201002D
 70
     0
 10
0.0
 20
0.0
 30
0.0
  3
AIGNBL0201002D
  1

  0
ARC
  5
107
  8
_________1
 62
     7
 10
106.755771
 20
136.00241800000001
 30
0.0
 40
11.989641000000001
 50
271.055655
 51
288.21663000000001
  0
ARC
  5
108
  8
_________1
 62
     7
 10
106.866907
 20
135.39673999999999
 30
0.0
 40
11.382457
 50
251.32324
 51
270.55248899999998
  0
ENDBLK
  5
109
  8
_________1
  0
BLOCK
  8
_________1
  2
AIGNBL0201002E
 70
     0
 10
0.0
 20
0.0
 30
0.0
  3
AIGNBL0201002E
  1

  0
LINE
  5
10C
  8
_________1
 62
     7
 10
112.303
 20
124.614
 30
0.0
 11
112.303
 21
132.21899999999999
 31
0.0
  0
ENDBLK
  5
10D
  8
_________1
  0
BLOCK
  8
_________1
  2
AIGNBL0201002F
 70
     0
 10
0.0
 20
0.0
 30
0.0
  3
AIGNBL0201002F
  1

  0
ARC
  5
110
  8
_________1
 62
     7
 10
115.132935
 20
126.142865
 30
0.0
 40
6.7031520000000002
 50
100.142129
 51
114.96997399999999
  0
ARC
  5
111
  8
_________1
 62
     7
 10
114.88269699999999
 20
127.14208000000001
 30
0.0
 40
5.675921999999999
 50
70.592954000000006
 51
99.431704999999994
  0
ARC
  5
112
  8
_________1
 62
     7
 10
114.551492
 20
126.01624
 30
0.0
 40
6.8481229999999993
 50
64.935112000000004
 51
71.109217000000001
  0
ENDBLK
  5
113
  8
_________1
  0
BLOCK
  8
_________1
  2
AIGNBL02010030
 70
     0
 10
0.0
 20
0.0
 30
0.0
  3
AIGNBL02010030
  1

  0
LINE
  5
116
  8
_________1
 62
     7
 10
117.453
 20
132.21899999999999
 30
0.0
 11
117.453
 21
124.614
 31
0.0
  0
ENDBLK
  5
117
  8
_________1
  0
BLOCK
  8
_________1
  2
AIGNBL02010031
 70
     0
 10
0.0
 20
0.0
 30
0.0
  3
AIGNBL02010031
  1

  0
ARC
  5
11A
  8
_________1
 62
     7
 10
114.620589
 20
130.69543200000001
 30
0.0
 40
6.7088239999999999
 50
280.152263
 51
294.969854
  0
ARC
  5
11B
  8
_________1
 62
     7
 10
114.873217
 20
129.690336
 30
0.0
 40
5.6753869999999997
 50
250.58969300000001
 51
279.430316
  0
ARC
  5
11C
  8
_________1
 62
     7
 10
115.201238
 20
130.805319
 30
0.0
 40
6.836282999999999
 50
244.91808
 51
251.102339
  0
ENDBLK
  5
11D
  8
_________1
  0
BLOCK
  8
_________1
  2
AIGNBL02010032
 70
     0
 10
0.0
 20
0.0
 30
0.0
  3
AIGNBL02010032
  1

  0
LINE
  5
120
  8
_________1
 62
     7
 10
118.19799999999999
 20
124.614
 30
0.0
 11
118.19799999999999
 21
132.21899999999999
 31
0.0
  0
ENDBLK
  5
121
  8
_________1
  0
BLOCK
  8
_________1
  2
AIGNBL02010033
 70
     0
 10
0.0
 20
0.0
 30
0.0
  3
AIGNBL02010033
  1

  0
LINE
  5
124
  8
_________1
 62
     7
 10
118.19799999999999
 20
132.21899999999999
 30
0.0
 11
118.19799999999999
 21
132.833
 31
0.0
  0
ENDBLK
  5
125
  8
_________1
  0
BLOCK
  8
_________1
  2
AIGNBL02010034
 70
     0
 10
0.0
 20
0.0
 30
0.0
  3
AIGNBL02010034
  1

  0
LINE
  5
128
  8
_________1
 62
     7
 10
118.19799999999999
 20
124.0
 30
0.0
 11
118.19799999999999
 21
124.614
 31
0.0
  0
ENDBLK
  5
129
  8
_________1
  0
BLOCK
  8
_________1
  2
AIGNBL02010035
 70
     0
 10
0.0
 20
0.0
 30
0.0
  3
AIGNBL02010035
  1

  0
LINE
  5
12C
  8
_________1
 62
     7
 10
95.528099999999995
 20
132.833
 30
0.0
 11
95.528099999999995
 21
132.21899999999999
 31
0.0
  0
ENDBLK
  5
12D
  8
_________1
  0
BLOCK
  8
_________1
  2
AIGNBL02010036
 70
     0
 10
0.0
 20
0.0
 30
0.0
  3
AIGNBL02010036
  1

  0
LINE
  5
130
  8
_________1
 62
     7
 10
95.528099999999995
 20
132.21899999999999
 30
0.0
 11
95.528099999999995
 21
124.614
 31
0.0
  0
ENDBLK
  5
131
  8
_________1
  0
BLOCK
  8
_________1
  2
AIGNBL02010037
 70
     0
 10
0.0
 20
0.0
 30
0.0
  3
AIGNBL02010037
  1

  0
LINE
  5
134
  8
_________1
 62
     7
 10
95.528099999999995
 20
124.614
 30
0.0
 11
95.528099999999995
 21
124.0
 31
0.0
  0
ENDBLK
  5
135
  8
_________1
  0
BLOCK
  8
_________1
  2
AIGNBL02010038
 70
     0
 10
0.0
 20
0.0
 30
0.0
  3
AIGNBL02010038
  1

  0
LINE
  5
138
  8
_________1
 62
     7
 10
117.15600000000001
 20
122.879
 30
0.0
 11
118.19799999999999
 21
124.0
 31
0.0
  0
ENDBLK
  5
139
  8
_________1
  0
BLOCK
  8
_________1
  2
AIGNBL02010039
 70
     0
 10
0.0
 20
0.0
 30
0.0
  3
AIGNBL02010039
  1

  0
LINE
  5
13C
  8
_________1
 62
     7
 10
96.569700000000012
 20
122.879
 30
0.0
 11
95.528099999999995
 21
124.0
 31
0.0
  0
ENDBLK
  5
13D
  8
_________1
  0
BLOCK
  8
_________1
  2
AIGNBL0201003A
 70
     0
 10
0.0
 20
0.0
 30
0.0
  3
AIGNBL0201003A
  1

  0
LINE
  5
140
  8
_________1
 62
     7
 10
95.949799999999996
 20
133.28700000000001
 30
0.0
 11
95.528099999999995
 21
132.833
 31
0.0
  0
ENDBLK
  5
141
  8
_________1
  0
BLOCK
  8
_________1
  2
AIGNBL0201003B
 70
     0
 10
0.0
 20
0.0
 30
0.0
  3
AIGNBL0201003B
  1

  0
LINE
  5
144
  8
_________1
 62
     7
 10
117.776
 20
133.28700000000001
 30
0.0
 11
118.19799999999999
 21
132.833
 31
0.0
  0
ENDBLK
  5
145
  8
_________1
  0
BLOCK
  8
_________1
  2
AIGNBL0201003C
 70
     0
 10
0.0
 20
0.0
 30
0.0
  3
AIGNBL0201003C
  1

  0
LINE
  5
148
  8
_________1
 62
     7
 10
95.949799999999996
 20
133.77099999999999
 30
0.0
 11
95.949799999999996
 21
133.28700000000001
 31
0.0
  0
ENDBLK
  5
149
  8
_________1
  0
BLOCK
  8
_________1
  2
AIGNBL0201003D
 70
     0
 10
0.0
 20
0.0
 30
0.0
  3
AIGNBL0201003D
  1

  0
LINE
  5
14C
  8
_________1
 62
     7
 10
117.776
 20
133.77099999999999
 30
0.0
 11
117.776
 21
133.28700000000001
 31
0.0
  0
ENDBLK
  5
14D
  8
_________1
  0
BLOCK
  8
_________1
  2
AIGNBL0201003E
 70
     0
 10
0.0
 20
0.0
 30
0.0
  3
AIGNBL0201003E
  1

  0
ARC
  5
150
  8
_________1
 62
     7
 10
118.014933
 20
133.813694
 30
0.0
 40
0.222104
 50
104.377752
 51
143.99344300000001
  0
ARC
  5
151
  8
_________1
 62
     7
 10
118.0551389999999
 20
133.77198899999999
 30
0.0
 40
0.279329
 50
141.92092700000001
 51
180.243245
  0
ENDBLK
  5
152
  8
_________1
  0
BLOCK
  8
_________1
  2
AIGNBL0201003F
 70
     0
 10
0.0
 20
0.0
 30
0.0
  3
AIGNBL0201003F
  1

  0
ARC
  5
155
  8
_________1
 62
     7
 10
95.678268000000003
 20
133.77188000000001
 30
0.0
 40
0.271523
 50
359.77259600000002
 51
71.150649000000001
  0
ENDBLK
  5
156
  8
_________1
  0
BLOCK
  8
_________1
  2
AIGNBL02010040
 70
     0
 10
0.0
 20
0.0
 30
0.0
  3
AIGNBL02010040
  1

  0
LINE
  5
159
  8
_________1
 62
     7
 10
117.95999999999999
 20
134.029
 30
0.0
 11
120.203
 21
134.67500000000001
 31
0.0
  0
ENDBLK
  5
15A
  8
_________1
  0
BLOCK
  8
_________1
  2
AIGNBL02010041
 70
     0
 10
0.0
 20
0.0
 30
0.0
  3
AIGNBL02010041
  1

  0
LINE
  5
15D
  8
_________1
 62
     7
 10
95.766000000000005
 20
134.029
 30
0.0
 11
93.522900000000007
 21
134.67500000000001
 31
0.0
  0
ENDBLK
  5
15E
  8
_________1
  0
BLOCK
  8
_________1
  2
AIGNBL02010042
 70
     0
 10
0.0
 20
0.0
 30
0.0
  3
AIGNBL02010042
  1

  0
LINE
  5
161
  8
_________1
 62
     7
 10
96.569700000000012
 20
122.879
 30
0.0
 11
96.569700000000012
 21
118.172
 31
0.0
  0
ENDBLK
  5
162
  8
_________1
  0
BLOCK
  8
_________1
  2
AIGNBL02010043
 70
     0
 10
0.0
 20
0.0
 30
0.0
  3
AIGNBL02010043
  1

  0
LINE
  5
165
  8
_________1
 62
     7
 10
117.15600000000001
 20
122.879
 30
0.0
 11
117.15600000000001
 21
118.172
 31
0.0
  0
ENDBLK
  5
166
  8
_________1
  0
BLOCK
  8
_________1
  2
AIGNBL02010044
 70
     0
 10
0.0
 20
0.0
 30
0.0
  3
AIGNBL02010044
  1

  0
LINE
  5
169
  8
_________1
 62
     7
 10
95.949799999999996
 20
133.28700000000001
 30
0.0
 11
117.776
 21
133.28700000000001
 31
0.0
  0
ENDBLK
  5
16A
  8
_________1
  0
BLOCK
  8
_________1
  2
AIGNBL02010045
 70
     0
 10
0.0
 20
0.0
 30
0.0
  3
AIGNBL02010045
  1

  0
LINE
  5
16D
  8
_________1
 62
     7
 10
95.528099999999995
 20
124.614
 30
0.0
 11
96.273499999999984
 21
124.614
 31
0.0
  0
ENDBLK
  5
16E
  8
_________1
  0
BLOCK
  8
_________1
  2
AIGNBL02010046
 70
     0
 10
0.0
 20
0.0
 30
0.0
  3
AIGNBL02010046
  1

  0
LINE
  5
171
  8
_________1
 62
     7
 10
95.528099999999995
 20
132.21899999999999
 30
0.0
 11
96.273499999999984
 21
132.21899999999999
 31
0.0
  0
ENDBLK
  5
172
  8
_________1
  0
BLOCK
  8
_________1
  2
AIGNBL02010047
 70
     0
 10
0.0
 20
0.0
 30
0.0
  3
AIGNBL02010047
  1

  0
LINE
  5
175
  8
_________1
 62
     7
 10
101.423
 20
132.21899999999999
 30
0.0
 11
103.22199999999999
 21
132.21899999999999
 31
0.0
  0
ENDBLK
  5
176
  8
_________1
  0
BLOCK
  8
_________1
  2
AIGNBL02010048
 70
     0
 10
0.0
 20
0.0
 30
0.0
  3
AIGNBL02010048
  1

  0
LINE
  5
179
  8
_________1
 62
     7
 10
101.423
 20
124.614
 30
0.0
 11
103.22199999999999
 21
124.614
 31
0.0
  0
ENDBLK
  5
17A
  8
_________1
  0
BLOCK
  8
_________1
  2
AIGNBL02010049
 70
     0
 10
0.0
 20
0.0
 30
0.0
  3
AIGNBL02010049
  1

  0
LINE
  5
17D
  8
_________1
 62
     7
 10
110.504
 20
132.21899999999999
 30
0.0
 11
112.303
 21
132.21899999999999
 31
0.0
  0
ENDBLK
  5
17E
  8
_________1
  0
BLOCK
  8
_________1
  2
AIGNBL0201004A
 70
     0
 10
0.0
 20
0.0
 30
0.0
  3
AIGNBL0201004A
  1

  0
LINE
  5
181
  8
_________1
 62
     7
 10
110.504
 20
124.614
 30
0.0
 11
112.303
 21
124.614
 31
0.0
  0
ENDBLK
  5
182
  8
_________1
  0
BLOCK
  8
_________1
  2
AIGNBL0201004B
 70
     0
 10
0.0
 20
0.0
 30
0.0
  3
AIGNBL0201004B
  1

  0
LINE
  5
185
  8
_________1
 62
     7
 10
117.453
 20
132.21899999999999
 30
0.0
 11
118.19799999999999
 21
132.21899999999999
 31
0.0
  0
ENDBLK
  5
186
  8
_________1
  0
BLOCK
  8
_________1
  2
AIGNBL0201004C
 70
     0
 10
0.0
 20
0.0
 30
0.0
  3
AIGNBL0201004C
  1

  0
LINE
  5
189
  8
_________1
 62
     7
 10
117.453
 20
124.614
 30
0.0
 11
118.19799999999999
 21
124.614
 31
0.0
  0
ENDBLK
  5
18A
  8
_________1
  0
BLOCK
  8
_________1
  2
AIGNBL0201004D
 70
     0
 10
0.0
 20
0.0
 30
0.0
  3
AIGNBL0201004D
  1

  0
LINE
  5
18D
  8
_________1
 62
     7
 10
96.569700000000012
 20
122.879
 30
0.0
 11
117.15600000000001
 21
122.879
 31
0.0
  0
ENDBLK
  5
18E
  8
_________1
  0
BLOCK
  8
_________1
  2
AIGNBL0201004E
 70
     0
 10
0.0
 20
0.0
 30
0.0
  3
AIGNBL0201004E
  1

  0
LINE
  5
191
  8
_________1
 62
     7
 10
116.36199999999999
 20
117.378
 30
0.0
 11
117.15600000000001
 21
118.172
 31
0.0
  0
ENDBLK
  5
192
  8
_________1
  0
BLOCK
  8
_________1
  2
AIGNBL0201004F
 70
     0
 10
0.0
 20
0.0
 30
0.0
  3
AIGNBL0201004F
  1

  0
LINE
  5
195
  8
_________1
 62
     7
 10
97.363500000000016
 20
117.378
 30
0.0
 11
96.569700000000012
 21
118.172
 31
0.0
  0
ENDBLK
  5
196
  8
_________1
  0
BLOCK
  8
_________1
  2
AIGNBL02010050
 70
     0
 10
0.0
 20
0.0
 30
0.0
  3
AIGNBL02010050
  1

  0
LINE
  5
199
  8
_________1
 62
     7
 10
116.36199999999999
 20
117.378
 30
0.0
 11
97.363500000000016
 21
117.378
 31
0.0
  0
ENDBLK
  5
19A
  8
_________1
  0
BLOCK
  8
_________1
  2
AIGNBL02010051
 70
     0
 10
0.0
 20
0.0
 30
0.0
  3
AIGNBL02010051
  1

  0
LINE
  5
19D
  8
_________1
 62
     7
 10
96.569700000000012
 20
118.172
 30
0.0
 11
117.15600000000001
 21
118.172
 31
0.0
  0
ENDBLK
  5
19E
  8
_________1
  0
BLOCK
  8
_________1
  2
AIGNBL02010052
 70
     0
 10
0.0
 20
0.0
 30
0.0
  3
AIGNBL02010052
  1

  0
LINE
  5
1A1
  8
_________1
 62
     7
 10
91.361099999999993
 20
135.81200000000001
 30
0.0
 11
91.361099999999993
 21
134.67500000000001
 31
0.0
  0
ENDBLK
  5
1A2
  8
_________1
  0
BLOCK
  8
_________1
  2
AIGNBL02010053
 70
     0
 10
0.0
 20
0.0
 30
0.0
  3
AIGNBL02010053
  1

  0
LINE
  5
1A5
  8
_________1
 62
     7
 10
122.36499999999999
 20
135.81200000000001
 30
0.0
 11
122.36499999999999
 21
134.67500000000001
 31
0.0
  0
ENDBLK
  5
1A6
  8
_________1
  0
BLOCK
  8
_________1
  2
AIGNBL02010054
 70
     0
 10
0.0
 20
0.0
 30
0.0
  3
AIGNBL02010054
  1

  0
ARC
  5
1A9
  8
_________1
 62
     7
 10
121.783851
 20
135.84243599999999
 30
0.0
 40
0.5816710000000001
 50
356.970057
 51
12.761098
  0
ARC
  5
1AA
  8
_________1
 62
     7
 10
121.495335
 20
135.79651200000001
 30
0.0
 40
0.8734099999999999
 50
11.518579000000001
 51
41.747184999999988
  0
ENDBLK
  5
1AB
  8
_________1
  0
BLOCK
  8
_________1
  2
AIGNBL02010055
 70
     0
 10
0.0
 20
0.0
 30
0.0
  3
AIGNBL02010055
  1

  0
ARC
  5
1AE
  8
_________1
 62
     7
 10
91.945088999999996
 20
135.997165
 30
0.0
 40
0.5282090000000002
 50
133.85285300000001
 51
150.242659
  0
ARC
  5
1AF
  8
_________1
 62
     7
 10
92.241167000000004
 20
135.80641299999999
 30
0.0
 40
0.880118
 50
149.02867800000001
 51
179.65643399999999
  0
ENDBLK
  5
1B0
  8
_________1
  0
BLOCK
  8
_________1
  2
AIGNBL02010056
 70
     0
 10
0.0
 20
0.0
 30
0.0
  3
AIGNBL02010056
  1

  0
LINE
  5
1B3
  8
_________1
 62
     7
 10
92.755499999999998
 20
137.64400000000001
 30
0.0
 11
91.579099999999997
 21
136.37799999999999
 31
0.0
  0
ENDBLK
  5
1B4
  8
_________1
  0
BLOCK
  8
_________1
  2
AIGNBL02010057
 70
     0
 10
0.0
 20
0.0
 30
0.0
  3
AIGNBL02010057
  1

  0
LINE
  5
1B7
  8
_________1
 62
     7
 10
120.97
 20
137.64400000000001
 30
0.0
 11
122.14700000000001
 21
136.37799999999999
 31
0.0
  0
ENDBLK
  5
1B8
  8
_________1
  0
BLOCK
  8
_________1
  2
AIGNBL02010058
 70
     0
 10
0.0
 20
0.0
 30
0.0
  3
AIGNBL02010058
  1

  0
ARC
  5
1BB
  8
_________1
 62
     7
 10
120.569847
 20
137.310787
 30
0.0
 40
0.5209590000000001
 50
39.734955000000006
 51
56.145695000000003
  0
ARC
  5
1BC
  8
_________1
 62
     7
 10
120.42980799999999
 20
137.126014
 30
0.0
 40
0.7525370000000001
 50
55.128312000000001
 51
88.915191000000007
  0
ENDBLK
  5
1BD
  8
_________1
  0
BLOCK
  8
_________1
  2
AIGNBL02010059
 70
     0
 10
0.0
 20
0.0
 30
0.0
  3
AIGNBL02010059
  1

  0
ARC
  5
1C0
  8
_________1
 62
     7
 10
93.254000000000005
 20
137.41526400000001
 30
0.0
 40
0.4639800000000001
 50
86.575177999999994
 51
103.294572
  0
ARC
  5
1C1
  8
_________1
 62
     7
 10
93.307806999999997
 20
137.12907300000001
 30
0.0
 40
0.754995
 50
102.27406499999999
 51
137.018136
  0
ENDBLK
  5
1C2
  8
_________1
  0
BLOCK
  8
_________1
  2
AIGNBL0201005A
 70
     0
 10
0.0
 20
0.0
 30
0.0
  3
AIGNBL0201005A
  1

  0
LINE
  5
1C5
  8
_________1
 62
     7
 10
91.361099999999993
 20
134.67500000000001
 30
0.0
 11
122.36499999999999
 21
134.67500000000001
 31
0.0
  0
ENDBLK
  5
1C6
  8
_________1
  0
BLOCK
  8
_________1
  2
AIGNBL0201005B
 70
     0
 10
0.0
 20
0.0
 30
0.0
  3
AIGNBL0201005B
  1

  0
LINE
  5
1C9
  8
_________1
 62
     7
 10
93.281700000000001
 20
137.87799999999999
 30
0.0
 11
120.444
 21
137.87799999999999
 31
0.0
  0
ENDBLK
  5
1CA
  8
_________1
  0
BLOCK
  8
_________1
  2
AIGNBL0201005C
 70
     0
 10
0.0
 20
0.0
 30
0.0
  3
AIGNBL0201005C
  1

  0
LINE
  5
1CD
  8
_________1
 62
     7
 10
122.23999999999999
 20
149.334
 30
0.0
 11
122.23999999999999
 21
152.31
 31
0.0
  0
ENDBLK
  5
1CE
  8
_________1
  0
BLOCK
  8
_________1
  2
AIGNBL0201005D
 70
     0
 10
0.0
 20
0.0
 30
0.0
  3
AIGNBL0201005D
  1

  0
LINE
  5
1D1
  8
_________1
 62
     7
 10
91.485099999999989
 20
149.334
 30
0.0
 11
91.485099999999989
 21
152.31
 31
0.0
  0
ENDBLK
  5
1D2
  8
_________1
  0
BLOCK
  8
_________1
  2
AIGNBL0201005E
 70
     0
 10
0.0
 20
0.0
 30
0.0
  3
AIGNBL0201005E
  1

  0
LINE
  5
1D5
  8
_________1
 62
     7
 10
122.23999999999999
 20
149.334
 30
0.0
 11
91.485099999999989
 21
149.334
 31
0.0
  0
ENDBLK
  5
1D6
  8
_________1
  0
BLOCK
  8
_________1
  2
AIGNBL0201005F
 70
     0
 10
0.0
 20
0.0
 30
0.0
  3
AIGNBL0201005F
  1

  0
LINE
  5
1D9
  8
_________1
 62
     7
 10
122.23999999999999
 20
152.31
 30
0.0
 11
91.485099999999989
 21
152.31
 31
0.0
  0
ENDBLK
  5
1DA
  8
_________1
  0
BLOCK
  8
_________1
  2
AIGNBL02010060
 70
     0
 10
0.0
 20
0.0
 30
0.0
  3
AIGNBL02010060
  1

  0
LINE
  5
1DD
  8
_________1
 62
     7
 10
115.291
 20
161.84100000000001
 30
0.0
 11
116.90300000000001
 21
161.96799999999999
 31
0.0
  0
ENDBLK
  5
1DE
  8
_________1
  0
BLOCK
  8
_________1
  2
AIGNBL02010061
 70
     0
 10
0.0
 20
0.0
 30
0.0
  3
AIGNBL02010061
  1

  0
LINE
  5
1E1
  8
_________1
 62
     7
 10
98.434899999999999
 20
161.84100000000001
 30
0.0
 11
96.823300000000003
 21
161.96799999999999
 31
0.0
  0
ENDBLK
  5
1E2
  8
_________1
  0
BLOCK
  8
_________1
  2
AIGNBL02010062
 70
     0
 10
0.0
 20
0.0
 30
0.0
  3
AIGNBL02010062
  1

  0
ARC
  5
1E5
  8
_________1
 62
     7
 10
116.87329699999999
 20
162.223658
 30
0.0
 40
0.257475
 50
276.58412299999998
 51
2.4208899999999991
  0
ARC
  5
1E6
  8
_________1
 62
     7
 10
116.88041800000001
 20
162.21213299999999
 30
0.0
 40
0.251125
 50
5.1178019999999993
 51
84.882187999999999
  0
ENDBLK
  5
1E7
  8
_________1
  0
BLOCK
  8
_________1
  2
AIGNBL02010063
 70
     0
 10
0.0
 20
0.0
 30
0.0
  3
AIGNBL02010063
  1

  0
ARC
  5
1EA
  8
_________1
 62
     7
 10
96.852760000000004
 20
162.206199
 30
0.0
 40
0.257747
 50
96.563624000000004
 51
182.35583099999999
  0
ARC
  5
1EB
  8
_________1
 62
     7
 10
96.845342000000016
 20
162.21802600000001
 30
0.0
 40
0.251114
 50
185.12283600000001
 51
264.96380900000003
  0
ENDBLK
  5
1EC
  8
_________1
  0
BLOCK
  8
_________1
  2
AIGNBL02010064
 70
     0
 10
0.0
 20
0.0
 30
0.0
  3
AIGNBL02010064
  1

  0
LINE
  5
1EF
  8
_________1
 62
     7
 10
98.434899999999999
 20
162.589
 30
0.0
 11
96.823300000000003
 21
162.46199999999999
 31
0.0
  0
ENDBLK
  5
1F0
  8
_________1
  0
BLOCK
  8
_________1
  2
AIGNBL02010065
 70
     0
 10
0.0
 20
0.0
 30
0.0
  3
AIGNBL02010065
  1

  0
LINE
  5
1F3
  8
_________1
 62
     7
 10
115.291
 20
162.589
 30
0.0
 11
116.90300000000001
 21
162.46199999999999
 31
0.0
  0
ENDBLK
  5
1F4
  8
_________1
  0
BLOCK
  8
_________1
  2
AIGNBL02010066
 70
     0
 10
0.0
 20
0.0
 30
0.0
  3
AIGNBL02010066
  1

  0
LINE
  5
1F7
  8
_________1
 62
     7
 10
115.083
 20
161.285
 30
0.0
 11
115.291
 21
161.84100000000001
 31
0.0
  0
ENDBLK
  5
1F8
  8
_________1
  0
BLOCK
  8
_________1
  2
AIGNBL02010067
 70
     0
 10
0.0
 20
0.0
 30
0.0
  3
AIGNBL02010067
  1

  0
LINE
  5
1FB
  8
_________1
 62
     7
 10
98.642700000000005
 20
161.285
 30
0.0
 11
98.434899999999999
 21
161.84100000000001
 31
0.0
  0
ENDBLK
  5
1FC
  8
_________1
  0
BLOCK
  8
_________1
  2
AIGNBL02010068
 70
     0
 10
0.0
 20
0.0
 30
0.0
  3
AIGNBL02010068
  1

  0
LINE
  5
1FF
  8
_________1
 62
     7
 10
98.642700000000005
 20
163.14599999999999
 30
0.0
 11
98.434899999999999
 21
162.589
 31
0.0
  0
ENDBLK
  5
200
  8
_________1
  0
BLOCK
  8
_________1
  2
AIGNBL02010069
 70
     0
 10
0.0
 20
0.0
 30
0.0
  3
AIGNBL02010069
  1

  0
LINE
  5
203
  8
_________1
 62
     7
 10
115.083
 20
163.14599999999999
 30
0.0
 11
115.291
 21
162.589
 31
0.0
  0
ENDBLK
  5
204
  8
_________1
  0
BLOCK
  8
_________1
  2
AIGNBL0201006A
 70
     0
 10
0.0
 20
0.0
 30
0.0
  3
AIGNBL0201006A
  1

  0
LINE
  5
207
  8
_________1
 62
     7
 10
98.434899999999999
 20
161.84100000000001
 30
0.0
 11
115.291
 21
161.84100000000001
 31
0.0
  0
ENDBLK
  5
208
  8
_________1
  0
BLOCK
  8
_________1
  2
AIGNBL0201006B
 70
     0
 10
0.0
 20
0.0
 30
0.0
  3
AIGNBL0201006B
  1

  0
LINE
  5
20B
  8
_________1
 62
     7
 10
98.434899999999999
 20
162.589
 30
0.0
 11
115.291
 21
162.589
 31
0.0
  0
ENDBLK
  5
20C
  8
_________1
  0
BLOCK
  8
_________1
  2
AIGNBL0201006C
 70
     0
 10
0.0
 20
0.0
 30
0.0
  3
AIGNBL0201006C
  1

  0
ARC
  5
20F
  8
_________1
 62
     7
 10
114.85457
 20
161.36671000000001
 30
0.0
 40
0.242571
 50
269.05353600000001
 51
340.41619500000002
  0
ENDBLK
  5
210
  8
_________1
  0
BLOCK
  8
_________1
  2
AIGNBL0201006D
 70
     0
 10
0.0
 20
0.0
 30
0.0
  3
AIGNBL0201006D
  1

  0
ARC
  5
213
  8
_________1
 62
     7
 10
98.854190000000003
 20
161.35584
 30
0.0
 40
0.222945
 50
198.41715500000001
 51
237.82727600000001
  0
ARC
  5
214
  8
_________1
 62
     7
 10
98.874173999999996
 20
161.36955399999999
 30
0.0
 40
0.245383
 50
235.5821720000001
 51
270.16140100000001
  0
ENDBLK
  5
215
  8
_________1
  0
BLOCK
  8
_________1
  2
AIGNBL0201006E
 70
     0
 10
0.0
 20
0.0
 30
0.0
  3
AIGNBL0201006E
  1

  0
ARC
  5
218
  8
_________1
 62
     7
 10
114.87183899999999
 20
163.075242
 30
0.0
 40
0.222675
 50
18.417815000000001
 51
57.897551
  0
ARC
  5
219
  8
_________1
 62
     7
 10
114.851191
 20
163.060507
 30
0.0
 40
0.24632
 50
55.649832000000004
 51
90.145934999999994
  0
ENDBLK
  5
21A
  8
_________1
  0
BLOCK
  8
_________1
  2
AIGNBL0201006F
 70
     0
 10
0.0
 20
0.0
 30
0.0
  3
AIGNBL0201006F
  1

  0
ARC
  5
21D
  8
_________1
 62
     7
 10
98.86716100000001
 20
163.08357100000001
 30
0.0
 40
0.223388
 50
88.023467000000011
 51
127.35707499999999
  0
ARC
  5
21E
  8
_________1
 62
     7
 10
98.873043000000024
 20
163.060248
 30
0.0
 40
0.245679
 50
125.14640300000001
 51
159.67201700000001
  0
ENDBLK
  5
21F
  8
_________1
  0
BLOCK
  8
_________1
  2
AIGNBL02010070
 70
     0
 10
0.0
 20
0.0
 30
0.0
  3
AIGNBL02010070
  1

  0
LINE
  5
222
  8
_________1
 62
     7
 10
114.851
 20
161.124
 30
0.0
 11
98.874899999999997
 21
161.124
 31
0.0
  0
ENDBLK
  5
223
  8
_________1
  0
BLOCK
  8
_________1
  2
AIGNBL02010071
 70
     0
 10
0.0
 20
0.0
 30
0.0
  3
AIGNBL02010071
  1

  0
LINE
  5
226
  8
_________1
 62
     7
 10
114.8
 20
160.18199999999999
 30
0.0
 11
115.048
 21
160.43000000000001
 31
0.0
  0
ENDBLK
  5
227
  8
_________1
  0
BLOCK
  8
_________1
  2
AIGNBL02010072
 70
     0
 10
0.0
 20
0.0
 30
0.0
  3
AIGNBL02010072
  1

  0
LINE
  5
22A
  8
_________1
 62
     7
 10
98.926000000000016
 20
160.18199999999999
 30
0.0
 11
98.678100000000001
 21
160.43000000000001
 31
0.0
  0
ENDBLK
  5
22B
  8
_________1
  0
BLOCK
  8
_________1
  2
AIGNBL02010073
 70
     0
 10
0.0
 20
0.0
 30
0.0
  3
AIGNBL02010073
  1

  0
LINE
  5
22E
  8
_________1
 62
     7
 10
98.678100000000001
 20
160.86099999999999
 30
0.0
 11
98.678100000000001
 21
160.43000000000001
 31
0.0
  0
ENDBLK
  5
22F
  8
_________1
  0
BLOCK
  8
_________1
  2
AIGNBL02010074
 70
     0
 10
0.0
 20
0.0
 30
0.0
  3
AIGNBL02010074
  1

  0
LINE
  5
232
  8
_________1
 62
     7
 10
115.048
 20
160.86099999999999
 30
0.0
 11
115.048
 21
160.43000000000001
 31
0.0
  0
ENDBLK
  5
233
  8
_________1
  0
BLOCK
  8
_________1
  2
AIGNBL02010075
 70
     0
 10
0.0
 20
0.0
 30
0.0
  3
AIGNBL02010075
  1

  0
LINE
  5
236
  8
_________1
 62
     7
 10
98.676400000000015
 20
166.87899999999999
 30
0.0
 11
98.676400000000015
 21
163.30699999999999
 31
0.0
  0
ENDBLK
  5
237
  8
_________1
  0
BLOCK
  8
_________1
  2
AIGNBL02010076
 70
     0
 10
0.0
 20
0.0
 30
0.0
  3
AIGNBL02010076
  1

  0
LINE
  5
23A
  8
_________1
 62
     7
 10
115.04900000000001
 20
166.87899999999999
 30
0.0
 11
115.04900000000001
 21
163.30699999999999
 31
0.0
  0
ENDBLK
  5
23B
  8
_________1
  0
BLOCK
  8
_________1
  2
AIGNBL02010077
 70
     0
 10
0.0
 20
0.0
 30
0.0
  3
AIGNBL02010077
  1

  0
LINE
  5
23E
  8
_________1
 62
     7
 10
99.313400000000001
 20
160.916
 30
0.0
 11
98.678100000000001
 21
160.86099999999999
 31
0.0
  0
ENDBLK
  5
23F
  8
_________1
  0
BLOCK
  8
_________1
  2
AIGNBL02010078
 70
     0
 10
0.0
 20
0.0
 30
0.0
  3
AIGNBL02010078
  1

  0
LINE
  5
242
  8
_________1
 62
     7
 10
114.41200000000001
 20
160.916
 30
0.0
 11
115.048
 21
160.86099999999999
 31
0.0
  0
ENDBLK
  5
243
  8
_________1
  0
BLOCK
  8
_________1
  2
AIGNBL02010079
 70
     0
 10
0.0
 20
0.0
 30
0.0
  3
AIGNBL02010079
  1

  0
LINE
  5
246
  8
_________1
 62
     7
 10
99.422100000000015
 20
161.124
 30
0.0
 11
99.422100000000015
 21
161.02500000000001
 31
0.0
  0
ENDBLK
  5
247
  8
_________1
  0
BLOCK
  8
_________1
  2
AIGNBL0201007A
 70
     0
 10
0.0
 20
0.0
 30
0.0
  3
AIGNBL0201007A
  1

  0
LINE
  5
24A
  8
_________1
 62
     7
 10
114.303
 20
161.124
 30
0.0
 11
114.303
 21
161.02500000000001
 31
0.0
  0
ENDBLK
  5
24B
  8
_________1
  0
BLOCK
  8
_________1
  2
AIGNBL0201007B
 70
     0
 10
0.0
 20
0.0
 30
0.0
  3
AIGNBL0201007B
  1

  0
LINE
  5
24E
  8
_________1
 62
     7
 10
98.926000000000016
 20
160.18199999999999
 30
0.0
 11
114.8
 21
160.18199999999999
 31
0.0
  0
ENDBLK
  5
24F
  8
_________1
  0
BLOCK
  8
_________1
  2
AIGNBL0201007C
 70
     0
 10
0.0
 20
0.0
 30
0.0
  3
AIGNBL0201007C
  1

  0
LINE
  5
252
  8
_________1
 62
     7
 10
98.678100000000001
 20
160.43000000000001
 30
0.0
 11
115.048
 21
160.43000000000001
 31
0.0
  0
ENDBLK
  5
253
  8
_________1
  0
BLOCK
  8
_________1
  2
AIGNBL0201007D
 70
     0
 10
0.0
 20
0.0
 30
0.0
  3
AIGNBL0201007D
  1

  0
LINE
  5
256
  8
_________1
 62
     7
 10
98.678100000000001
 20
160.86099999999999
 30
0.0
 11
115.048
 21
160.86099999999999
 31
0.0
  0
ENDBLK
  5
257
  8
_________1
  0
BLOCK
  8
_________1
  2
AIGNBL0201007E
 70
     0
 10
0.0
 20
0.0
 30
0.0
  3
AIGNBL0201007E
  1

  0
LINE
  5
25A
  8
_________1
 62
     7
 10
98.676400000000015
 20
163.30699999999999
 30
0.0
 11
115.04900000000001
 21
163.30699999999999
 31
0.0
  0
ENDBLK
  5
25B
  8
_________1
  0
BLOCK
  8
_________1
  2
AIGNBL0201007F
 70
     0
 10
0.0
 20
0.0
 30
0.0
  3
AIGNBL0201007F
  1

  0
LINE
  5
25E
  8
_________1
 62
     7
 10
99.422100000000015
 20
161.02500000000001
 30
0.0
 11
99.313400000000001
 21
160.916
 31
0.0
  0
ENDBLK
  5
25F
  8
_________1
  0
BLOCK
  8
_________1
  2
AIGNBL02010080
 70
     0
 10
0.0
 20
0.0
 30
0.0
  3
AIGNBL02010080
  1

  0
LINE
  5
262
  8
_________1
 62
     7
 10
114.303
 20
161.02500000000001
 30
0.0
 11
114.41200000000001
 21
160.916
 31
0.0
  0
ENDBLK
  5
263
  8
_________1
  0
BLOCK
  8
_________1
  2
AIGNBL02010081
 70
     0
 10
0.0
 20
0.0
 30
0.0
  3
AIGNBL02010081
  1

  0
LINE
  5
266
  8
_________1
 62
     7
 10
114.41200000000001
 20
160.916
 30
0.0
 11
99.313400000000001
 21
160.916
 31
0.0
  0
ENDBLK
  5
267
  8
_________1
  0
BLOCK
  8
_________1
  2
AIGNBL02010082
 70
     0
 10
0.0
 20
0.0
 30
0.0
  3
AIGNBL02010082
  1

  0
LINE
  5
26A
  8
_________1
 62
     7
 10
99.422100000000015
 20
161.02500000000001
 30
0.0
 11
114.303
 21
161.02500000000001
 31
0.0
  0
ENDBLK
  5
26B
  8
_________1
  0
BLOCK
  8
_________1
  2
AIGNBL02010083
 70
     0
 10
0.0
 20
0.0
 30
0.0
  3
AIGNBL02010083
  1

  0
LINE
  5
26E
  8
_________1
 62
     7
 10
96.619299999999996
 20
140.02799999999999
 30
0.0
 11
117.10599999999999
 21
140.02799999999999
 31
0.0
  0
ENDBLK
  5
26F
  8
_________1
  0
BLOCK
  8
_________1
  2
AIGNBL02010084
 70
     0
 10
0.0
 20
0.0
 30
0.0
  3
AIGNBL02010084
  1

  0
LINE
  5
272
  8
_________1
 62
     7
 10
91.252200000000002
 20
158.87799999999999
 30
0.0
 11
91.113399999999999
 21
158.798
 31
0.0
  0
ENDBLK
  5
273
  8
_________1
  0
BLOCK
  8
_________1
  2
AIGNBL02010085
 70
     0
 10
0.0
 20
0.0
 30
0.0
  3
AIGNBL02010085
  1

  0
LINE
  5
276
  8
_________1
 62
     7
 10
122.474
 20
158.87799999999999
 30
0.0
 11
122.613
 21
158.798
 31
0.0
  0
ENDBLK
  5
277
  8
_________1
  0
BLOCK
  8
_________1
  2
AIGNBL02010086
 70
     0
 10
0.0
 20
0.0
 30
0.0
  3
AIGNBL02010086
  1

  0
LINE
  5
27A
  8
_________1
 62
     7
 10
91.252200000000002
 20
158.87799999999999
 30
0.0
 11
122.474
 21
158.87799999999999
 31
0.0
  0
ENDBLK
  5
27B
  8
_________1
  0
BLOCK
  8
_________1
  2
AIGNBL02010087
 70
     0
 10
0.0
 20
0.0
 30
0.0
  3
AIGNBL02010087
  1

  0
LINE
  5
27E
  8
_________1
 62
     7
 10
96.941800000000015
 20
140.34999999999999
 30
0.0
 11
96.619299999999996
 21
140.02799999999999
 31
0.0
  0
ENDBLK
  5
27F
  8
_________1
  0
BLOCK
  8
_________1
  2
AIGNBL02010088
 70
     0
 10
0.0
 20
0.0
 30
0.0
  3
AIGNBL02010088
  1

  0
LINE
  5
282
  8
_________1
 62
     7
 10
116.78400000000001
 20
140.34999999999999
 30
0.0
 11
117.10599999999999
 21
140.02799999999999
 31
0.0
  0
ENDBLK
  5
283
  8
_________1
  0
BLOCK
  8
_________1
  2
AIGNBL02010089
 70
     0
 10
0.0
 20
0.0
 30
0.0
  3
AIGNBL02010089
  1

  0
LINE
  5
286
  8
_________1
 62
     7
 10
96.941800000000015
 20
141.01900000000001
 30
0.0
 11
96.941800000000015
 21
140.34999999999999
 31
0.0
  0
ENDBLK
  5
287
  8
_________1
  0
BLOCK
  8
_________1
  2
AIGNBL0201008A
 70
     0
 10
0.0
 20
0.0
 30
0.0
  3
AIGNBL0201008A
  1

  0
LINE
  5
28A
  8
_________1
 62
     7
 10
96.941800000000015
 20
149.334
 30
0.0
 11
96.941800000000015
 21
146.97200000000001
 31
0.0
  0
ENDBLK
  5
28B
  8
_________1
  0
BLOCK
  8
_________1
  2
AIGNBL0201008B
 70
     0
 10
0.0
 20
0.0
 30
0.0
  3
AIGNBL0201008B
  1

  0
LINE
  5
28E
  8
_________1
 62
     7
 10
116.78400000000001
 20
141.01900000000001
 30
0.0
 11
116.78400000000001
 21
140.34999999999999
 31
0.0
  0
ENDBLK
  5
28F
  8
_________1
  0
BLOCK
  8
_________1
  2
AIGNBL0201008C
 70
     0
 10
0.0
 20
0.0
 30
0.0
  3
AIGNBL0201008C
  1

  0
LINE
  5
292
  8
_________1
 62
     7
 10
116.78400000000001
 20
149.334
 30
0.0
 11
116.78400000000001
 21
146.97200000000001
 31
0.0
  0
ENDBLK
  5
293
  8
_________1
  0
BLOCK
  8
_________1
  2
AIGNBL0201008D
 70
     0
 10
0.0
 20
0.0
 30
0.0
  3
AIGNBL0201008D
  1

  0
LINE
  5
296
  8
_________1
 62
     7
 10
96.743499999999997
 20
153.864
 30
0.0
 11
96.743499999999997
 21
152.31
 31
0.0
  0
ENDBLK
  5
297
  8
_________1
  0
BLOCK
  8
_________1
  2
AIGNBL0201008E
 70
     0
 10
0.0
 20
0.0
 30
0.0
  3
AIGNBL0201008E
  1

  0
LINE
  5
29A
  8
_________1
 62
     7
 10
116.982
 20
153.864
 30
0.0
 11
116.982
 21
152.31
 31
0.0
  0
ENDBLK
  5
29B
  8
_________1
  0
BLOCK
  8
_________1
  2
AIGNBL0201008F
 70
     0
 10
0.0
 20
0.0
 30
0.0
  3
AIGNBL0201008F
  1

  0
ARC
  5
29E
  8
_________1
 62
     7
 10
120.971467
 20
154.046246
 30
0.0
 40
3.755091999999999
 50
102.908208
 51
123.85162699999999
  0
ARC
  5
29F
  8
_________1
 62
     7
 10
121.30968300000001
 20
153.45857000000001
 30
0.0
 40
4.4317919999999988
 50
123.25071800000001
 51
155.99357699999999
  0
ARC
  5
2A0
  8
_________1
 62
     7
 10
120.439611
 20
153.900856
 30
0.0
 40
3.457403999999999
 50
156.82301799999999
 51
180.609073
  0
ENDBLK
  5
2A1
  8
_________1
  0
BLOCK
  8
_________1
  2
AIGNBL02010090
 70
     0
 10
0.0
 20
0.0
 30
0.0
  3
AIGNBL02010090
  1

  0
ARC
  5
2A4
  8
_________1
 62
     7
 10
93.542074999999997
 20
153.95011700000001
 30
0.0
 40
3.2026240000000001
 50
358.46102400000001
 51
23.425339000000001
  0
ARC
  5
2A5
  8
_________1
 62
     7
 10
92.614953999999983
 20
153.610063
 30
0.0
 40
4.1889019999999988
 50
22.651779999999999
 51
50.360368000000008
  0
ARC
  5
2A6
  8
_________1
 62
     7
 10
92.516778000000016
 20
153.569198
 30
0.0
 40
4.28329
 50
49.69777599999999
 51
69.908090999999985
  0
ARC
  5
2A7
  8
_________1
 62
     7
 10
92.789332000000002
 20
154.20048600000001
 30
0.0
 40
3.5970029999999991
 50
70.530959999999993
 51
77.081405000000004
  0
ENDBLK
  5
2A8
  8
_________1
  0
BLOCK
  8
_________1
  2
AIGNBL02010091
 70
     0
 10
0.0
 20
0.0
 30
0.0
  3
AIGNBL02010091
  1

  0
LINE
  5
2AB
  8
_________1
 62
     7
 10
120.133
 20
157.70599999999999
 30
0.0
 11
122.51600000000001
 21
158.26300000000001
 31
0.0
  0
ENDBLK
  5
2AC
  8
_________1
  0
BLOCK
  8
_________1
  2
AIGNBL02010092
 70
     0
 10
0.0
 20
0.0
 30
0.0
  3
AIGNBL02010092
  1

  0
LINE
  5
2AF
  8
_________1
 62
     7
 10
93.593500000000006
 20
157.70599999999999
 30
0.0
 11
91.209800000000016
 21
158.26300000000001
 31
0.0
  0
ENDBLK
  5
2B0
  8
_________1
  0
BLOCK
  8
_________1
  2
AIGNBL02010093
 70
     0
 10
0.0
 20
0.0
 30
0.0
  3
AIGNBL02010093
  1

  0
LINE
  5
2B3
  8
_________1
 62
     7
 10
122.51600000000001
 20
158.26300000000001
 30
0.0
 11
122.613
 21
158.35300000000001
 31
0.0
  0
ENDBLK
  5
2B4
  8
_________1
  0
BLOCK
  8
_________1
  2
AIGNBL02010094
 70
     0
 10
0.0
 20
0.0
 30
0.0
  3
AIGNBL02010094
  1

  0
LINE
  5
2B7
  8
_________1
 62
     7
 10
91.209800000000016
 20
158.26300000000001
 30
0.0
 11
91.113399999999999
 21
158.35300000000001
 31
0.0
  0
ENDBLK
  5
2B8
  8
_________1
  0
BLOCK
  8
_________1
  2
AIGNBL02010095
 70
     0
 10
0.0
 20
0.0
 30
0.0
  3
AIGNBL02010095
  1

  0
LINE
  5
2BB
  8
_________1
 62
     7
 10
91.113399999999999
 20
158.798
 30
0.0
 11
91.113399999999999
 21
158.35300000000001
 31
0.0
  0
ENDBLK
  5
2BC
  8
_________1
  0
BLOCK
  8
_________1
  2
AIGNBL02010096
 70
     0
 10
0.0
 20
0.0
 30
0.0
  3
AIGNBL02010096
  1

  0
LINE
  5
2BF
  8
_________1
 62
     7
 10
122.613
 20
158.798
 30
0.0
 11
122.613
 21
158.35300000000001
 31
0.0
  0
ENDBLK
  5
2C0
  8
_________1
  0
BLOCK
  8
_________1
  2
AIGNBL02010097
 70
     0
 10
0.0
 20
0.0
 30
0.0
  3
AIGNBL02010097
  1

  0
LINE
  5
2C3
  8
_________1
 62
     7
 10
96.619299999999996
 20
140.02799999999999
 30
0.0
 11
96.619299999999996
 21
137.87799999999999
 31
0.0
  0
ENDBLK
  5
2C4
  8
_________1
  0
BLOCK
  8
_________1
  2
AIGNBL02010098
 70
     0
 10
0.0
 20
0.0
 30
0.0
  3
AIGNBL02010098
  1

  0
LINE
  5
2C7
  8
_________1
 62
     7
 10
117.10599999999999
 20
140.02799999999999
 30
0.0
 11
117.10599999999999
 21
137.87799999999999
 31
0.0
  0
ENDBLK
  5
2C8
  8
_________1
  0
BLOCK
  8
_________1
  2
AIGNBL02010099
 70
     0
 10
0.0
 20
0.0
 30
0.0
  3
AIGNBL02010099
  1

  0
LINE
  5
2CB
  8
_________1
 62
     7
 10
96.941800000000015
 20
140.34999999999999
 30
0.0
 11
116.78400000000001
 21
140.34999999999999
 31
0.0
  0
ENDBLK
  5
2CC
  8
_________1
  0
BLOCK
  8
_________1
  2
AIGNBL0201009A
 70
     0
 10
0.0
 20
0.0
 30
0.0
  3
AIGNBL0201009A
  1

  0
LINE
  5
2CF
  8
_________1
 62
     7
 10
93.593500000000006
 20
157.70599999999999
 30
0.0
 11
120.133
 21
157.70599999999999
 31
0.0
  0
ENDBLK
  5
2D0
  8
_________1
  0
BLOCK
  8
_________1
  2
AIGNBL0201009B
 70
     0
 10
0.0
 20
0.0
 30
0.0
  3
AIGNBL0201009B
  1

  0
LINE
  5
2D3
  8
_________1
 62
     7
 10
91.209800000000016
 20
158.26300000000001
 30
0.0
 11
122.51600000000001
 21
158.26300000000001
 31
0.0
  0
ENDBLK
  5
2D4
  8
_________1
  0
BLOCK
  8
_________1
  2
AIGNBL0201009C
 70
     0
 10
0.0
 20
0.0
 30
0.0
  3
AIGNBL0201009C
  1

  0
LINE
  5
2D7
  8
_________1
 62
     7
 10
96.619299999999996
 20
140.02799999999999
 30
0.0
 11
117.10599999999999
 21
140.02799999999999
 31
0.0
  0
ENDBLK
  5
2D8
  8
_________1
  0
BLOCK
  8
_________1
  2
AIGNBL0201009D
 70
     0
 10
0.0
 20
0.0
 30
0.0
  3
AIGNBL0201009D
  1

  0
ARC
  5
2DB
  8
_________1
 62
     7
 10
120.873965
 20
144.99084199999999
 30
0.0
 40
4.8141660000000002
 50
170.974839
 51
180.03260399999999
  0
ARC
  5
2DC
  8
_________1
 62
     7
 10
120.32440200000001
 20
145.079804
 30
0.0
 40
4.2574519999999989
 50
162.18992600000001
 51
170.99707000000001
  0
ARC
  5
2DD
  8
_________1
 62
     7
 10
118.96420500000001
 20
145.488844
 30
0.0
 40
2.8374559999999991
 50
154.99526800000001
 51
161.65285600000001
  0
ARC
  5
2DE
  8
_________1
 62
     7
 10
117.653166
 20
146.09130200000001
 30
0.0
 40
1.3946670000000001
 50
148.58966799999999
 51
154.65941599999999
  0
ARC
  5
2DF
  8
_________1
 62
     7
 10
117.012272
 20
146.47726700000001
 30
0.0
 40
0.6465570000000001
 50
134.633996
 51
148.181522
  0
ARC
  5
2E0
  8
_________1
 62
     7
 10
116.672062
 20
146.811612
 30
0.0
 40
0.169763
 50
115.305155
 51
132.20525599999999
  0
ARC
  5
2E1
  8
_________1
 62
     7
 10
116.632554
 20
146.89519300000001
 30
0.0
 40
0.077314
 50
91.151729000000003
 51
115.311825
  0
ENDBLK
  5
2E2
  8
_________1
  0
BLOCK
  8
_________1
  2
AIGNBL0201009E
 70
     0
 10
0.0
 20
0.0
 30
0.0
  3
AIGNBL0201009E
  1

  0
LINE
  5
2E5
  8
_________1
 62
     7
 10
116.06
 20
143.00399999999999
 30
0.0
 11
116.06
 21
144.988
 31
0.0
  0
ENDBLK
  5
2E6
  8
_________1
  0
BLOCK
  8
_________1
  2
AIGNBL0201009F
 70
     0
 10
0.0
 20
0.0
 30
0.0
  3
AIGNBL0201009F
  1

  0
ARC
  5
2E9
  8
_________1
 62
     7
 10
116.631271
 20
141.08784
 30
0.0
 40
0.068511
 50
249.88785100000001
 51
269.77299399999998
  0
ARC
  5
2EA
  8
_________1
 62
     7
 10
116.652911
 20
141.14756399999999
 30
0.0
 40
0.132035
 50
232.380391
 51
249.98199399999999
  0
ARC
  5
2EB
  8
_________1
 62
     7
 10
116.750387
 20
141.27644699999999
 30
0.0
 40
0.293625
 50
220.81779900000001
 51
232.66584599999999
  0
ARC
  5
2EC
  8
_________1
 62
     7
 10
117.01598799999999
 20
141.50770199999999
 30
0.0
 40
0.6457920000000001
 50
211.076042
 51
220.94198600000001
  0
ARC
  5
2ED
  8
_________1
 62
     7
 10
117.35578
 20
141.73409100000001
 30
0.0
 40
1.0538369999999999
 50
207.05489499999999
 51
212.08230699999999
  0
ARC
  5
2EE
  8
_________1
 62
     7
 10
118.434493
 20
142.29215199999999
 30
0.0
 40
2.2683469999999999
 50
197.48770400000001
 51
207.21520599999999
  0
ARC
  5
2EF
  8
_________1
 62
     7
 10
120.002027
 20
142.83650700000001
 30
0.0
 40
3.9273059999999989
 50
188.65084300000001
 51
198.190192
  0
ARC
  5
2F0
  8
_________1
 62
     7
 10
120.825138
 20
142.99714299999999
 30
0.0
 40
4.7653429999999988
 50
179.91679199999999
 51
189.071697
  0
ENDBLK
  5
2F1
  8
_________1
  0
BLOCK
  8
_________1
  2
AIGNBL020100A0
 70
     0
 10
0.0
 20
0.0
 30
0.0
  3
AIGNBL020100A0
  1

  0
ARC
  5
2F4
  8
_________1
 62
     7
 10
105.137719
 20
144.98615100000001
 30
0.0
 40
1.9950429999999999
 50
157.61156199999999
 51
179.943883
  0
ARC
  5
2F5
  8
_________1
 62
     7
 10
105.133242
 20
144.98482200000001
 30
0.0
 40
1.991412
 50
135.444379
 51
157.52713600000001
  0
ARC
  5
2F6
  8
_________1
 62
     7
 10
105.137933
 20
144.971689
 30
0.0
 40
2.003978
 50
112.868624
 51
135.270916
  0
ARC
  5
2F7
  8
_________1
 62
     7
 10
105.128744
 20
144.976607
 30
0.0
 40
1.9958869999999991
 50
90.058085999999989
 51
112.68042199999999
  0
ENDBLK
  5
2F8
  8
_________1
  0
BLOCK
  8
_________1
  2
AIGNBL020100A1
 70
     0
 10
0.0
 20
0.0
 30
0.0
  3
AIGNBL020100A1
  1

  0
LINE
  5
2FB
  8
_________1
 62
     7
 10
103.143
 20
143.00399999999999
 30
0.0
 11
103.143
 21
144.988
 31
0.0
  0
ENDBLK
  5
2FC
  8
_________1
  0
BLOCK
  8
_________1
  2
AIGNBL020100A2
 70
     0
 10
0.0
 20
0.0
 30
0.0
  3
AIGNBL020100A2
  1

  0
ARC
  5
2FF
  8
_________1
 62
     7
 10
105.128624
 20
143.00644
 30
0.0
 40
1.9871119999999991
 50
247.21753799999991
 51
269.94510400000001
  0
ARC
  5
300
  8
_________1
 62
     7
 10
105.121523
 20
142.996557
 30
0.0
 40
1.975252
 50
224.56403
 51
247.29642999999999
  0
ARC
  5
301
  8
_________1
 62
     7
 10
105.130634
 20
143.00678600000001
 30
0.0
 40
1.9889209999999991
 50
202.49588800000001
 51
224.58979299999999
  0
ARC
  5
302
  8
_________1
 62
     7
 10
105.136573
 20
143.00544199999999
 30
0.0
 40
1.993897
 50
180.03969599999999
 51
202.39492000000001
  0
ENDBLK
  5
303
  8
_________1
  0
BLOCK
  8
_________1
  2
AIGNBL020100A3
 70
     0
 10
0.0
 20
0.0
 30
0.0
  3
AIGNBL020100A3
  1

  0
LINE
  5
306
  8
_________1
 62
     7
 10
97.094899999999996
 20
146.97200000000001
 30
0.0
 11
96.941800000000015
 21
146.97200000000001
 31
0.0
  0
ENDBLK
  5
307
  8
_________1
  0
BLOCK
  8
_________1
  2
AIGNBL020100A4
 70
     0
 10
0.0
 20
0.0
 30
0.0
  3
AIGNBL020100A4
  1

  0
ARC
  5
30A
  8
_________1
 62
     7
 10
97.092205000000007
 20
146.88962599999999
 30
0.0
 40
0.082912
 50
62.855819999999987
 51
88.105761999999984
  0
ARC
  5
30B
  8
_________1
 62
     7
 10
97.047590999999997
 20
146.802615
 30
0.0
 40
0.180694
 50
47.116275999999992
 51
62.854731999999991
  0
ARC
  5
30C
  8
_________1
 62
     7
 10
96.899106000000003
 20
146.63929200000001
 30
0.0
 40
0.4014190000000001
 50
37.189096999999997
 51
47.450738999999999
  0
ARC
  5
30D
  8
_________1
 62
     7
 10
96.604055000000017
 20
146.41068100000001
 30
0.0
 40
0.774662
 50
31.735389000000001
 51
37.468615
  0
ARC
  5
30E
  8
_________1
 62
     7
 10
96.292768000000009
 20
146.21551099999999
 30
0.0
 40
1.142069
 50
27.359096999999998
 51
31.84843600000001
  0
ARC
  5
30F
  8
_________1
 62
     7
 10
95.309034999999994
 20
145.70726199999999
 30
0.0
 40
2.2493389999999991
 50
17.455863999999998
 51
27.341449999999998
  0
ARC
  5
310
  8
_________1
 62
     7
 10
93.694671999999997
 20
145.14971299999999
 30
0.0
 40
3.9568929999999991
 50
8.6676850000000005
 51
18.14528
  0
ARC
  5
311
  8
_________1
 62
     7
 10
92.900656999999995
 20
144.99468400000001
 30
0.0
 40
4.7653220000000003
 50
359.92089700000002
 51
9.0716610000000006
  0
ENDBLK
  5
312
  8
_________1
  0
BLOCK
  8
_________1
  2
AIGNBL020100A5
 70
     0
 10
0.0
 20
0.0
 30
0.0
  3
AIGNBL020100A5
  1

  0
LINE
  5
315
  8
_________1
 62
     7
 10
97.665999999999997
 20
144.988
 30
0.0
 11
97.665999999999997
 21
143.00399999999999
 31
0.0
  0
ENDBLK
  5
316
  8
_________1
  0
BLOCK
  8
_________1
  2
AIGNBL020100A6
 70
     0
 10
0.0
 20
0.0
 30
0.0
  3
AIGNBL020100A6
  1

  0
ARC
  5
319
  8
_________1
 62
     7
 10
92.847491000000005
 20
143.00131999999999
 30
0.0
 40
4.8184839999999989
 50
350.97891099999998
 51
0.032601
  0
ARC
  5
31A
  8
_________1
 62
     7
 10
93.403109999999984
 20
142.913014
 30
0.0
 40
4.2558910000000001
 50
342.17883799999998
 51
350.98016799999999
  0
ARC
  5
31B
  8
_________1
 62
     7
 10
94.850888999999995
 20
142.46505199999999
 30
0.0
 40
2.7405349999999991
 50
335.00608299999999
 51
341.83135399999998
  0
ARC
  5
31C
  8
_________1
 62
     7
 10
96.099936999999997
 20
141.88991899999999
 30
0.0
 40
1.365464999999999
 50
328.39633300000003
 51
334.734283
  0
ARC
  5
31D
  8
_________1
 62
     7
 10
96.705398000000002
 20
141.51873699999999
 30
0.0
 40
0.6552850000000001
 50
314.89521999999999
 51
328.29548899999998
  0
ARC
  5
31E
  8
_________1
 62
     7
 10
97.054209
 20
141.17935399999999
 30
0.0
 40
0.16884
 50
295.33098100000012
 51
312.3302460000001
  0
ARC
  5
31F
  8
_________1
 62
     7
 10
97.093303000000006
 20
141.096901
 30
0.0
 40
0.077589
 50
271.21281900000002
 51
295.28788300000002
  0
ENDBLK
  5
320
  8
_________1
  0
BLOCK
  8
_________1
  2
AIGNBL020100A7
 70
     0
 10
0.0
 20
0.0
 30
0.0
  3
AIGNBL020100A7
  1

  0
LINE
  5
323
  8
_________1
 62
     7
 10
116.78400000000001
 20
146.97200000000001
 30
0.0
 11
116.631
 21
146.97200000000001
 31
0.0
  0
ENDBLK
  5
324
  8
_________1
  0
BLOCK
  8
_________1
  2
AIGNBL020100A8
 70
     0
 10
0.0
 20
0.0
 30
0.0
  3
AIGNBL020100A8
  1

  0
LINE
  5
327
  8
_________1
 62
     7
 10
108.599
 20
146.97200000000001
 30
0.0
 11
105.127
 21
146.97200000000001
 31
0.0
  0
ENDBLK
  5
328
  8
_________1
  0
BLOCK
  8
_________1
  2
AIGNBL020100A9
 70
     0
 10
0.0
 20
0.0
 30
0.0
  3
AIGNBL020100A9
  1

  0
ARC
  5
32B
  8
_________1
 62
     7
 10
108.597146
 20
144.97718399999999
 30
0.0
 40
1.9953089999999989
 50
67.316238999999996
 51
89.945212999999995
  0
ARC
  5
32C
  8
_________1
 62
     7
 10
108.58615
 20
144.96919
 30
0.0
 40
2.006937999999999
 50
44.745797999999994
 51
67.114622999999995
  0
ARC
  5
32D
  8
_________1
 62
     7
 10
108.58469100000001
 20
144.979129
 30
0.0
 40
2.0009939999999991
 50
22.535774
 51
44.514243
  0
ARC
  5
32E
  8
_________1
 62
     7
 10
108.58725699999999
 20
144.98550499999999
 30
0.0
 40
1.9961859999999989
 50
0.074607
 51
22.394964999999999
  0
ENDBLK
  5
32F
  8
_________1
  0
BLOCK
  8
_________1
  2
AIGNBL020100AA
 70
     0
 10
0.0
 20
0.0
 30
0.0
  3
AIGNBL020100AA
  1

  0
LINE
  5
332
  8
_________1
 62
     7
 10
110.583
 20
144.988
 30
0.0
 11
110.583
 21
143.00399999999999
 31
0.0
  0
ENDBLK
  5
333
  8
_________1
  0
BLOCK
  8
_________1
  2
AIGNBL020100AB
 70
     0
 10
0.0
 20
0.0
 30
0.0
  3
AIGNBL020100AB
  1

  0
ARC
  5
336
  8
_________1
 62
     7
 10
108.588823
 20
143.00600399999999
 30
0.0
 40
1.994618999999999
 50
337.59618399999999
 51
359.94419399999998
  0
ARC
  5
337
  8
_________1
 62
     7
 10
108.594509
 20
143.00770199999999
 30
0.0
 40
1.990011999999999
 50
315.40417400000013
 51
337.4886029999999
  0
ARC
  5
338
  8
_________1
 62
     7
 10
108.595225
 20
143.00990200000001
 30
0.0
 40
1.9910490000000001
 50
292.79495800000001
 51
315.34462100000002
  0
ARC
  5
339
  8
_________1
 62
     7
 10
108.598091
 20
143.00177600000001
 30
0.0
 40
1.9824470000000001
 50
270.02782000000002
 51
292.80957799999999
  0
ENDBLK
  5
33A
  8
_________1
  0
BLOCK
  8
_________1
  2
AIGNBL020100AC
 70
     0
 10
0.0
 20
0.0
 30
0.0
  3
AIGNBL020100AC
  1

  0
LINE
  5
33D
  8
_________1
 62
     7
 10
96.941800000000015
 20
141.01900000000001
 30
0.0
 11
97.094899999999996
 21
141.01900000000001
 31
0.0
  0
ENDBLK
  5
33E
  8
_________1
  0
BLOCK
  8
_________1
  2
AIGNBL020100AD
 70
     0
 10
0.0
 20
0.0
 30
0.0
  3
AIGNBL020100AD
  1

  0
LINE
  5
341
  8
_________1
 62
     7
 10
116.631
 20
141.01900000000001
 30
0.0
 11
116.78400000000001
 21
141.01900000000001
 31
0.0
  0
ENDBLK
  5
342
  8
_________1
  0
BLOCK
  8
_________1
  2
AIGNBL020100AE
 70
     0
 10
0.0
 20
0.0
 30
0.0
  3
AIGNBL020100AE
  1

  0
LINE
  5
345
  8
_________1
 62
     7
 10
105.127
 20
141.01900000000001
 30
0.0
 11
108.599
 21
141.01900000000001
 31
0.0
  0
ENDBLK
  5
346
  8
_________1
  0
BLOCK
  8
_________1
  2
AIGNBL020100AF
 70
     0
 10
0.0
 20
0.0
 30
0.0
  3
AIGNBL020100AF
  1

  0
LINE
  5
349
  8
_________1
 62
     7
 10
101.40600000000001
 20
160.18199999999999
 30
0.0
 11
101.40600000000001
 21
158.87799999999999
 31
0.0
  0
ENDBLK
  5
34A
  8
_________1
  0
BLOCK
  8
_________1
  2
AIGNBL020100B0
 70
     0
 10
0.0
 20
0.0
 30
0.0
  3
AIGNBL020100B0
  1

  0
LINE
  5
34D
  8
_________1
 62
     7
 10
112.319
 20
160.18199999999999
 30
0.0
 11
112.319
 21
158.87799999999999
 31
0.0
  0
ENDBLK
  5
34E
  8
_________1
  0
BLOCK
  8
_________2
  2
AIGNBL03010002
 70
     0
 10
0.0
 20
0.0
 30
0.0
  3
AIGNBL03010002
  1

  0
LINE
  5
351
  8
_________2
 62
     7
 10
81.679900000000004
 20
51.323999999999998
 30
0.0
 11
79.493700000000004
 21
51.323999999999998
 31
0.0
  0
LINE
  5
352
  8
_________2
 62
     7
 10
82.172600000000017
 20
51.323999999999998
 30
0.0
 11
81.920400000000001
 21
51.323999999999998
 31
0.0
  0
LINE
  5
353
  8
_________2
 62
     7
 10
82.665199999999984
 20
51.323999999999998
 30
0.0
 11
85.590100000000007
 21
51.323999999999998
 31
0.0
  0
LINE
  5
354
  8
_________2
 62
     7
 10
82.172600000000017
 20
51.323999999999998
 30
0.0
 11
82.424800000000005
 21
51.323999999999998
 31
0.0
  0
LINE
  5
355
  8
_________2
 62
     7
 10
75.776399999999995
 20
51.323999999999998
 30
0.0
 11
73.589399999999998
 21
51.323999999999998
 31
0.0
  0
LINE
  5
356
  8
_________2
 62
     7
 10
76.2684
 20
51.323999999999998
 30
0.0
 11
76.016900000000007
 21
51.323999999999998
 31
0.0
  0
LINE
  5
357
  8
_________2
 62
     7
 10
76.2684
 20
51.816600000000001
 30
0.0
 11
76.2684
 21
54.003599999999999
 31
0.0
  0
LINE
  5
358
  8
_________2
 62
     7
 10
76.2684
 20
51.323999999999998
 30
0.0
 11
76.2684
 21
51.576500000000003
 31
0.0
  0
LINE
  5
359
  8
_________2
 62
     7
 10
76.76100000000001
 20
51.323999999999998
 30
0.0
 11
78.947999999999993
 21
51.323999999999998
 31
0.0
  0
LINE
  5
35A
  8
_________2
 62
     7
 10
76.2684
 20
51.323999999999998
 30
0.0
 11
76.520499999999998
 21
51.323999999999998
 31
0.0
  0
LINE
  5
35B
  8
_________2
 62
     7
 10
76.2684
 20
50.832000000000001
 30
0.0
 11
76.2684
 21
48.645400000000002
 31
0.0
  0
LINE
  5
35C
  8
_________2
 62
     7
 10
76.2684
 20
51.323999999999998
 30
0.0
 11
76.2684
 21
51.072499999999998
 31
0.0
  0
LINE
  5
35D
  8
_________2
 62
     7
 10
79.979399999999984
 20
50.104399999999998
 30
0.0
 11
85.157399999999996
 21
49.239699999999999
 31
0.0
  0
LINE
  5
35E
  8
_________2
 62
     7
 10
79.979399999999984
 20
52.543900000000001
 30
0.0
 11
85.157399999999996
 21
53.409300000000002
 31
0.0
  0
LINE
  5
35F
  8
_________2
 62
     7
 10
85.157399999999996
 20
49.239699999999999
 30
0.0
 11
85.157399999999996
 21
53.409300000000002
 31
0.0
  0
LINE
  5
360
  8
_________2
 62
     7
 10
79.979399999999984
 20
50.104399999999998
 30
0.0
 11
79.979399999999984
 21
52.543900000000001
 31
0.0
  0
ARC
  5
361
  8
_________2
 62
     7
 10
76.221766000000002
 20
51.277037
 30
0.0
 40
1.267714
 50
2.1220840000000001
 51
87.894083999999992
  0
ARC
  5
362
  8
_________2
 62
     7
 10
76.315297000000001
 20
51.277389999999997
 30
0.0
 40
1.267374999999999
 50
92.122849999999985
 51
177.893304
  0
ARC
  5
363
  8
_________2
 62
     7
 10
76.315273000000005
 20
51.370902000000001
 30
0.0
 40
1.267363
 50
182.121815
 51
267.87821400000001
  0
ARC
  5
364
  8
_________2
 62
     7
 10
76.221461000000005
 20
51.371583999999999
 30
0.0
 40
1.2680439999999991
 50
272.11916400000001
 51
357.84848499999998
  0
ARC
  5
365
  8
_________2
 62
     7
 10
76.187981999999991
 20
51.243968000000002
 30
0.0
 40
2.1668310000000002
 50
2.1161439999999989
 51
87.874379000000005
  0
ARC
  5
366
  8
_________2
 62
     7
 10
76.348411999999996
 20
51.244990000000001
 30
0.0
 40
2.1657980000000001
 50
92.118487999999999
 51
177.909886
  0
ARC
  5
367
  8
_________2
 62
     7
 10
76.348354
 20
51.403983000000011
 30
0.0
 40
2.1657779999999991
 50
182.11700400000001
 51
267.88302499999998
  0
ARC
  5
368
  8
_________2
 62
     7
 10
76.188378999999983
 20
51.404665999999992
 30
0.0
 40
2.1664590000000001
 50
272.11546800000002
 51
357.86560400000002
  0
ENDBLK
  5
369
  8
_________2
  0
ENDSEC
  0
SECTION
  2
ENTITIES
  0
TEXT
  5
36A
  8
____
 62
     7
 10
134.64400000000001
 20
119.355915
 30
0.0
 40
3.0923400000000001
  1
11
 50
90.0
 41
0.5
 72
     1
 11
134.64400000000001
 21
120.129
 31
0.0
  0
TEXT
  5
36B
  8
____
 62
     7
 10
134.64400000000001
 20
129.21837249999999
 30
0.0
 40
3.0923400000000001
  1
30
 50
90.0
 41
0.5
 72
     1
 11
134.64400000000001
 21
130.37799999999999
 31
0.0
  0
TEXT
  5
36C
  8
____
 62
     7
 10
139.79400000000001
 20
159.012575
 30
0.0
 40
3.0923400000000001
  1
down.6
 50
90.0
 41
0.5
 72
     1
 11
139.79400000000001
 21
162.87799999999999
 31
0.0
  0
TEXT
  5
36D
  8
____
 62
     7
 10
143.66
 20
160.04335499999999
 30
0.0
 40
3.0923400000000001
  1
up.16
 50
90.0
 41
0.5
 72
     1
 11
143.66
 21
162.87799999999999
 31
0.0
  0
TEXT
  5
36E
  8
____
 62
     7
 10
134.64400000000001
 20
168.24606750000001
 30
0.0
 40
3.0923400000000001
  1
10
 50
90.0
 41
0.5
 72
     1
 11
134.64400000000001
 21
169.148
 31
0.0
  0
TEXT
  5
36F
  8
____
 62
     7
 10
131.42099999999999
 20
145.02796499999999
 30
0.0
 40
3.0923400000000001
  1
min.32
 50
90.0
 41
0.5
 72
     1
 11
131.42099999999999
 21
148.37799999999999
 31
0.0
  0
TEXT
  5
370
  8
____
 62
     7
 10
135.28700000000001
 20
144.512575
 30
0.0
 40
3.0923400000000001
  1
max.45
 50
90.0
 41
0.5
 72
     1
 11
135.28700000000001
 21
148.37799999999999
 31
0.0
  0
TEXT
  5
371
  8
____
 62
     7
 10
103.306809
 20
109.27800000000001
 30
0.0
 40
3.0923400000000001
  1
G1 1/4
 41
0.5
 72
     1
 11
106.863
 21
109.27800000000001
 31
0.0
  0
TEXT
  5
372
  8
____
 62
     7
 10
99.251256944177058
 20
196.51125694417709
 30
0.0
 40
3.0923400000000001
  1
%%c63
 50
45.0
 41
0.5
 72
     1
 11
100.709
 21
197.96899999999999
 31
0.0
  0
ARC
  5
373
  8
_________1
 62
     7
 10
106.863056
 20
203.13789700000001
 30
0.0
 40
15.750045
 50
270.00002000000001
 51
359.99999000000003
  0
ARC
  5
374
  8
_________1
 62
     7
 10
106.863056
 20
203.13789199999999
 30
0.0
 40
15.75004
 50
179.99996999999999
 51
270.00002000000001
  0
ARC
  5
375
  8
_________1
 62
     7
 10
106.863062
 20
203.13789199999999
 30
0.0
 40
15.750045
 50
90.0
 51
179.99996999999999
  0
ARC
  5
376
  8
_________1
 62
     7
 10
106.863056
 20
203.13789199999999
 30
0.0
 40
15.750045
 50
0.00001
 51
89.999980000000008
  0
INSERT
  5
377
  8
_________1
 62
     7
  2
AIGNBL02010002
 10
0.0
 20
0.0
 30
0.0
  0
INSERT
  5
378
  8
_________1
 62
     7
  2
AIGNBL02010003
 10
0.0
 20
0.0
 30
0.0
  0
INSERT
  5
379
  8
_________1
 62
     7
  2
AIGNBL02010004
 10
0.0
 20
0.0
 30
0.0
  0
INSERT
  5
37A
  8
_________1
 62
     7
  2
AIGNBL02010005
 10
0.0
 20
0.0
 30
0.0
  0
INSERT
  5
37B
  8
_________1
 62
     7
  2
AIGNBL02010006
 10
0.0
 20
0.0
 30
0.0
  0
LINE
  5
37C
  8
_________1
 62
     7
 10
117.062
 20
117.378
 30
0.0
 11
136.048
 21
117.378
 31
0.0
  0
LINE
  5
37D
  8
_________1
 62
     7
 10
117.85599999999999
 20
122.879
 30
0.0
 11
136.048
 21
122.879
 31
0.0
  0
LINE
  5
37E
  8
_________1
 62
     7
 10
121.494
 20
137.87799999999999
 30
0.0
 11
136.048
 21
137.87799999999999
 31
0.0
  0
LINE
  5
37F
  8
_________1
 62
     7
 10
123.349
 20
158.87799999999999
 30
0.0
 11
136.048
 21
158.87799999999999
 31
0.0
  0
LINE
  5
380
  8
_________1
 62
     7
 10
123.279
 20
166.87899999999999
 30
0.0
 11
136.041
 21
166.87899999999999
 31
0.0
  0
LINE
  5
381
  8
_________1
 62
     7
 10
112.104
 20
171.87899999999999
 30
0.0
 11
136.041
 21
171.87899999999999
 31
0.0
  0
INSERT
  5
382
  8
_________1
 62
     7
  2
AIGNBL02010007
 10
0.0
 20
0.0
 30
0.0
  0
LINE
  5
383
  8
_________1
 62
     7
 10
96.569700000000012
 20
116.77200000000001
 30
0.0
 11
96.569700000000012
 21
108.23099999999999
 31
0.0
  0
LINE
  5
384
  8
_________1
 62
     7
 10
117.15600000000001
 20
116.77200000000001
 30
0.0
 11
117.15600000000001
 21
108.23099999999999
 31
0.0
  0
INSERT
  5
385
  8
_________1
 62
     7
  2
AIGNBL02010008
 10
0.0
 20
0.0
 30
0.0
  0
INSERT
  5
386
  8
_________1
 62
     7
  2
AIGNBL02010009
 10
0.0
 20
0.0
 30
0.0
  0
INSERT
  5
387
  8
_________1
 62
     7
  2
AIGNBL0201000A
 10
0.0
 20
0.0
 30
0.0
  0
INSERT
  5
388
  8
_________1
 62
     7
  2
AIGNBL0201000B
 10
0.0
 20
0.0
 30
0.0
  0
INSERT
  5
389
  8
_________1
 62
     7
  2
AIGNBL0201000C
 10
0.0
 20
0.0
 30
0.0
  0
INSERT
  5
38A
  8
_________1
 62
     7
  2
AIGNBL0201000D
 10
0.0
 20
0.0
 30
0.0
  0
INSERT
  5
38B
  8
_________1
 62
     7
  2
AIGNBL0201000E
 10
0.0
 20
0.0
 30
0.0
  0
INSERT
  5
38C
  8
_________1
 62
     7
  2
AIGNBL0201000F
 10
0.0
 20
0.0
 30
0.0
  0
INSERT
  5
38D
  8
_________1
 62
     7
  2
AIGNBL02010010
 10
0.0
 20
0.0
 30
0.0
  0
INSERT
  5
38E
  8
_________1
 62
     7
  2
AIGNBL02010011
 10
0.0
 20
0.0
 30
0.0
  0
INSERT
  5
38F
  8
_________1
 62
     7
  2
AIGNBL02010012
 10
0.0
 20
0.0
 30
0.0
  0
INSERT
  5
390
  8
_________1
 62
     7
  2
AIGNBL02010013
 10
0.0
 20
0.0
 30
0.0
  0
INSERT
  5
391
  8
_________1
 62
     7
  2
AIGNBL02010014
 10
0.0
 20
0.0
 30
0.0
  0
INSERT
  5
392
  8
_________1
 62
     7
  2
AIGNBL02010015
 10
0.0
 20
0.0
 30
0.0
  0
INSERT
  5
393
  8
_________1
 62
     7
  2
AIGNBL02010016
 10
0.0
 20
0.0
 30
0.0
  0
INSERT
  5
394
  8
_________1
 62
     7
  2
AIGNBL02010017
 10
0.0
 20
0.0
 30
0.0
  0
INSERT
  5
395
  8
_________1
 62
     7
  2
AIGNBL02010018
 10
0.0
 20
0.0
 30
0.0
  0
INSERT
  5
396
  8
_________1
 62
     7
  2
AIGNBL02010019
 10
0.0
 20
0.0
 30
0.0
  0
INSERT
  5
397
  8
_________1
 62
     7
  2
AIGNBL0201001A
 10
0.0
 20
0.0
 30
0.0
  0
INSERT
  5
398
  8
_________1
 62
     7
  2
AIGNBL0201001B
 10
0.0
 20
0.0
 30
0.0
  0
INSERT
  5
399
  8
_________1
 62
     7
  2
AIGNBL0201001C
 10
0.0
 20
0.0
 30
0.0
  0
INSERT
  5
39A
  8
_________1
 62
     7
  2
AIGNBL0201001D
 10
0.0
 20
0.0
 30
0.0
  0
INSERT
  5
39B
  8
_________1
 62
     7
  2
AIGNBL0201001E
 10
0.0
 20
0.0
 30
0.0
  0
INSERT
  5
39C
  8
_________1
 62
     7
  2
AIGNBL0201001F
 10
0.0
 20
0.0
 30
0.0
  0
INSERT
  5
39D
  8
_________1
 62
     7
  2
AIGNBL02010020
 10
0.0
 20
0.0
 30
0.0
  0
INSERT
  5
39E
  8
_________1
 62
     7
  2
AIGNBL02010021
 10
0.0
 20
0.0
 30
0.0
  0
INSERT
  5
39F
  8
_________1
 62
     7
  2
AIGNBL02010022
 10
0.0
 20
0.0
 30
0.0
  0
INSERT
  5
3A0
  8
_________1
 62
     7
  2
AIGNBL02010023
 10
0.0
 20
0.0
 30
0.0
  0
INSERT
  5
3A1
  8
_________1
 62
     7
  2
AIGNBL02010024
 10
0.0
 20
0.0
 30
0.0
  0
INSERT
  5
3A2
  8
_________1
 62
     7
  2
AIGNBL02010025
 10
0.0
 20
0.0
 30
0.0
  0
INSERT
  5
3A3
  8
_________1
 62
     7
  2
AIGNBL02010026
 10
0.0
 20
0.0
 30
0.0
  0
INSERT
  5
3A4
  8
_________1
 62
     7
  2
AIGNBL02010027
 10
0.0
 20
0.0
 30
0.0
  0
INSERT
  5
3A5
  8
_________1
 62
     7
  2
AIGNBL02010028
 10
0.0
 20
0.0
 30
0.0
  0
INSERT
  5
3A6
  8
_________1
 62
     7
  2
AIGNBL02010029
 10
0.0
 20
0.0
 30
0.0
  0
INSERT
  5
3A7
  8
_________1
 62
     7
  2
AIGNBL0201002A
 10
0.0
 20
0.0
 30
0.0
  0
INSERT
  5
3A8
  8
_________1
 62
     7
  2
AIGNBL0201002B
 10
0.0
 20
0.0
 30
0.0
  0
INSERT
  5
3A9
  8
_________1
 62
     7
  2
AIGNBL0201002C
 10
0.0
 20
0.0
 30
0.0
  0
INSERT
  5
3AA
  8
_________1
 62
     7
  2
AIGNBL0201002D
 10
0.0
 20
0.0
 30
0.0
  0
INSERT
  5
3AB
  8
_________1
 62
     7
  2
AIGNBL0201002E
 10
0.0
 20
0.0
 30
0.0
  0
INSERT
  5
3AC
  8
_________1
 62
     7
  2
AIGNBL0201002F
 10
0.0
 20
0.0
 30
0.0
  0
INSERT
  5
3AD
  8
_________1
 62
     7
  2
AIGNBL02010030
 10
0.0
 20
0.0
 30
0.0
  0
INSERT
  5
3AE
  8
_________1
 62
     7
  2
AIGNBL02010031
 10
0.0
 20
0.0
 30
0.0
  0
INSERT
  5
3AF
  8
_________1
 62
     7
  2
AIGNBL02010032
 10
0.0
 20
0.0
 30
0.0
  0
INSERT
  5
3B0
  8
_________1
 62
     7
  2
AIGNBL02010033
 10
0.0
 20
0.0
 30
0.0
  0
INSERT
  5
3B1
  8
_________1
 62
     7
  2
AIGNBL02010034
 10
0.0
 20
0.0
 30
0.0
  0
INSERT
  5
3B2
  8
_________1
 62
     7
  2
AIGNBL02010035
 10
0.0
 20
0.0
 30
0.0
  0
INSERT
  5
3B3
  8
_________1
 62
     7
  2
AIGNBL02010036
 10
0.0
 20
0.0
 30
0.0
  0
INSERT
  5
3B4
  8
_________1
 62
     7
  2
AIGNBL02010037
 10
0.0
 20
0.0
 30
0.0
  0
INSERT
  5
3B5
  8
_________1
 62
     7
  2
AIGNBL02010038
 10
0.0
 20
0.0
 30
0.0
  0
INSERT
  5
3B6
  8
_________1
 62
     7
  2
AIGNBL02010039
 10
0.0
 20
0.0
 30
0.0
  0
INSERT
  5
3B7
  8
_________1
 62
     7
  2
AIGNBL0201003A
 10
0.0
 20
0.0
 30
0.0
  0
INSERT
  5
3B8
  8
_________1
 62
     7
  2
AIGNBL0201003B
 10
0.0
 20
0.0
 30
0.0
  0
INSERT
  5
3B9
  8
_________1
 62
     7
  2
AIGNBL0201003C
 10
0.0
 20
0.0
 30
0.0
  0
INSERT
  5
3BA
  8
_________1
 62
     7
  2
AIGNBL0201003D
 10
0.0
 20
0.0
 30
0.0
  0
INSERT
  5
3BB
  8
_________1
 62
     7
  2
AIGNBL0201003E
 10
0.0
 20
0.0
 30
0.0
  0
INSERT
  5
3BC
  8
_________1
 62
     7
  2
AIGNBL0201003F
 10
0.0
 20
0.0
 30
0.0
  0
INSERT
  5
3BD
  8
_________1
 62
     7
  2
AIGNBL02010040
 10
0.0
 20
0.0
 30
0.0
  0
INSERT
  5
3BE
  8
_________1
 62
     7
  2
AIGNBL02010041
 10
0.0
 20
0.0
 30
0.0
  0
INSERT
  5
3BF
  8
_________1
 62
     7
  2
AIGNBL02010042
 10
0.0
 20
0.0
 30
0.0
  0
INSERT
  5
3C0
  8
_________1
 62
     7
  2
AIGNBL02010043
 10
0.0
 20
0.0
 30
0.0
  0
INSERT
  5
3C1
  8
_________1
 62
     7
  2
AIGNBL02010044
 10
0.0
 20
0.0
 30
0.0
  0
INSERT
  5
3C2
  8
_________1
 62
     7
  2
AIGNBL02010045
 10
0.0
 20
0.0
 30
0.0
  0
INSERT
  5
3C3
  8
_________1
 62
     7
  2
AIGNBL02010046
 10
0.0
 20
0.0
 30
0.0
  0
INSERT
  5
3C4
  8
_________1
 62
     7
  2
AIGNBL02010047
 10
0.0
 20
0.0
 30
0.0
  0
INSERT
  5
3C5
  8
_________1
 62
     7
  2
AIGNBL02010048
 10
0.0
 20
0.0
 30
0.0
  0
INSERT
  5
3C6
  8
_________1
 62
     7
  2
AIGNBL02010049
 10
0.0
 20
0.0
 30
0.0
  0
INSERT
  5
3C7
  8
_________1
 62
     7
  2
AIGNBL0201004A
 10
0.0
 20
0.0
 30
0.0
  0
INSERT
  5
3C8
  8
_________1
 62
     7
  2
AIGNBL0201004B
 10
0.0
 20
0.0
 30
0.0
  0
INSERT
  5
3C9
  8
_________1
 62
     7
  2
AIGNBL0201004C
 10
0.0
 20
0.0
 30
0.0
  0
INSERT
  5
3CA
  8
_________1
 62
     7
  2
AIGNBL0201004D
 10
0.0
 20
0.0
 30
0.0
  0
INSERT
  5
3CB
  8
_________1
 62
     7
  2
AIGNBL0201004E
 10
0.0
 20
0.0
 30
0.0
  0
INSERT
  5
3CC
  8
_________1
 62
     7
  2
AIGNBL0201004F
 10
0.0
 20
0.0
 30
0.0
  0
INSERT
  5
3CD
  8
_________1
 62
     7
  2
AIGNBL02010050
 10
0.0
 20
0.0
 30
0.0
  0
INSERT
  5
3CE
  8
_________1
 62
     7
  2
AIGNBL02010051
 10
0.0
 20
0.0
 30
0.0
  0
INSERT
  5
3CF
  8
_________1
 62
     7
  2
AIGNBL02010052
 10
0.0
 20
0.0
 30
0.0
  0
INSERT
  5
3D0
  8
_________1
 62
     7
  2
AIGNBL02010053
 10
0.0
 20
0.0
 30
0.0
  0
INSERT
  5
3D1
  8
_________1
 62
     7
  2
AIGNBL02010054
 10
0.0
 20
0.0
 30
0.0
  0
INSERT
  5
3D2
  8
_________1
 62
     7
  2
AIGNBL02010055
 10
0.0
 20
0.0
 30
0.0
  0
INSERT
  5
3D3
  8
_________1
 62
     7
  2
AIGNBL02010056
 10
0.0
 20
0.0
 30
0.0
  0
INSERT
  5
3D4
  8
_________1
 62
     7
  2
AIGNBL02010057
 10
0.0
 20
0.0
 30
0.0
  0
INSERT
  5
3D5
  8
_________1
 62
     7
  2
AIGNBL02010058
 10
0.0
 20
0.0
 30
0.0
  0
INSERT
  5
3D6
  8
_________1
 62
     7
  2
AIGNBL02010059
 10
0.0
 20
0.0
 30
0.0
  0
INSERT
  5
3D7
  8
_________1
 62
     7
  2
AIGNBL0201005A
 10
0.0
 20
0.0
 30
0.0
  0
INSERT
  5
3D8
  8
_________1
 62
     7
  2
AIGNBL0201005B
 10
0.0
 20
0.0
 30
0.0
  0
INSERT
  5
3D9
  8
_________1
 62
     7
  2
AIGNBL0201005C
 10
0.0
 20
0.0
 30
0.0
  0
INSERT
  5
3DA
  8
_________1
 62
     7
  2
AIGNBL0201005D
 10
0.0
 20
0.0
 30
0.0
  0
INSERT
  5
3DB
  8
_________1
 62
     7
  2
AIGNBL0201005E
 10
0.0
 20
0.0
 30
0.0
  0
INSERT
  5
3DC
  8
_________1
 62
     7
  2
AIGNBL0201005F
 10
0.0
 20
0.0
 30
0.0
  0
INSERT
  5
3DD
  8
_________1
 62
     7
  2
AIGNBL02010060
 10
0.0
 20
0.0
 30
0.0
  0
INSERT
  5
3DE
  8
_________1
 62
     7
  2
AIGNBL02010061
 10
0.0
 20
0.0
 30
0.0
  0
INSERT
  5
3DF
  8
_________1
 62
     7
  2
AIGNBL02010062
 10
0.0
 20
0.0
 30
0.0
  0
INSERT
  5
3E0
  8
_________1
 62
     7
  2
AIGNBL02010063
 10
0.0
 20
0.0
 30
0.0
  0
INSERT
  5
3E1
  8
_________1
 62
     7
  2
AIGNBL02010064
 10
0.0
 20
0.0
 30
0.0
  0
INSERT
  5
3E2
  8
_________1
 62
     7
  2
AIGNBL02010065
 10
0.0
 20
0.0
 30
0.0
  0
INSERT
  5
3E3
  8
_________1
 62
     7
  2
AIGNBL02010066
 10
0.0
 20
0.0
 30
0.0
  0
INSERT
  5
3E4
  8
_________1
 62
     7
  2
AIGNBL02010067
 10
0.0
 20
0.0
 30
0.0
  0
INSERT
  5
3E5
  8
_________1
 62
     7
  2
AIGNBL02010068
 10
0.0
 20
0.0
 30
0.0
  0
INSERT
  5
3E6
  8
_________1
 62
     7
  2
AIGNBL02010069
 10
0.0
 20
0.0
 30
0.0
  0
INSERT
  5
3E7
  8
_________1
 62
     7
  2
AIGNBL0201006A
 10
0.0
 20
0.0
 30
0.0
  0
INSERT
  5
3E8
  8
_________1
 62
     7
  2
AIGNBL0201006B
 10
0.0
 20
0.0
 30
0.0
  0
INSERT
  5
3E9
  8
_________1
 62
     7
  2
AIGNBL0201006C
 10
0.0
 20
0.0
 30
0.0
  0
INSERT
  5
3EA
  8
_________1
 62
     7
  2
AIGNBL0201006D
 10
0.0
 20
0.0
 30
0.0
  0
INSERT
  5
3EB
  8
_________1
 62
     7
  2
AIGNBL0201006E
 10
0.0
 20
0.0
 30
0.0
  0
INSERT
  5
3EC
  8
_________1
 62
     7
  2
AIGNBL0201006F
 10
0.0
 20
0.0
 30
0.0
  0
INSERT
  5
3ED
  8
_________1
 62
     7
  2
AIGNBL02010070
 10
0.0
 20
0.0
 30
0.0
  0
INSERT
  5
3EE
  8
_________1
 62
     7
  2
AIGNBL02010071
 10
0.0
 20
0.0
 30
0.0
  0
INSERT
  5
3EF
  8
_________1
 62
     7
  2
AIGNBL02010072
 10
0.0
 20
0.0
 30
0.0
  0
INSERT
  5
3F0
  8
_________1
 62
     7
  2
AIGNBL02010073
 10
0.0
 20
0.0
 30
0.0
  0
INSERT
  5
3F1
  8
_________1
 62
     7
  2
AIGNBL02010074
 10
0.0
 20
0.0
 30
0.0
  0
INSERT
  5
3F2
  8
_________1
 62
     7
  2
AIGNBL02010075
 10
0.0
 20
0.0
 30
0.0
  0
INSERT
  5
3F3
  8
_________1
 62
     7
  2
AIGNBL02010076
 10
0.0
 20
0.0
 30
0.0
  0
INSERT
  5
3F4
  8
_________1
 62
     7
  2
AIGNBL02010077
 10
0.0
 20
0.0
 30
0.0
  0
INSERT
  5
3F5
  8
_________1
 62
     7
  2
AIGNBL02010078
 10
0.0
 20
0.0
 30
0.0
  0
INSERT
  5
3F6
  8
_________1
 62
     7
  2
AIGNBL02010079
 10
0.0
 20
0.0
 30
0.0
  0
INSERT
  5
3F7
  8
_________1
 62
     7
  2
AIGNBL0201007A
 10
0.0
 20
0.0
 30
0.0
  0
INSERT
  5
3F8
  8
_________1
 62
     7
  2
AIGNBL0201007B
 10
0.0
 20
0.0
 30
0.0
  0
INSERT
  5
3F9
  8
_________1
 62
     7
  2
AIGNBL0201007C
 10
0.0
 20
0.0
 30
0.0
  0
INSERT
  5
3FA
  8
_________1
 62
     7
  2
AIGNBL0201007D
 10
0.0
 20
0.0
 30
0.0
  0
INSERT
  5
3FB
  8
_________1
 62
     7
  2
AIGNBL0201007E
 10
0.0
 20
0.0
 30
0.0
  0
INSERT
  5
3FC
  8
_________1
 62
     7
  2
AIGNBL0201007F
 10
0.0
 20
0.0
 30
0.0
  0
INSERT
  5
3FD
  8
_________1
 62
     7
  2
AIGNBL02010080
 10
0.0
 20
0.0
 30
0.0
  0
INSERT
  5
3FE
  8
_________1
 62
     7
  2
AIGNBL02010081
 10
0.0
 20
0.0
 30
0.0
  0
INSERT
  5
3FF
  8
_________1
 62
     7
  2
AIGNBL02010082
 10
0.0
 20
0.0
 30
0.0
  0
INSERT
  5
400
  8
_________1
 62
     7
  2
AIGNBL02010083
 10
0.0
 20
0.0
 30
0.0
  0
INSERT
  5
401
  8
_________1
 62
     7
  2
AIGNBL02010084
 10
0.0
 20
0.0
 30
0.0
  0
INSERT
  5
402
  8
_________1
 62
     7
  2
AIGNBL02010085
 10
0.0
 20
0.0
 30
0.0
  0
INSERT
  5
403
  8
_________1
 62
     7
  2
AIGNBL02010086
 10
0.0
 20
0.0
 30
0.0
  0
INSERT
  5
404
  8
_________1
 62
     7
  2
AIGNBL02010087
 10
0.0
 20
0.0
 30
0.0
  0
INSERT
  5
405
  8
_________1
 62
     7
  2
AIGNBL02010088
 10
0.0
 20
0.0
 30
0.0
  0
INSERT
  5
406
  8
_________1
 62
     7
  2
AIGNBL02010089
 10
0.0
 20
0.0
 30
0.0
  0
INSERT
  5
407
  8
_________1
 62
     7
  2
AIGNBL0201008A
 10
0.0
 20
0.0
 30
0.0
  0
INSERT
  5
408
  8
_________1
 62
     7
  2
AIGNBL0201008B
 10
0.0
 20
0.0
 30
0.0
  0
INSERT
  5
409
  8
_________1
 62
     7
  2
AIGNBL0201008C
 10
0.0
 20
0.0
 30
0.0
  0
INSERT
  5
40A
  8
_________1
 62
     7
  2
AIGNBL0201008D
 10
0.0
 20
0.0
 30
0.0
  0
INSERT
  5
40B
  8
_________1
 62
     7
  2
AIGNBL0201008E
 10
0.0
 20
0.0
 30
0.0
  0
INSERT
  5
40C
  8
_________1
 62
     7
  2
AIGNBL0201008F
 10
0.0
 20
0.0
 30
0.0
  0
INSERT
  5
40D
  8
_________1
 62
     7
  2
AIGNBL02010090
 10
0.0
 20
0.0
 30
0.0
  0
INSERT
  5
40E
  8
_________1
 62
     7
  2
AIGNBL02010091
 10
0.0
 20
0.0
 30
0.0
  0
INSERT
  5
40F
  8
_________1
 62
     7
  2
AIGNBL02010092
 10
0.0
 20
0.0
 30
0.0
  0
INSERT
  5
410
  8
_________1
 62
     7
  2
AIGNBL02010093
 10
0.0
 20
0.0
 30
0.0
  0
INSERT
  5
411
  8
_________1
 62
     7
  2
AIGNBL02010094
 10
0.0
 20
0.0
 30
0.0
  0
INSERT
  5
412
  8
_________1
 62
     7
  2
AIGNBL02010095
 10
0.0
 20
0.0
 30
0.0
  0
INSERT
  5
413
  8
_________1
 62
     7
  2
AIGNBL02010096
 10
0.0
 20
0.0
 30
0.0
  0
INSERT
  5
414
  8
_________1
 62
     7
  2
AIGNBL02010097
 10
0.0
 20
0.0
 30
0.0
  0
INSERT
  5
415
  8
_________1
 62
     7
  2
AIGNBL02010098
 10
0.0
 20
0.0
 30
0.0
  0
INSERT
  5
416
  8
_________1
 62
     7
  2
AIGNBL02010099
 10
0.0
 20
0.0
 30
0.0
  0
INSERT
  5
417
  8
_________1
 62
     7
  2
AIGNBL0201009A
 10
0.0
 20
0.0
 30
0.0
  0
INSERT
  5
418
  8
_________1
 62
     7
  2
AIGNBL0201009B
 10
0.0
 20
0.0
 30
0.0
  0
INSERT
  5
419
  8
_________1
 62
     7
  2
AIGNBL0201009C
 10
0.0
 20
0.0
 30
0.0
  0
INSERT
  5
41A
  8
_________1
 62
     7
  2
AIGNBL0201009D
 10
0.0
 20
0.0
 30
0.0
  0
INSERT
  5
41B
  8
_________1
 62
     7
  2
AIGNBL0201009E
 10
0.0
 20
0.0
 30
0.0
  0
INSERT
  5
41C
  8
_________1
 62
     7
  2
AIGNBL0201009F
 10
0.0
 20
0.0
 30
0.0
  0
INSERT
  5
41D
  8
_________1
 62
     7
  2
AIGNBL020100A0
 10
0.0
 20
0.0
 30
0.0
  0
INSERT
  5
41E
  8
_________1
 62
     7
  2
AIGNBL020100A1
 10
0.0
 20
0.0
 30
0.0
  0
INSERT
  5
41F
  8
_________1
 62
     7
  2
AIGNBL020100A2
 10
0.0
 20
0.0
 30
0.0
  0
INSERT
  5
420
  8
_________1
 62
     7
  2
AIGNBL020100A3
 10
0.0
 20
0.0
 30
0.0
  0
INSERT
  5
421
  8
_________1
 62
     7
  2
AIGNBL020100A4
 10
0.0
 20
0.0
 30
0.0
  0
INSERT
  5
422
  8
_________1
 62
     7
  2
AIGNBL020100A5
 10
0.0
 20
0.0
 30
0.0
  0
INSERT
  5
423
  8
_________1
 62
     7
  2
AIGNBL020100A6
 10
0.0
 20
0.0
 30
0.0
  0
INSERT
  5
424
  8
_________1
 62
     7
  2
AIGNBL020100A7
 10
0.0
 20
0.0
 30
0.0
  0
INSERT
  5
425
  8
_________1
 62
     7
  2
AIGNBL020100A8
 10
0.0
 20
0.0
 30
0.0
  0
INSERT
  5
426
  8
_________1
 62
     7
  2
AIGNBL020100A9
 10
0.0
 20
0.0
 30
0.0
  0
INSERT
  5
427
  8
_________1
 62
     7
  2
AIGNBL020100AA
 10
0.0
 20
0.0
 30
0.0
  0
INSERT
  5
428
  8
_________1
 62
     7
  2
AIGNBL020100AB
 10
0.0
 20
0.0
 30
0.0
  0
INSERT
  5
429
  8
_________1
 62
     7
  2
AIGNBL020100AC
 10
0.0
 20
0.0
 30
0.0
  0
INSERT
  5
42A
  8
_________1
 62
     7
  2
AIGNBL020100AD
 10
0.0
 20
0.0
 30
0.0
  0
INSERT
  5
42B
  8
_________1
 62
     7
  2
AIGNBL020100AE
 10
0.0
 20
0.0
 30
0.0
  0
INSERT
  5
42C
  8
_________1
 62
     7
  2
AIGNBL020100AF
 10
0.0
 20
0.0
 30
0.0
  0
INSERT
  5
42D
  8
_________1
 62
     7
  2
AIGNBL020100B0
 10
0.0
 20
0.0
 30
0.0
  0
TEXT
  5
42E
  8
_________2
 62
     7
 10
142.09348750000001
 20
30.627400000000002
 30
0.0
 40
3.9357000000000002
  1
CET740R
 41
0.5
 72
     1
 11
148.489
 21
30.627400000000002
 31
0.0
  0
TEXT
  5
42F
  8
_________2
 62
     7
 10
142.09348750000001
 20
20.6266
 30
0.0
 40
3.9357000000000002
  1
CET740R
 41
0.5
 72
     1
 11
148.489
 21
20.6266
 31
0.0
  0
TEXT
  5
430
  8
_________2
 62
     7
 10
29.525700000000001
 20
22.226900000000001
 30
0.0
 40
3.9357000000000002
  1
ヨーロッパ製洗面器・手洗器用
 41
0.5
  0
LINE
  5
431
  8
_________2
 62
     7
 10
210.24000000000001
 20
148.93100000000001
 30
0.0
 11
188.49000000000001
 21
148.93100000000001
 31
0.0
  0
LINE
  5
432
  8
_________2
 62
     7
 10
105.239
 20
17.4282
 30
0.0
 11
105.239
 21
0.4482100000000001
 31
0.0
  0
LINE
  5
433
  8
_________2
 62
     7
 10
105.239
 20
297.44999999999999
 30
0.0
 11
105.239
 21
280.43000000000001
 31
0.0
  0
LINE
  5
434
  8
_________2
 62
     7
 10
21.988499999999998
 20
148.93100000000001
 30
0.0
 11
0.238058
 21
148.93100000000001
 31
0.0
  0
INSERT
  5
435
  8
_________2
 62
     7
  2
AIGNBL03010002
 10
0.0
 20
0.0
 30
0.0
  0
TEXT
  5
436
  8
_________2
 62
     7
 10
109.544
 20
23.198699999999999
 30
0.0
 40
3.0923400000000001
  1
図番
 41
0.5
  0
LINE
  5
437
  8
_________2
 62
     7
 10
108.489
 20
27.428000000000001
 30
0.0
 11
188.49000000000001
 21
27.428000000000001
 31
0.0
  0
TEXT
  5
438
  8
_________2
 62
     7
 10
109.544
 20
33.19850000000001
 30
0.0
 40
3.0923400000000001
  1
品番
 41
0.5
  0
TEXT
  5
439
  8
_________2
 62
     7
 10
109.544
 20
53.337699999999998
 30
0.0
 40
3.0923400000000001
  1
名称
 41
0.5
  0
TEXT
  5
43A
  8
_________2
 62
     7
 10
96.784058333333334
 20
48.341500000000011
 30
0.0
 40
3.6545800000000002
  1
mm
 41
0.5
 72
     1
 11
98.306799999999996
 21
48.341500000000011
 31
0.0
  0
TEXT
  5
43B
  8
_________2
 62
     7
 10
90.582099999999997
 20
53.337699999999998
 30
0.0
 40
3.0923400000000001
  1
単位
 41
0.5
  0
TEXT
  5
43C
  8
_________2
 62
     7
 10
90.582099999999997
 20
40.930100000000003
 30
0.0
 40
3.0923400000000001
  1
尺度
 41
0.5
  0
TEXT
  5
43D
  8
_________2
 62
     7
 10
95.487658666666675
 20
34.737499999999997
 30
0.0
 40
3.6545800000000002
  1
1 ： 2
 41
0.5
 72
     1
 11
98.898600000000002
 21
34.737499999999997
 31
0.0
  0
TEXT
  5
43E
  8
_________2
 62
     7
 10
114.11799999999999
 20
45.7453
 30
0.0
 40
3.9357000000000002
  1
ダイレクトプッシュ　排水ヘッド部
 41
0.5
  0
TEXT
  5
43F
  8
_________2
 62
     7
 10
44.364200333333329
 20
35.122599999999998
 30
0.0
 40
3.6545800000000002
  1
井田
 41
0.5
 72
     1
 11
46.252400000000002
 21
35.122599999999998
 31
0.0
  0
TEXT
  5
440
  8
_________2
 62
     7
 10
25.729290666666671
 20
35.122599999999998
 30
0.0
 40
3.6545800000000002
  1
恋塚
 41
0.5
 72
     1
 11
27.6784
 21
35.122599999999998
 31
0.0
  0
TEXT
  5
441
  8
_________2
 62
     7
 10
72.724699999999999
 20
34.737499999999997
 30
0.0
 40
3.6545800000000002
  1
19.10.09
 41
0.5
  0
TEXT
  5
442
  8
_________2
 62
     7
 10
71.531999999999996
 20
40.930100000000003
 30
0.0
 40
3.0923400000000001
  1
日付
 41
0.5
  0
TEXT
  5
443
  8
_________2
 62
     7
 10
34.578299999999999
 20
40.930100000000003
 30
0.0
 40
3.0923400000000001
  1
検図
 41
0.5
  0
TEXT
  5
444
  8
_________2
 62
     7
 10
22.960000000000001
 20
26.730699999999999
 30
0.0
 40
3.0923400000000001
  1
備考
 41
0.5
  0
TEXT
  5
445
  8
_________2
 62
     7
 10
22.960000000000001
 20
40.930100000000003
 30
0.0
 40
3.0923400000000001
  1
製図
 41
0.5
  0
TEXT
  5
446
  8
_________2
 62
     7
 10
28.727365333333339
 20
49.456000000000003
 30
0.0
 40
4.4979399999999989
  1
セラトレーディング株式会社
 41
0.5
 72
     1
 11
46.119399999999992
 21
49.456000000000003
 31
0.0
  0
LINE
  5
447
  8
_________2
 62
     7
 10
188.49000000000001
 20
17.4282
 30
0.0
 11
21.988499999999998
 21
17.4282
 31
0.0
  0
LINE
  5
448
  8
_________2
 62
     7
 10
21.988499999999998
 20
17.4282
 30
0.0
 11
21.988499999999998
 21
280.43000000000001
 31
0.0
  0
LINE
  5
449
  8
_________2
 62
     7
 10
21.988499999999998
 20
280.43000000000001
 30
0.0
 11
188.49000000000001
 21
280.43000000000001
 31
0.0
  0
LINE
  5
44A
  8
_________2
 62
     7
 10
188.49000000000001
 20
280.43000000000001
 30
0.0
 11
188.49000000000001
 21
17.4282
 31
0.0
  0
LINE
  5
44B
  8
_________2
 62
     7
 10
70.488799999999998
 20
30.9285
 30
0.0
 11
70.488799999999998
 21
57.428400000000011
 31
0.0
  0
LINE
  5
44C
  8
_________2
 62
     7
 10
89.488600000000005
 20
30.9285
 30
0.0
 11
89.488600000000005
 21
57.428400000000011
 31
0.0
  0
LINE
  5
44D
  8
_________2
 62
     7
 10
108.489
 20
17.4282
 30
0.0
 11
108.489
 21
57.428400000000011
 31
0.0
  0
LINE
  5
44E
  8
_________2
 62
     7
 10
33.488300000000002
 20
30.9285
 30
0.0
 11
33.488300000000002
 21
44.928499999999993
 31
0.0
  0
LINE
  5
44F
  8
_________2
 62
     7
 10
21.988499999999998
 20
30.9285
 30
0.0
 11
108.489
 21
30.9285
 31
0.0
  0
LINE
  5
450
  8
_________2
 62
     7
 10
21.988499999999998
 20
44.928499999999993
 30
0.0
 11
108.489
 21
44.928499999999993
 31
0.0
  0
LINE
  5
451
  8
_________2
 62
     7
 10
108.489
 20
37.427799999999998
 30
0.0
 11
188.49000000000001
 21
37.427799999999998
 31
0.0
  0
LINE
  5
452
  8
_________2
 62
     7
 10
21.988499999999998
 20
57.428400000000011
 30
0.0
 11
188.49000000000001
 21
57.428400000000011
 31
0.0
  0
ENDSEC
  0
EOF
