  0
SECTION
  2
HEADER
  9
$ACADVER
  1
AC1009
  9
$INSBASE
 10
0.0
 20
0.0
 30
0.0
  9
$EXTMIN
 10
0.238058
 20
0.4482100000000001
 30
0.0
  9
$EXTMAX
 10
210.24000000000001
 20
297.44999999999987
 30
0.0
  9
$LIMMIN
 10
0.0
 20
0.0
  9
$LIMMAX
 10
12.0
 20
9.0
  9
$ORTHOMODE
 70
     0
  9
$REGENMODE
 70
     1
  9
$FILLMODE
 70
     1
  9
$QTEXTMODE
 70
     0
  9
$MIRRTEXT
 70
     1
  9
$DRAGMODE
 70
     2
  9
$LTSCALE
 40
1.0
  9
$OSMODE
 70
    37
  9
$ATTMODE
 70
     1
  9
$TEXTSIZE
 40
0.0
  9
$TRACEWID
 40
0.05
  9
$TEXTSTYLE
  7
STANDARD
  9
$CLAYER
  8
0
  9
$CELTYPE
  6
CONTINUOUS
  9
$CECOLOR
 62
   256
  9
$DIMSCALE
 40
1.0
  9
$DIMASZ
 40
0.18
  9
$DIMEXO
 40
0.0625
  9
$DIMDLI
 40
0.38
  9
$DIMRND
 40
0.0
  9
$DIMDLE
 40
0.0
  9
$DIMEXE
 40
0.18
  9
$DIMTP
 40
0.0
  9
$DIMTM
 40
0.0
  9
$DIMTXT
 40
0.18
  9
$DIMCEN
 40
0.09
  9
$DIMTSZ
 40
0.0
  9
$DIMTOL
 70
     0
  9
$DIMLIM
 70
     0
  9
$DIMTIH
 70
     1
  9
$DIMTOH
 70
     1
  9
$DIMSE1
 70
     0
  9
$DIMSE2
 70
     0
  9
$DIMTAD
 70
     0
  9
$DIMZIN
 70
     0
  9
$DIMBLK
  1

  9
$DIMASO
 70
     1
  9
$DIMSHO
 70
     1
  9
$DIMPOST
  1

  9
$DIMAPOST
  1

  9
$DIMALT
 70
     0
  9
$DIMALTD
 70
     2
  9
$DIMALTF
 40
25.399999999999999
  9
$DIMLFAC
 40
1.0
  9
$DIMTOFL
 70
     0
  9
$DIMTVP
 40
0.0
  9
$DIMTIX
 70
     0
  9
$DIMSOXD
 70
     0
  9
$DIMSAH
 70
     0
  9
$DIMBLK1
  1

  9
$DIMBLK2
  1

  9
$DIMSTYLE
  2
STANDARD
  9
$DIMCLRD
 70
     0
  9
$DIMCLRE
 70
     0
  9
$DIMCLRT
 70
     0
  9
$DIMTFAC
 40
1.0
  9
$DIMGAP
 40
0.09
  9
$LUNITS
 70
     2
  9
$LUPREC
 70
     4
  9
$SKETCHINC
 40
0.1
  9
$FILLETRAD
 40
0.0
  9
$AUNITS
 70
     0
  9
$AUPREC
 70
     0
  9
$MENU
  1
.
  9
$ELEVATION
 40
0.0
  9
$PELEVATION
 40
0.0
  9
$THICKNESS
 40
0.0
  9
$LIMCHECK
 70
     0
  9
$BLIPMODE
 70
     0
  9
$CHAMFERA
 40
0.0
  9
$CHAMFERB
 40
0.0
  9
$SKPOLY
 70
     0
  9
$TDCREATE
 40
2444972.375
  9
$TDUPDATE
 40
2456323.2519963421
  9
$TDINDWG
 40
0.0000066898
  9
$TDUSRTIMER
 40
0.0000066898
  9
$USRTIMER
 70
     1
  9
$ANGBASE
 50
0.0
  9
$ANGDIR
 70
     0
  9
$PDMODE
 70
     0
  9
$PDSIZE
 40
0.0
  9
$PLINEWID
 40
0.0
  9
$COORDS
 70
     1
  9
$SPLFRAME
 70
     0
  9
$SPLINETYPE
 70
     6
  9
$SPLINESEGS
 70
     8
  9
$ATTDIA
 70
     0
  9
$ATTREQ
 70
     1
  9
$HANDLING
 70
     1
  9
$HANDSEED
  5
1A5
  9
$SURFTAB1
 70
     6
  9
$SURFTAB2
 70
     6
  9
$SURFTYPE
 70
     6
  9
$SURFU
 70
     6
  9
$SURFV
 70
     6
  9
$UCSNAME
  2

  9
$UCSORG
 10
0.0
 20
0.0
 30
0.0
  9
$UCSXDIR
 10
1.0
 20
0.0
 30
0.0
  9
$UCSYDIR
 10
0.0
 20
1.0
 30
0.0
  9
$PUCSNAME
  2

  9
$PUCSORG
 10
0.0
 20
0.0
 30
0.0
  9
$PUCSXDIR
 10
1.0
 20
0.0
 30
0.0
  9
$PUCSYDIR
 10
0.0
 20
1.0
 30
0.0
  9
$USERI1
 70
     0
  9
$USERI2
 70
     0
  9
$USERI3
 70
     0
  9
$USERI4
 70
     0
  9
$USERI5
 70
     0
  9
$USERR1
 40
0.0
  9
$USERR2
 40
0.0
  9
$USERR3
 40
0.0
  9
$USERR4
 40
0.0
  9
$USERR5
 40
0.0
  9
$WORLDVIEW
 70
     1
  9
$SHADEDGE
 70
     3
  9
$SHADEDIF
 70
    70
  9
$TILEMODE
 70
     1
  9
$MAXACTVP
 70
    48
  9
$PLIMCHECK
 70
     0
  9
$PEXTMIN
 10
1.0000000000000000E+020
 20
1.0000000000000000E+020
 30
1.0000000000000000E+020
  9
$PEXTMAX
 10
-1.0000000000000000E+020
 20
-1.0000000000000000E+020
 30
-1.0000000000000000E+020
  9
$PLIMMIN
 10
0.0
 20
0.0
  9
$PLIMMAX
 10
12.0
 20
9.0
  9
$UNITMODE
 70
     0
  9
$VISRETAIN
 70
     1
  9
$PLINEGEN
 70
     0
  9
$PSLTSCALE
 70
     1
  0
ENDSEC
  0
SECTION
  2
TABLES
  0
TABLE
  2
VPORT
 70
     2
  0
VPORT
  2
*ACTIVE
 70
     0
 10
0.0
 20
0.0
 11
1.0
 21
1.0
 12
210.2887023820887
 22
148.72499999999991
 13
0.0
 23
0.0
 14
1.0
 24
1.0
 15
0.0
 25
0.0
 16
0.0
 26
0.0
 36
1.0
 17
0.0
 27
0.0
 37
0.0
 40
299.69773299748101
 41
2.2894736842105261
 42
50.0
 43
0.0
 44
0.0
 50
0.0
 51
0.0
 71
     0
 72
   100
 73
     1
 74
     1
 75
     0
 76
     0
 77
     0
 78
     0
  0
ENDTAB
  0
TABLE
  2
LTYPE
 70
     2
  0
LTYPE
  2
CONTINUOUS
 70
     0
  3
Solid line
 72
    65
 73
     0
 40
0.0
  0
LTYPE
  2
AIGENLINE001
 70
     0
  3
generate AI->DXF Converter
 72
    65
 73
     4
 40
5.8561449999999988
 49
3.5278
 49
-0.776115
 49
0.776115
 49
-0.776115
  0
ENDTAB
  0
TABLE
  2
LAYER
 70
     2
  0
LAYER
  2
0
 70
     0
 62
     7
  6
CONTINUOUS
  0
LAYER
  2
_________2
 70
     0
 62
     7
  6
CONTINUOUS
  0
ENDTAB
  0
TABLE
  2
STYLE
 70
     1
  0
STYLE
  2
STANDARD
 70
     0
 40
0.0
 41
0.0
 50
0.0
 71
     0
 42
0.0
  3
TXT
  4
EXTFONT.SHX
  0
ENDTAB
  0
TABLE
  2
VIEW
 70
     0
  0
ENDTAB
  0
TABLE
  2
UCS
 70
     0
  0
ENDTAB
  0
TABLE
  2
APPID
 70
     1
  0
APPID
  2
ACAD
 70
     0
  0
ENDTAB
  0
TABLE
  2
DIMSTYLE
 70
     1
  0
DIMSTYLE
  2
STANDARD
 70
     0
  3

  4

  5

  6

  7

 40
1.0
 41
0.18
 42
0.0625
 43
0.38
 44
0.18
 45
0.0
 46
0.0
 47
0.0
 48
0.0
140
0.18
141
0.09
142
0.0
143
25.399999999999999
144
1.0
145
0.0
146
1.0
147
0.09
 71
     0
 72
     0
 73
     1
 74
     1
 75
     0
 76
     0
 77
     0
 78
     0
170
     0
171
     2
172
     0
173
     0
174
     0
175
     0
176
     0
177
     0
178
     0
  0
ENDTAB
  0
ENDSEC
  0
SECTION
  2
BLOCKS
  0
BLOCK
  8
0
  2
$MODEL_SPACE
 70
     0
 10
0.0
 20
0.0
 30
0.0
  3
$MODEL_SPACE
  1

  0
ENDBLK
  5
1A
  8
0
  0
BLOCK
 67
     1
  8
0
  2
$PAPER_SPACE
 70
     0
 10
0.0
 20
0.0
 30
0.0
  3
$PAPER_SPACE
  1

  0
ENDBLK
  5
17
 67
     1
  8
0
  0
ENDSEC
  0
SECTION
  2
ENTITIES
  0
TEXT
  5
22
  8
0
 62
     7
 10
134.64400000000001
 20
119.355915
 30
0.0
 40
3.0923400000000001
  1
11
 50
90.0
 41
0.5
 72
     1
 11
134.64400000000001
 21
120.12899999999991
 31
0.0
  0
TEXT
  5
23
  8
0
 62
     7
 10
134.64400000000001
 20
129.2183724999999
 30
0.0
 40
3.0923400000000001
  1
30
 50
90.0
 41
0.5
 72
     1
 11
134.64400000000001
 21
130.3779999999999
 31
0.0
  0
TEXT
  5
24
  8
0
 62
     7
 10
131.071
 20
159.012575
 30
0.0
 40
3.0923400000000001
  1
down.6
 50
90.0
 41
0.5
 72
     1
 11
131.071
 21
162.8779999999999
 31
0.0
  0
TEXT
  5
25
  8
0
 62
     7
 10
134.93700000000001
 20
160.04335499999991
 30
0.0
 40
3.0923400000000001
  1
up.16
 50
90.0
 41
0.5
 72
     1
 11
134.93700000000001
 21
162.8779999999999
 31
0.0
  0
TEXT
  5
26
  8
0
 62
     7
 10
134.64400000000001
 20
168.24606750000001
 30
0.0
 40
3.0923400000000001
  1
10
 50
90.0
 41
0.5
 72
     1
 11
134.64400000000001
 21
169.148
 31
0.0
  0
TEXT
  5
27
  8
0
 62
     7
 10
131.42099999999991
 20
145.02796499999991
 30
0.0
 40
3.0923400000000001
  1
mix.32
 50
90.0
 41
0.5
 72
     1
 11
131.42099999999991
 21
148.3779999999999
 31
0.0
  0
TEXT
  5
28
  8
0
 62
     7
 10
135.28700000000001
 20
144.512575
 30
0.0
 40
3.0923400000000001
  1
max.45
 50
90.0
 41
0.5
 72
     1
 11
135.28700000000001
 21
148.3779999999999
 31
0.0
  0
TEXT
  5
29
  8
0
 62
     7
 10
103.3068089999999
 20
109.27799999999991
 30
0.0
 40
3.0923400000000001
  1
G1 1/4
 41
0.5
 72
     1
 11
106.8629999999999
 21
109.27799999999991
 31
0.0
  0
TEXT
  5
2A
  8
0
 62
     7
 10
99.041256944177064
 20
197.28025694417701
 30
0.0
 40
3.0923400000000001
  1
%%c63
 50
45.0
 41
0.5
 72
     1
 11
100.499
 21
198.738
 31
0.0
  0
ARC
  5
2B
  8
0
 62
     7
 10
106.863056
 20
203.13789700000001
 30
0.0
 40
15.750045
 50
270.00002000000001
 51
359.99998999999991
  0
ARC
  5
2C
  8
0
 62
     7
 10
106.863056
 20
203.13789199999991
 30
0.0
 40
15.75004
 50
179.99996999999991
 51
270.00002000000001
  0
ARC
  5
2D
  8
0
 62
     7
 10
106.863062
 20
203.13789199999991
 30
0.0
 40
15.750045
 50
90.0
 51
179.99996999999991
  0
ARC
  5
2E
  8
0
 62
     7
 10
106.863056
 20
203.13789199999991
 30
0.0
 40
15.750045
 50
0.00001
 51
89.999980000000008
  0
LINE
  5
2F
  8
0
 62
     7
 10
136.2829999999999
 20
120.66799999999991
 30
0.0
 11
135.691
 21
122.87899999999991
 31
0.0
  0
LINE
  5
30
  8
0
 62
     7
 10
135.691
 20
122.87899999999991
 30
0.0
 11
135.0989999999999
 21
120.66799999999991
 31
0.0
  0
LINE
  5
31
  8
0
 62
     7
 10
135.0989999999999
 20
120.66799999999991
 30
0.0
 11
136.2829999999999
 21
120.66799999999991
 31
0.0
  0
LINE
  5
32
  8
0
 62
     7
 10
135.10599999999991
 20
119.5899999999999
 30
0.0
 11
135.69799999999989
 21
117.3779999999999
 31
0.0
  0
LINE
  5
33
  8
0
 62
     7
 10
135.69799999999989
 20
117.3779999999999
 30
0.0
 11
136.291
 21
119.5899999999999
 31
0.0
  0
LINE
  5
34
  8
0
 62
     7
 10
136.291
 20
119.5899999999999
 30
0.0
 11
135.10599999999991
 21
119.5899999999999
 31
0.0
  0
LINE
  5
35
  8
0
 62
     7
 10
135.69499999999991
 20
122.87899999999991
 30
0.0
 11
135.69499999999991
 21
117.3779999999999
 31
0.0
  0
LINE
  5
36
  8
0
 62
     7
 10
136.2829999999999
 20
135.66800000000001
 30
0.0
 11
135.691
 21
137.8779999999999
 31
0.0
  0
LINE
  5
37
  8
0
 62
     7
 10
135.691
 20
137.8779999999999
 30
0.0
 11
135.0989999999999
 21
135.66800000000001
 31
0.0
  0
LINE
  5
38
  8
0
 62
     7
 10
135.0989999999999
 20
135.66800000000001
 30
0.0
 11
136.2829999999999
 21
135.66800000000001
 31
0.0
  0
LINE
  5
39
  8
0
 62
     7
 10
135.10599999999991
 20
125.089
 30
0.0
 11
135.69799999999989
 21
122.87899999999991
 31
0.0
  0
LINE
  5
3A
  8
0
 62
     7
 10
135.69799999999989
 20
122.87899999999991
 30
0.0
 11
136.291
 21
125.089
 31
0.0
  0
LINE
  5
3B
  8
0
 62
     7
 10
136.291
 20
125.089
 30
0.0
 11
135.10599999999991
 21
125.089
 31
0.0
  0
LINE
  5
3C
  8
0
 62
     7
 10
135.69499999999991
 20
137.8779999999999
 30
0.0
 11
135.69499999999991
 21
122.87899999999991
 31
0.0
  0
LINE
  5
3D
  8
0
 62
     7
 10
136.2829999999999
 20
156.66800000000001
 30
0.0
 11
135.691
 21
158.8779999999999
 31
0.0
  0
LINE
  5
3E
  8
0
 62
     7
 10
135.691
 20
158.8779999999999
 30
0.0
 11
135.0989999999999
 21
156.66800000000001
 31
0.0
  0
LINE
  5
3F
  8
0
 62
     7
 10
135.0989999999999
 20
156.66800000000001
 30
0.0
 11
136.2829999999999
 21
156.66800000000001
 31
0.0
  0
LINE
  5
40
  8
0
 62
     7
 10
135.10599999999991
 20
140.08899999999991
 30
0.0
 11
135.69799999999989
 21
137.8779999999999
 31
0.0
  0
LINE
  5
41
  8
0
 62
     7
 10
135.69799999999989
 20
137.8779999999999
 30
0.0
 11
136.291
 21
140.08899999999991
 31
0.0
  0
LINE
  5
42
  8
0
 62
     7
 10
136.291
 20
140.08899999999991
 30
0.0
 11
135.10599999999991
 21
140.08899999999991
 31
0.0
  0
LINE
  5
43
  8
0
 62
     7
 10
135.69499999999991
 20
158.8779999999999
 30
0.0
 11
135.69499999999991
 21
137.8779999999999
 31
0.0
  0
LINE
  5
44
  8
0
 62
     7
 10
136.2829999999999
 20
169.66800000000001
 30
0.0
 11
135.691
 21
171.87899999999999
 31
0.0
  0
LINE
  5
45
  8
0
 62
     7
 10
135.691
 20
171.87899999999999
 30
0.0
 11
135.0989999999999
 21
169.66800000000001
 31
0.0
  0
LINE
  5
46
  8
0
 62
     7
 10
135.0989999999999
 20
169.66800000000001
 30
0.0
 11
136.2829999999999
 21
169.66800000000001
 31
0.0
  0
LINE
  5
47
  8
0
 62
     7
 10
135.10599999999991
 20
169.09
 30
0.0
 11
135.69799999999989
 21
166.87899999999999
 31
0.0
  0
LINE
  5
48
  8
0
 62
     7
 10
135.69799999999989
 20
166.87899999999999
 30
0.0
 11
136.291
 21
169.09
 31
0.0
  0
LINE
  5
49
  8
0
 62
     7
 10
136.291
 20
169.09
 30
0.0
 11
135.10599999999991
 21
169.09
 31
0.0
  0
LINE
  5
4A
  8
0
 62
     7
 10
135.69499999999991
 20
171.87899999999999
 30
0.0
 11
135.69499999999991
 21
166.87899999999999
 31
0.0
  0
LINE
  5
4B
  8
0
 62
     7
 10
136.2829999999999
 20
164.66800000000001
 30
0.0
 11
135.691
 21
166.87899999999999
 31
0.0
  0
LINE
  5
4C
  8
0
 62
     7
 10
135.691
 20
166.87899999999999
 30
0.0
 11
135.0989999999999
 21
164.66800000000001
 31
0.0
  0
LINE
  5
4D
  8
0
 62
     7
 10
135.0989999999999
 20
164.66800000000001
 30
0.0
 11
136.2829999999999
 21
164.66800000000001
 31
0.0
  0
LINE
  5
4E
  8
0
 62
     7
 10
135.10599999999991
 20
161.08999999999989
 30
0.0
 11
135.69799999999989
 21
158.8779999999999
 31
0.0
  0
LINE
  5
4F
  8
0
 62
     7
 10
135.69799999999989
 20
158.8779999999999
 30
0.0
 11
136.291
 21
161.08999999999989
 31
0.0
  0
LINE
  5
50
  8
0
 62
     7
 10
136.291
 20
161.08999999999989
 30
0.0
 11
135.10599999999991
 21
161.08999999999989
 31
0.0
  0
LINE
  5
51
  8
0
 62
     7
 10
135.69499999999991
 20
166.87899999999999
 30
0.0
 11
135.69499999999991
 21
158.8779999999999
 31
0.0
  0
LINE
  5
52
  8
0
 62
     7
 10
117.062
 20
117.3779999999999
 30
0.0
 11
136.048
 21
117.3779999999999
 31
0.0
  0
LINE
  5
53
  8
0
 62
     7
 10
117.85599999999999
 20
122.87899999999991
 30
0.0
 11
136.048
 21
122.87899999999991
 31
0.0
  0
LINE
  5
54
  8
0
 62
     7
 10
121.494
 20
137.8779999999999
 30
0.0
 11
136.048
 21
137.8779999999999
 31
0.0
  0
LINE
  5
55
  8
0
 62
     7
 10
123.3489999999999
 20
158.8779999999999
 30
0.0
 11
136.048
 21
158.8779999999999
 31
0.0
  0
LINE
  5
56
  8
0
 62
     7
 10
123.279
 20
166.87899999999999
 30
0.0
 11
136.04099999999991
 21
166.87899999999999
 31
0.0
  0
LINE
  5
57
  8
0
 62
     7
 10
112.104
 20
171.87899999999999
 30
0.0
 11
136.04099999999991
 21
171.87899999999999
 31
0.0
  0
LINE
  5
58
  8
0
 62
     7
 10
114.9459999999999
 20
107.98999999999999
 30
0.0
 11
117.15600000000001
 21
108.581
 31
0.0
  0
LINE
  5
59
  8
0
 62
     7
 10
117.15600000000001
 20
108.581
 30
0.0
 11
114.9459999999999
 21
109.17399999999989
 31
0.0
  0
LINE
  5
5A
  8
0
 62
     7
 10
114.9459999999999
 20
109.17399999999989
 30
0.0
 11
114.9459999999999
 21
107.98999999999999
 31
0.0
  0
LINE
  5
5B
  8
0
 62
     7
 10
98.780799999999999
 20
109.167
 30
0.0
 11
96.569700000000012
 21
108.5749999999999
 31
0.0
  0
LINE
  5
5C
  8
0
 62
     7
 10
96.569700000000012
 20
108.5749999999999
 30
0.0
 11
98.780799999999999
 21
107.982
 31
0.0
  0
LINE
  5
5D
  8
0
 62
     7
 10
98.780799999999999
 20
107.982
 30
0.0
 11
98.780799999999999
 21
109.167
 31
0.0
  0
LINE
  5
5E
  8
0
 62
     7
 10
117.15600000000001
 20
108.5779999999999
 30
0.0
 11
96.569700000000012
 21
108.5779999999999
 31
0.0
  0
LINE
  5
5F
  8
0
 62
     7
 10
96.569700000000012
 20
116.77200000000001
 30
0.0
 11
96.569700000000012
 21
108.23099999999999
 31
0.0
  0
LINE
  5
60
  8
0
 62
     7
 10
117.15600000000001
 20
116.77200000000001
 30
0.0
 11
117.15600000000001
 21
108.23099999999999
 31
0.0
  0
LINE
  5
61
  8
0
 62
     7
 10
116.85599999999999
 20
212.29300000000001
 30
0.0
 11
118.0
 21
214.27499999999989
 31
0.0
  0
LINE
  5
62
  8
0
 62
     7
 10
118.0
 20
214.27499999999989
 30
0.0
 11
116.0179999999999
 21
213.13099999999989
 31
0.0
  0
LINE
  5
63
  8
0
 62
     7
 10
116.0179999999999
 20
213.13099999999989
 30
0.0
 11
116.85599999999999
 21
212.29300000000001
 31
0.0
  0
LINE
  5
64
  8
0
 62
     7
 10
96.872900000000001
 20
193.98099999999991
 30
0.0
 11
95.728399999999993
 21
191.99799999999991
 31
0.0
  0
LINE
  5
65
  8
0
 62
     7
 10
95.728399999999993
 20
191.99799999999991
 30
0.0
 11
97.710800000000006
 21
193.14299999999989
 31
0.0
  0
LINE
  5
66
  8
0
 62
     7
 10
97.710800000000006
 20
193.14299999999989
 30
0.0
 11
96.872900000000001
 21
193.98099999999991
 31
0.0
  0
LINE
  5
67
  8
0
 62
     7
 10
118.0029999999999
 20
214.27199999999999
 30
0.0
 11
95.725999999999985
 21
192.00099999999989
 31
0.0
  0
LINE
  5
68
  8
0
  6
AIGENLINE001
 62
     7
 10
85.154300000000006
 20
203.13799999999989
 30
0.0
 11
127.434
 21
203.13799999999989
 31
0.0
  0
LINE
  5
69
  8
0
  6
AIGENLINE001
 62
     7
 10
106.8629999999999
 20
224.41200000000001
 30
0.0
 11
106.8629999999999
 21
182.1329999999999
 31
0.0
  0
LINE
  5
6A
  8
0
  6
AIGENLINE001
 62
     7
 10
106.8629999999999
 20
173.19999999999999
 30
0.0
 11
106.8629999999999
 21
114.324
 31
0.0
  0
LINE
  5
6B
  8
0
 62
     7
 10
97.214100000000002
 20
122.13500000000001
 30
0.0
 11
97.214100000000002
 21
117.52799999999991
 31
0.0
  0
LINE
  5
6C
  8
0
 62
     7
 10
116.511
 20
117.52799999999991
 30
0.0
 11
116.511
 21
122.13500000000001
 31
0.0
  0
LINE
  5
6D
  8
0
 62
     7
 10
95.949799999999996
 20
133.77099999999999
 30
0.0
 11
117.776
 21
133.77099999999999
 31
0.0
  0
LINE
  5
6E
  8
0
 62
     7
 10
95.766000000000005
 20
134.02899999999991
 30
0.0
 11
117.95999999999989
 21
134.02899999999991
 31
0.0
  0
LINE
  5
6F
  8
0
 62
     7
 10
91.361099999999993
 20
135.81200000000001
 30
0.0
 11
122.3649999999999
 21
135.81200000000001
 31
0.0
  0
LINE
  5
70
  8
0
 62
     7
 10
91.579099999999997
 20
136.3779999999999
 30
0.0
 11
122.14700000000001
 21
136.3779999999999
 31
0.0
  0
LINE
  5
71
  8
0
 62
     7
 10
92.755499999999998
 20
137.64400000000001
 30
0.0
 11
120.9699999999999
 21
137.64400000000001
 31
0.0
  0
LINE
  5
72
  8
0
 62
     7
 10
96.823300000000003
 20
161.9679999999999
 30
0.0
 11
116.90300000000001
 21
161.9679999999999
 31
0.0
  0
LINE
  5
73
  8
0
 62
     7
 10
96.823300000000003
 20
162.46199999999999
 30
0.0
 11
116.90300000000001
 21
162.46199999999999
 31
0.0
  0
LINE
  5
74
  8
0
 62
     7
 10
98.642700000000005
 20
161.28499999999991
 30
0.0
 11
115.083
 21
161.28499999999991
 31
0.0
  0
LINE
  5
75
  8
0
 62
     7
 10
115.083
 20
163.14599999999999
 30
0.0
 11
98.642700000000005
 21
163.14599999999999
 31
0.0
  0
LINE
  5
76
  8
0
 62
     7
 10
91.112999999999985
 20
167.47
 30
0.0
 11
122.6129999999999
 21
167.47
 31
0.0
  0
LINE
  5
77
  8
0
 62
     7
 10
122.404
 20
166.87899999999999
 30
0.0
 11
122.6129999999999
 21
167.02699999999999
 31
0.0
  0
LINE
  5
78
  8
0
 62
     7
 10
91.322299999999984
 20
166.87899999999999
 30
0.0
 11
91.113200000000006
 21
167.02699999999999
 31
0.0
  0
LINE
  5
79
  8
0
 62
     7
 10
122.6129999999999
 20
167.02699999999999
 30
0.0
 11
122.6129999999999
 21
167.47
 31
0.0
  0
LINE
  5
7A
  8
0
 62
     7
 10
91.113200000000006
 20
167.02699999999999
 30
0.0
 11
91.112999999999985
 21
167.47
 31
0.0
  0
ARC
  5
7B
  8
0
 62
     7
 10
121.95922
 20
167.48697999999999
 30
0.0
 40
0.653755
 50
358.51859699999989
 51
52.064253000000001
  0
ARC
  5
7C
  8
0
 62
     7
 10
122.164818
 20
167.71145899999999
 30
0.0
 40
0.351142
 50
56.007904000000011
 51
64.162150999999994
  0
ARC
  5
7D
  8
0
 62
     7
 10
91.571106000000015
 20
167.69079600000001
 30
0.0
 40
0.374014
 50
115.8103459999999
 51
134.37967800000001
  0
ARC
  5
7E
  8
0
 62
     7
 10
91.760637000000003
 20
167.49289799999991
 30
0.0
 40
0.648022
 50
134.11875900000001
 51
182.01803099999989
  0
ARC
  5
7F
  8
0
 62
     7
 10
110.8657139999999
 20
149.14876000000001
 30
0.0
 40
22.080722000000002
 50
58.758331999999982
 51
68.63737900000001
  0
ARC
  5
80
  8
0
 62
     7
 10
108.498745
 20
143.54643499999989
 30
0.0
 40
28.160821999999989
 50
68.304540000000003
 51
78.496337999999994
  0
ARC
  5
81
  8
0
 62
     7
 10
106.8816149999999
 20
136.4650959999999
 30
0.0
 40
35.422834999999992
 50
78.217466000000002
 51
105.129226
  0
ARC
  5
82
  8
0
 62
     7
 10
105.0750169999999
 20
143.9748699999999
 30
0.0
 40
27.702677999999999
 50
105.5760699999999
 51
114.729681
  0
ARC
  5
83
  8
0
 62
     7
 10
102.939764
 20
148.93305599999991
 30
0.0
 40
22.306349999999991
 50
115.0758399999999
 51
121.1285729999999
  0
LINE
  5
84
  8
0
 62
     7
 10
91.322299999999984
 20
166.87899999999999
 30
0.0
 11
122.404
 21
166.87899999999999
 31
0.0
  0
LINE
  5
85
  8
0
 62
     7
 10
91.113200000000006
 20
167.02699999999999
 30
0.0
 11
122.6129999999999
 21
167.02699999999999
 31
0.0
  0
LINE
  5
86
  8
0
 62
     7
 10
91.408299999999997
 20
168.02699999999999
 30
0.0
 11
122.3179999999999
 21
168.02699999999999
 31
0.0
  0
LINE
  5
87
  8
0
 62
     7
 10
97.263900000000021
 20
140.02799999999991
 30
0.0
 11
97.263900000000021
 21
137.8779999999999
 31
0.0
  0
LINE
  5
88
  8
0
 62
     7
 10
116.4619999999999
 20
137.8779999999999
 30
0.0
 11
116.4619999999999
 21
140.02799999999991
 31
0.0
  0
LINE
  5
89
  8
0
 62
     7
 10
96.743499999999997
 20
153.864
 30
0.0
 11
116.982
 21
153.864
 31
0.0
  0
LINE
  5
8A
  8
0
 62
     7
 10
96.569700000000012
 20
122.13500000000001
 30
0.0
 11
117.15600000000001
 21
122.13500000000001
 31
0.0
  0
LINE
  5
8B
  8
0
 62
     7
 10
96.273499999999984
 20
124.614
 30
0.0
 11
96.273499999999984
 21
132.21899999999991
 31
0.0
  0
ARC
  5
8C
  8
0
 62
     7
 10
99.103172999999998
 20
126.14281200000001
 30
0.0
 40
6.7032100000000003
 50
100.1423459999999
 51
114.9699719999999
  0
ARC
  5
8D
  8
0
 62
     7
 10
98.85283299999999
 20
127.142051
 30
0.0
 40
5.6759399999999989
 50
70.59333199999999
 51
99.430984999999993
  0
ARC
  5
8E
  8
0
 62
     7
 10
98.520189999999999
 20
126.01343
 30
0.0
 40
6.8512380000000004
 50
64.934889999999996
 51
71.105682999999999
  0
LINE
  5
8F
  8
0
 62
     7
 10
101.4229999999999
 20
132.21899999999991
 30
0.0
 11
101.4229999999999
 21
124.614
 31
0.0
  0
ARC
  5
90
  8
0
 62
     7
 10
98.590361999999999
 20
130.69601299999991
 30
0.0
 40
6.7094639999999988
 50
280.15464300000002
 51
294.96984099999997
  0
ARC
  5
91
  8
0
 62
     7
 10
98.843373999999983
 20
129.6898929999999
 30
0.0
 40
5.6749489999999989
 50
250.588742
 51
279.43107700000002
  0
ARC
  5
92
  8
0
 62
     7
 10
99.171452000000002
 20
130.805319
 30
0.0
 40
6.836282999999999
 50
244.91807999999989
 51
251.102339
  0
LINE
  5
93
  8
0
 62
     7
 10
103.22199999999999
 20
124.614
 30
0.0
 11
103.22199999999999
 21
132.21899999999991
 31
0.0
  0
ARC
  5
94
  8
0
 62
     7
 10
106.96817799999999
 20
120.836304
 30
0.0
 40
11.983775
 50
91.047427999999982
 51
108.216657
  0
ARC
  5
95
  8
0
 62
     7
 10
106.858881
 20
121.4315889999999
 30
0.0
 40
11.387017
 50
71.331055000000006
 51
90.552323999999984
  0
LINE
  5
96
  8
0
 62
     7
 10
110.504
 20
132.21899999999991
 30
0.0
 11
110.504
 21
124.614
 31
0.0
  0
ARC
  5
97
  8
0
 62
     7
 10
106.7557709999999
 20
136.00241800000001
 30
0.0
 40
11.989641000000001
 50
271.055655
 51
288.21663000000001
  0
ARC
  5
98
  8
0
 62
     7
 10
106.866907
 20
135.39673999999991
 30
0.0
 40
11.382457
 50
251.32324
 51
270.55248899999998
  0
LINE
  5
99
  8
0
 62
     7
 10
112.3029999999999
 20
124.614
 30
0.0
 11
112.3029999999999
 21
132.21899999999991
 31
0.0
  0
ARC
  5
9A
  8
0
 62
     7
 10
115.132935
 20
126.1428649999999
 30
0.0
 40
6.7031520000000002
 50
100.1421289999999
 51
114.96997399999989
  0
ARC
  5
9B
  8
0
 62
     7
 10
114.88269699999999
 20
127.14208000000001
 30
0.0
 40
5.675921999999999
 50
70.592954000000006
 51
99.431704999999994
  0
ARC
  5
9C
  8
0
 62
     7
 10
114.5514919999999
 20
126.01624
 30
0.0
 40
6.8481229999999993
 50
64.935112000000004
 51
71.109217000000001
  0
LINE
  5
9D
  8
0
 62
     7
 10
117.4529999999999
 20
132.21899999999991
 30
0.0
 11
117.4529999999999
 21
124.614
 31
0.0
  0
ARC
  5
9E
  8
0
 62
     7
 10
114.620589
 20
130.69543200000001
 30
0.0
 40
6.7088239999999999
 50
280.152263
 51
294.96985399999988
  0
ARC
  5
9F
  8
0
 62
     7
 10
114.8732169999999
 20
129.69033599999989
 30
0.0
 40
5.6753869999999997
 50
250.58969300000001
 51
279.430316
  0
ARC
  5
A0
  8
0
 62
     7
 10
115.2012379999999
 20
130.805319
 30
0.0
 40
6.836282999999999
 50
244.91807999999989
 51
251.102339
  0
LINE
  5
A1
  8
0
 62
     7
 10
118.19799999999999
 20
124.614
 30
0.0
 11
118.19799999999999
 21
132.21899999999991
 31
0.0
  0
LINE
  5
A2
  8
0
 62
     7
 10
118.19799999999999
 20
132.21899999999991
 30
0.0
 11
118.19799999999999
 21
132.833
 31
0.0
  0
LINE
  5
A3
  8
0
 62
     7
 10
118.19799999999999
 20
124.0
 30
0.0
 11
118.19799999999999
 21
124.614
 31
0.0
  0
LINE
  5
A4
  8
0
 62
     7
 10
95.528099999999995
 20
132.833
 30
0.0
 11
95.528099999999995
 21
132.21899999999991
 31
0.0
  0
LINE
  5
A5
  8
0
 62
     7
 10
95.528099999999995
 20
132.21899999999991
 30
0.0
 11
95.528099999999995
 21
124.614
 31
0.0
  0
LINE
  5
A6
  8
0
 62
     7
 10
95.528099999999995
 20
124.614
 30
0.0
 11
95.528099999999995
 21
124.0
 31
0.0
  0
LINE
  5
A7
  8
0
 62
     7
 10
117.15600000000001
 20
122.87899999999991
 30
0.0
 11
118.19799999999999
 21
124.0
 31
0.0
  0
LINE
  5
A8
  8
0
 62
     7
 10
96.569700000000012
 20
122.87899999999991
 30
0.0
 11
95.528099999999995
 21
124.0
 31
0.0
  0
LINE
  5
A9
  8
0
 62
     7
 10
95.949799999999996
 20
133.28699999999989
 30
0.0
 11
95.528099999999995
 21
132.833
 31
0.0
  0
LINE
  5
AA
  8
0
 62
     7
 10
117.776
 20
133.28699999999989
 30
0.0
 11
118.19799999999999
 21
132.833
 31
0.0
  0
LINE
  5
AB
  8
0
 62
     7
 10
95.949799999999996
 20
133.77099999999999
 30
0.0
 11
95.949799999999996
 21
133.28699999999989
 31
0.0
  0
LINE
  5
AC
  8
0
 62
     7
 10
117.776
 20
133.77099999999999
 30
0.0
 11
117.776
 21
133.28699999999989
 31
0.0
  0
ARC
  5
AD
  8
0
 62
     7
 10
118.014933
 20
133.813694
 30
0.0
 40
0.222104
 50
104.3777519999999
 51
143.9934429999999
  0
ARC
  5
AE
  8
0
 62
     7
 10
118.0551389999999
 20
133.77198899999999
 30
0.0
 40
0.279329
 50
141.92092700000001
 51
180.24324499999989
  0
ARC
  5
AF
  8
0
 62
     7
 10
95.678268000000003
 20
133.77188000000001
 30
0.0
 40
0.271523
 50
359.77259600000002
 51
71.150649000000001
  0
LINE
  5
B0
  8
0
 62
     7
 10
117.95999999999989
 20
134.02899999999991
 30
0.0
 11
120.2029999999999
 21
134.67500000000001
 31
0.0
  0
LINE
  5
B1
  8
0
 62
     7
 10
95.766000000000005
 20
134.02899999999991
 30
0.0
 11
93.522900000000007
 21
134.67500000000001
 31
0.0
  0
LINE
  5
B2
  8
0
 62
     7
 10
96.569700000000012
 20
122.87899999999991
 30
0.0
 11
96.569700000000012
 21
118.172
 31
0.0
  0
LINE
  5
B3
  8
0
 62
     7
 10
117.15600000000001
 20
122.87899999999991
 30
0.0
 11
117.15600000000001
 21
118.172
 31
0.0
  0
LINE
  5
B4
  8
0
 62
     7
 10
95.949799999999996
 20
133.28699999999989
 30
0.0
 11
117.776
 21
133.28699999999989
 31
0.0
  0
LINE
  5
B5
  8
0
 62
     7
 10
95.528099999999995
 20
124.614
 30
0.0
 11
96.273499999999984
 21
124.614
 31
0.0
  0
LINE
  5
B6
  8
0
 62
     7
 10
95.528099999999995
 20
132.21899999999991
 30
0.0
 11
96.273499999999984
 21
132.21899999999991
 31
0.0
  0
LINE
  5
B7
  8
0
 62
     7
 10
101.4229999999999
 20
132.21899999999991
 30
0.0
 11
103.22199999999999
 21
132.21899999999991
 31
0.0
  0
LINE
  5
B8
  8
0
 62
     7
 10
101.4229999999999
 20
124.614
 30
0.0
 11
103.22199999999999
 21
124.614
 31
0.0
  0
LINE
  5
B9
  8
0
 62
     7
 10
110.504
 20
132.21899999999991
 30
0.0
 11
112.3029999999999
 21
132.21899999999991
 31
0.0
  0
LINE
  5
BA
  8
0
 62
     7
 10
110.504
 20
124.614
 30
0.0
 11
112.3029999999999
 21
124.614
 31
0.0
  0
LINE
  5
BB
  8
0
 62
     7
 10
117.4529999999999
 20
132.21899999999991
 30
0.0
 11
118.19799999999999
 21
132.21899999999991
 31
0.0
  0
LINE
  5
BC
  8
0
 62
     7
 10
117.4529999999999
 20
124.614
 30
0.0
 11
118.19799999999999
 21
124.614
 31
0.0
  0
LINE
  5
BD
  8
0
 62
     7
 10
96.569700000000012
 20
122.87899999999991
 30
0.0
 11
117.15600000000001
 21
122.87899999999991
 31
0.0
  0
LINE
  5
BE
  8
0
 62
     7
 10
116.36199999999999
 20
117.3779999999999
 30
0.0
 11
117.15600000000001
 21
118.172
 31
0.0
  0
LINE
  5
BF
  8
0
 62
     7
 10
97.363500000000016
 20
117.3779999999999
 30
0.0
 11
96.569700000000012
 21
118.172
 31
0.0
  0
LINE
  5
C0
  8
0
 62
     7
 10
116.36199999999999
 20
117.3779999999999
 30
0.0
 11
97.363500000000016
 21
117.3779999999999
 31
0.0
  0
LINE
  5
C1
  8
0
 62
     7
 10
96.569700000000012
 20
118.172
 30
0.0
 11
117.15600000000001
 21
118.172
 31
0.0
  0
LINE
  5
C2
  8
0
 62
     7
 10
91.361099999999993
 20
135.81200000000001
 30
0.0
 11
91.361099999999993
 21
134.67500000000001
 31
0.0
  0
LINE
  5
C3
  8
0
 62
     7
 10
122.3649999999999
 20
135.81200000000001
 30
0.0
 11
122.3649999999999
 21
134.67500000000001
 31
0.0
  0
ARC
  5
C4
  8
0
 62
     7
 10
121.7838509999999
 20
135.84243599999999
 30
0.0
 40
0.5816710000000001
 50
356.970057
 51
12.761098
  0
ARC
  5
C5
  8
0
 62
     7
 10
121.495335
 20
135.79651200000001
 30
0.0
 40
0.8734099999999999
 50
11.51857899999999
 51
41.747184999999988
  0
ARC
  5
C6
  8
0
 62
     7
 10
91.945088999999996
 20
135.997165
 30
0.0
 40
0.5282090000000002
 50
133.85285300000001
 51
150.24265899999989
  0
ARC
  5
C7
  8
0
 62
     7
 10
92.241167000000004
 20
135.80641299999999
 30
0.0
 40
0.880118
 50
149.02867800000001
 51
179.65643399999999
  0
LINE
  5
C8
  8
0
 62
     7
 10
92.755499999999998
 20
137.64400000000001
 30
0.0
 11
91.579099999999997
 21
136.3779999999999
 31
0.0
  0
LINE
  5
C9
  8
0
 62
     7
 10
120.9699999999999
 20
137.64400000000001
 30
0.0
 11
122.14700000000001
 21
136.3779999999999
 31
0.0
  0
ARC
  5
CA
  8
0
 62
     7
 10
120.5698469999999
 20
137.310787
 30
0.0
 40
0.5209590000000001
 50
39.734954999999999
 51
56.145695000000003
  0
ARC
  5
CB
  8
0
 62
     7
 10
120.42980799999999
 20
137.12601399999991
 30
0.0
 40
0.7525370000000001
 50
55.128312000000001
 51
88.915191000000007
  0
ARC
  5
CC
  8
0
 62
     7
 10
93.254000000000005
 20
137.41526399999989
 30
0.0
 40
0.4639800000000001
 50
86.575177999999994
 51
103.294572
  0
ARC
  5
CD
  8
0
 62
     7
 10
93.307806999999997
 20
137.12907300000001
 30
0.0
 40
0.754995
 50
102.27406499999999
 51
137.01813599999991
  0
LINE
  5
CE
  8
0
 62
     7
 10
91.361099999999993
 20
134.67500000000001
 30
0.0
 11
122.3649999999999
 21
134.67500000000001
 31
0.0
  0
LINE
  5
CF
  8
0
 62
     7
 10
93.281700000000001
 20
137.8779999999999
 30
0.0
 11
120.4439999999999
 21
137.8779999999999
 31
0.0
  0
LINE
  5
D0
  8
0
 62
     7
 10
122.2399999999999
 20
149.334
 30
0.0
 11
122.2399999999999
 21
152.31
 31
0.0
  0
LINE
  5
D1
  8
0
 62
     7
 10
91.485099999999989
 20
149.334
 30
0.0
 11
91.485099999999989
 21
152.31
 31
0.0
  0
LINE
  5
D2
  8
0
 62
     7
 10
122.2399999999999
 20
149.334
 30
0.0
 11
91.485099999999989
 21
149.334
 31
0.0
  0
LINE
  5
D3
  8
0
 62
     7
 10
122.2399999999999
 20
152.31
 30
0.0
 11
91.485099999999989
 21
152.31
 31
0.0
  0
LINE
  5
D4
  8
0
 62
     7
 10
115.291
 20
161.84100000000001
 30
0.0
 11
116.90300000000001
 21
161.9679999999999
 31
0.0
  0
LINE
  5
D5
  8
0
 62
     7
 10
98.434899999999999
 20
161.84100000000001
 30
0.0
 11
96.823300000000003
 21
161.9679999999999
 31
0.0
  0
ARC
  5
D6
  8
0
 62
     7
 10
116.87329699999989
 20
162.223658
 30
0.0
 40
0.257475
 50
276.58412299999992
 51
2.4208899999999991
  0
ARC
  5
D7
  8
0
 62
     7
 10
116.88041799999991
 20
162.21213299999991
 30
0.0
 40
0.251125
 50
5.1178019999999993
 51
84.882187999999999
  0
ARC
  5
D8
  8
0
 62
     7
 10
96.852760000000004
 20
162.20619899999991
 30
0.0
 40
0.257747
 50
96.563624000000004
 51
182.35583099999991
  0
ARC
  5
D9
  8
0
 62
     7
 10
96.845342000000016
 20
162.21802600000001
 30
0.0
 40
0.251114
 50
185.12283600000001
 51
264.96380899999991
  0
LINE
  5
DA
  8
0
 62
     7
 10
98.434899999999999
 20
162.589
 30
0.0
 11
96.823300000000003
 21
162.46199999999999
 31
0.0
  0
LINE
  5
DB
  8
0
 62
     7
 10
115.291
 20
162.589
 30
0.0
 11
116.90300000000001
 21
162.46199999999999
 31
0.0
  0
LINE
  5
DC
  8
0
 62
     7
 10
115.083
 20
161.28499999999991
 30
0.0
 11
115.291
 21
161.84100000000001
 31
0.0
  0
LINE
  5
DD
  8
0
 62
     7
 10
98.642700000000005
 20
161.28499999999991
 30
0.0
 11
98.434899999999999
 21
161.84100000000001
 31
0.0
  0
LINE
  5
DE
  8
0
 62
     7
 10
98.642700000000005
 20
163.14599999999999
 30
0.0
 11
98.434899999999999
 21
162.589
 31
0.0
  0
LINE
  5
DF
  8
0
 62
     7
 10
115.083
 20
163.14599999999999
 30
0.0
 11
115.291
 21
162.589
 31
0.0
  0
LINE
  5
E0
  8
0
 62
     7
 10
98.434899999999999
 20
161.84100000000001
 30
0.0
 11
115.291
 21
161.84100000000001
 31
0.0
  0
LINE
  5
E1
  8
0
 62
     7
 10
98.434899999999999
 20
162.589
 30
0.0
 11
115.291
 21
162.589
 31
0.0
  0
ARC
  5
E2
  8
0
 62
     7
 10
114.8545699999999
 20
161.36671000000001
 30
0.0
 40
0.242571
 50
269.05353600000001
 51
340.41619500000002
  0
ARC
  5
E3
  8
0
 62
     7
 10
98.854190000000003
 20
161.35584
 30
0.0
 40
0.222945
 50
198.41715500000001
 51
237.8272759999999
  0
ARC
  5
E4
  8
0
 62
     7
 10
98.874173999999996
 20
161.36955399999991
 30
0.0
 40
0.245383
 50
235.58217200000001
 51
270.1614009999999
  0
ARC
  5
E5
  8
0
 62
     7
 10
114.87183899999989
 20
163.075242
 30
0.0
 40
0.222675
 50
18.417815000000001
 51
57.897551
  0
ARC
  5
E6
  8
0
 62
     7
 10
114.8511909999999
 20
163.060507
 30
0.0
 40
0.24632
 50
55.649832000000004
 51
90.145934999999994
  0
ARC
  5
E7
  8
0
 62
     7
 10
98.86716100000001
 20
163.08357100000001
 30
0.0
 40
0.223388
 50
88.023467000000011
 51
127.35707499999999
  0
ARC
  5
E8
  8
0
 62
     7
 10
98.873043000000024
 20
163.060248
 30
0.0
 40
0.245679
 50
125.14640300000001
 51
159.6720169999999
  0
LINE
  5
E9
  8
0
 62
     7
 10
114.8509999999999
 20
161.124
 30
0.0
 11
98.874899999999997
 21
161.124
 31
0.0
  0
LINE
  5
EA
  8
0
 62
     7
 10
114.7999999999999
 20
160.18199999999999
 30
0.0
 11
115.0479999999999
 21
160.43000000000001
 31
0.0
  0
LINE
  5
EB
  8
0
 62
     7
 10
98.926000000000016
 20
160.18199999999999
 30
0.0
 11
98.678100000000001
 21
160.43000000000001
 31
0.0
  0
LINE
  5
EC
  8
0
 62
     7
 10
98.678100000000001
 20
160.8609999999999
 30
0.0
 11
98.678100000000001
 21
160.43000000000001
 31
0.0
  0
LINE
  5
ED
  8
0
 62
     7
 10
115.0479999999999
 20
160.8609999999999
 30
0.0
 11
115.0479999999999
 21
160.43000000000001
 31
0.0
  0
LINE
  5
EE
  8
0
 62
     7
 10
98.676400000000015
 20
166.87899999999999
 30
0.0
 11
98.676400000000015
 21
163.30699999999999
 31
0.0
  0
LINE
  5
EF
  8
0
 62
     7
 10
115.04900000000001
 20
166.87899999999999
 30
0.0
 11
115.04900000000001
 21
163.30699999999999
 31
0.0
  0
LINE
  5
F0
  8
0
 62
     7
 10
99.313400000000001
 20
160.91599999999991
 30
0.0
 11
98.678100000000001
 21
160.8609999999999
 31
0.0
  0
LINE
  5
F1
  8
0
 62
     7
 10
114.41200000000001
 20
160.91599999999991
 30
0.0
 11
115.0479999999999
 21
160.8609999999999
 31
0.0
  0
LINE
  5
F2
  8
0
 62
     7
 10
99.422100000000015
 20
161.124
 30
0.0
 11
99.422100000000015
 21
161.02500000000001
 31
0.0
  0
LINE
  5
F3
  8
0
 62
     7
 10
114.3029999999999
 20
161.124
 30
0.0
 11
114.3029999999999
 21
161.02500000000001
 31
0.0
  0
LINE
  5
F4
  8
0
 62
     7
 10
98.926000000000016
 20
160.18199999999999
 30
0.0
 11
114.7999999999999
 21
160.18199999999999
 31
0.0
  0
LINE
  5
F5
  8
0
 62
     7
 10
98.678100000000001
 20
160.43000000000001
 30
0.0
 11
115.0479999999999
 21
160.43000000000001
 31
0.0
  0
LINE
  5
F6
  8
0
 62
     7
 10
98.678100000000001
 20
160.8609999999999
 30
0.0
 11
115.0479999999999
 21
160.8609999999999
 31
0.0
  0
LINE
  5
F7
  8
0
 62
     7
 10
98.676400000000015
 20
163.30699999999999
 30
0.0
 11
115.04900000000001
 21
163.30699999999999
 31
0.0
  0
LINE
  5
F8
  8
0
 62
     7
 10
99.422100000000015
 20
161.02500000000001
 30
0.0
 11
99.313400000000001
 21
160.91599999999991
 31
0.0
  0
LINE
  5
F9
  8
0
 62
     7
 10
114.3029999999999
 20
161.02500000000001
 30
0.0
 11
114.41200000000001
 21
160.91599999999991
 31
0.0
  0
LINE
  5
FA
  8
0
 62
     7
 10
114.41200000000001
 20
160.91599999999991
 30
0.0
 11
99.313400000000001
 21
160.91599999999991
 31
0.0
  0
LINE
  5
FB
  8
0
 62
     7
 10
99.422100000000015
 20
161.02500000000001
 30
0.0
 11
114.3029999999999
 21
161.02500000000001
 31
0.0
  0
LINE
  5
FC
  8
0
 62
     7
 10
96.619299999999996
 20
140.02799999999991
 30
0.0
 11
117.10599999999999
 21
140.02799999999991
 31
0.0
  0
LINE
  5
FD
  8
0
 62
     7
 10
91.252200000000002
 20
158.8779999999999
 30
0.0
 11
91.113399999999999
 21
158.79799999999989
 31
0.0
  0
LINE
  5
FE
  8
0
 62
     7
 10
122.4739999999999
 20
158.8779999999999
 30
0.0
 11
122.6129999999999
 21
158.79799999999989
 31
0.0
  0
LINE
  5
FF
  8
0
 62
     7
 10
91.252200000000002
 20
158.8779999999999
 30
0.0
 11
122.4739999999999
 21
158.8779999999999
 31
0.0
  0
LINE
  5
100
  8
0
 62
     7
 10
96.941800000000015
 20
140.34999999999999
 30
0.0
 11
96.619299999999996
 21
140.02799999999991
 31
0.0
  0
LINE
  5
101
  8
0
 62
     7
 10
116.78399999999991
 20
140.34999999999999
 30
0.0
 11
117.10599999999999
 21
140.02799999999991
 31
0.0
  0
LINE
  5
102
  8
0
 62
     7
 10
96.941800000000015
 20
141.01900000000001
 30
0.0
 11
96.941800000000015
 21
140.34999999999999
 31
0.0
  0
LINE
  5
103
  8
0
 62
     7
 10
96.941800000000015
 20
149.334
 30
0.0
 11
96.941800000000015
 21
146.97200000000001
 31
0.0
  0
LINE
  5
104
  8
0
 62
     7
 10
116.78399999999991
 20
141.01900000000001
 30
0.0
 11
116.78399999999991
 21
140.34999999999999
 31
0.0
  0
LINE
  5
105
  8
0
 62
     7
 10
116.78399999999991
 20
149.334
 30
0.0
 11
116.78399999999991
 21
146.97200000000001
 31
0.0
  0
LINE
  5
106
  8
0
 62
     7
 10
96.743499999999997
 20
153.864
 30
0.0
 11
96.743499999999997
 21
152.31
 31
0.0
  0
LINE
  5
107
  8
0
 62
     7
 10
116.982
 20
153.864
 30
0.0
 11
116.982
 21
152.31
 31
0.0
  0
ARC
  5
108
  8
0
 62
     7
 10
120.9714669999999
 20
154.046246
 30
0.0
 40
3.755091999999999
 50
102.908208
 51
123.85162699999999
  0
ARC
  5
109
  8
0
 62
     7
 10
121.30968300000001
 20
153.45857000000001
 30
0.0
 40
4.4317919999999988
 50
123.25071799999991
 51
155.9935769999999
  0
ARC
  5
10A
  8
0
 62
     7
 10
120.439611
 20
153.900856
 30
0.0
 40
3.457403999999999
 50
156.82301799999999
 51
180.609073
  0
ARC
  5
10B
  8
0
 62
     7
 10
93.542074999999997
 20
153.95011700000001
 30
0.0
 40
3.2026240000000001
 50
358.4610239999999
 51
23.425339000000001
  0
ARC
  5
10C
  8
0
 62
     7
 10
92.614953999999983
 20
153.61006299999991
 30
0.0
 40
4.1889019999999988
 50
22.651779999999999
 51
50.360368000000008
  0
ARC
  5
10D
  8
0
 62
     7
 10
92.516778000000016
 20
153.569198
 30
0.0
 40
4.28329
 50
49.69777599999999
 51
69.908090999999985
  0
ARC
  5
10E
  8
0
 62
     7
 10
92.789332000000002
 20
154.20048600000001
 30
0.0
 40
3.5970029999999991
 50
70.530959999999993
 51
77.081405000000004
  0
LINE
  5
10F
  8
0
 62
     7
 10
120.133
 20
157.70599999999999
 30
0.0
 11
122.51600000000001
 21
158.26299999999989
 31
0.0
  0
LINE
  5
110
  8
0
 62
     7
 10
93.593500000000006
 20
157.70599999999999
 30
0.0
 11
91.209800000000016
 21
158.26299999999989
 31
0.0
  0
LINE
  5
111
  8
0
 62
     7
 10
122.51600000000001
 20
158.26299999999989
 30
0.0
 11
122.6129999999999
 21
158.35299999999989
 31
0.0
  0
LINE
  5
112
  8
0
 62
     7
 10
91.209800000000016
 20
158.26299999999989
 30
0.0
 11
91.113399999999999
 21
158.35299999999989
 31
0.0
  0
LINE
  5
113
  8
0
 62
     7
 10
91.113399999999999
 20
158.79799999999989
 30
0.0
 11
91.113399999999999
 21
158.35299999999989
 31
0.0
  0
LINE
  5
114
  8
0
 62
     7
 10
122.6129999999999
 20
158.79799999999989
 30
0.0
 11
122.6129999999999
 21
158.35299999999989
 31
0.0
  0
LINE
  5
115
  8
0
 62
     7
 10
96.619299999999996
 20
140.02799999999991
 30
0.0
 11
96.619299999999996
 21
137.8779999999999
 31
0.0
  0
LINE
  5
116
  8
0
 62
     7
 10
117.10599999999999
 20
140.02799999999991
 30
0.0
 11
117.10599999999999
 21
137.8779999999999
 31
0.0
  0
LINE
  5
117
  8
0
 62
     7
 10
96.941800000000015
 20
140.34999999999999
 30
0.0
 11
116.78399999999991
 21
140.34999999999999
 31
0.0
  0
LINE
  5
118
  8
0
 62
     7
 10
93.593500000000006
 20
157.70599999999999
 30
0.0
 11
120.133
 21
157.70599999999999
 31
0.0
  0
LINE
  5
119
  8
0
 62
     7
 10
91.209800000000016
 20
158.26299999999989
 30
0.0
 11
122.51600000000001
 21
158.26299999999989
 31
0.0
  0
LINE
  5
11A
  8
0
 62
     7
 10
96.619299999999996
 20
140.02799999999991
 30
0.0
 11
117.10599999999999
 21
140.02799999999991
 31
0.0
  0
ARC
  5
11B
  8
0
 62
     7
 10
120.8739649999999
 20
144.9908419999999
 30
0.0
 40
4.8141660000000002
 50
170.974839
 51
180.03260399999991
  0
ARC
  5
11C
  8
0
 62
     7
 10
120.32440200000001
 20
145.079804
 30
0.0
 40
4.2574519999999989
 50
162.18992600000001
 51
170.99707000000001
  0
ARC
  5
11D
  8
0
 62
     7
 10
118.96420499999989
 20
145.48884399999989
 30
0.0
 40
2.8374559999999991
 50
154.9952679999999
 51
161.65285600000001
  0
ARC
  5
11E
  8
0
 62
     7
 10
117.6531659999999
 20
146.09130200000001
 30
0.0
 40
1.3946670000000001
 50
148.58966799999999
 51
154.65941599999991
  0
ARC
  5
11F
  8
0
 62
     7
 10
117.0122719999999
 20
146.4772669999999
 30
0.0
 40
0.6465570000000001
 50
134.63399599999991
 51
148.181522
  0
ARC
  5
120
  8
0
 62
     7
 10
116.672062
 20
146.811612
 30
0.0
 40
0.169763
 50
115.305155
 51
132.20525599999991
  0
ARC
  5
121
  8
0
 62
     7
 10
116.632554
 20
146.89519300000001
 30
0.0
 40
0.077314
 50
91.151729000000003
 51
115.311825
  0
LINE
  5
122
  8
0
 62
     7
 10
116.06
 20
143.00399999999991
 30
0.0
 11
116.06
 21
144.988
 31
0.0
  0
ARC
  5
123
  8
0
 62
     7
 10
116.6312709999999
 20
141.08784
 30
0.0
 40
0.068511
 50
249.88785100000001
 51
269.77299399999993
  0
ARC
  5
124
  8
0
 62
     7
 10
116.652911
 20
141.1475639999999
 30
0.0
 40
0.132035
 50
232.380391
 51
249.9819939999999
  0
ARC
  5
125
  8
0
 62
     7
 10
116.750387
 20
141.27644699999991
 30
0.0
 40
0.293625
 50
220.81779900000001
 51
232.6658459999999
  0
ARC
  5
126
  8
0
 62
     7
 10
117.01598799999989
 20
141.50770199999999
 30
0.0
 40
0.6457920000000001
 50
211.07604199999989
 51
220.94198600000001
  0
ARC
  5
127
  8
0
 62
     7
 10
117.35578
 20
141.73409099999989
 30
0.0
 40
1.0538369999999999
 50
207.0548949999999
 51
212.08230699999999
  0
ARC
  5
128
  8
0
 62
     7
 10
118.4344929999999
 20
142.29215199999999
 30
0.0
 40
2.2683469999999999
 50
197.48770400000001
 51
207.21520599999991
  0
ARC
  5
129
  8
0
 62
     7
 10
120.002027
 20
142.83650700000001
 30
0.0
 40
3.9273059999999989
 50
188.65084300000001
 51
198.190192
  0
ARC
  5
12A
  8
0
 62
     7
 10
120.8251379999999
 20
142.99714299999991
 30
0.0
 40
4.7653429999999988
 50
179.9167919999999
 51
189.071697
  0
ARC
  5
12B
  8
0
 62
     7
 10
105.1377189999999
 20
144.98615100000001
 30
0.0
 40
1.9950429999999999
 50
157.61156199999999
 51
179.94388299999989
  0
ARC
  5
12C
  8
0
 62
     7
 10
105.133242
 20
144.98482199999989
 30
0.0
 40
1.991412
 50
135.44437899999991
 51
157.52713600000001
  0
ARC
  5
12D
  8
0
 62
     7
 10
105.137933
 20
144.97168899999991
 30
0.0
 40
2.003978
 50
112.868624
 51
135.270916
  0
ARC
  5
12E
  8
0
 62
     7
 10
105.128744
 20
144.976607
 30
0.0
 40
1.9958869999999991
 50
90.058085999999989
 51
112.68042199999989
  0
LINE
  5
12F
  8
0
 62
     7
 10
103.1429999999999
 20
143.00399999999991
 30
0.0
 11
103.1429999999999
 21
144.988
 31
0.0
  0
ARC
  5
130
  8
0
 62
     7
 10
105.128624
 20
143.00644
 30
0.0
 40
1.9871119999999991
 50
247.21753799999991
 51
269.94510400000001
  0
ARC
  5
131
  8
0
 62
     7
 10
105.1215229999999
 20
142.996557
 30
0.0
 40
1.975252
 50
224.56402999999989
 51
247.2964299999999
  0
ARC
  5
132
  8
0
 62
     7
 10
105.130634
 20
143.00678600000001
 30
0.0
 40
1.9889209999999991
 50
202.49588799999989
 51
224.58979299999999
  0
ARC
  5
133
  8
0
 62
     7
 10
105.136573
 20
143.0054419999999
 30
0.0
 40
1.993897
 50
180.03969599999999
 51
202.3949199999999
  0
LINE
  5
134
  8
0
 62
     7
 10
97.094899999999996
 20
146.97200000000001
 30
0.0
 11
96.941800000000015
 21
146.97200000000001
 31
0.0
  0
ARC
  5
135
  8
0
 62
     7
 10
97.092205000000007
 20
146.88962599999991
 30
0.0
 40
0.082912
 50
62.855819999999987
 51
88.105761999999984
  0
ARC
  5
136
  8
0
 62
     7
 10
97.047590999999997
 20
146.802615
 30
0.0
 40
0.180694
 50
47.116275999999992
 51
62.854731999999991
  0
ARC
  5
137
  8
0
 62
     7
 10
96.899106000000003
 20
146.6392919999999
 30
0.0
 40
0.4014190000000001
 50
37.18909699999999
 51
47.450738999999999
  0
ARC
  5
138
  8
0
 62
     7
 10
96.604055000000017
 20
146.41068100000001
 30
0.0
 40
0.774662
 50
31.735389000000001
 51
37.468615
  0
ARC
  5
139
  8
0
 62
     7
 10
96.292768000000009
 20
146.21551099999999
 30
0.0
 40
1.142069
 50
27.359096999999998
 51
31.848436
  0
ARC
  5
13A
  8
0
 62
     7
 10
95.309034999999994
 20
145.70726199999999
 30
0.0
 40
2.2493389999999991
 50
17.455863999999998
 51
27.341449999999991
  0
ARC
  5
13B
  8
0
 62
     7
 10
93.694671999999997
 20
145.14971299999991
 30
0.0
 40
3.9568929999999991
 50
8.6676850000000005
 51
18.14528
  0
ARC
  5
13C
  8
0
 62
     7
 10
92.900656999999995
 20
144.99468400000001
 30
0.0
 40
4.7653220000000003
 50
359.92089700000002
 51
9.0716610000000006
  0
LINE
  5
13D
  8
0
 62
     7
 10
97.665999999999997
 20
144.988
 30
0.0
 11
97.665999999999997
 21
143.00399999999991
 31
0.0
  0
ARC
  5
13E
  8
0
 62
     7
 10
92.847491000000005
 20
143.00131999999991
 30
0.0
 40
4.8184839999999989
 50
350.97891099999993
 51
0.032601
  0
ARC
  5
13F
  8
0
 62
     7
 10
93.403109999999984
 20
142.91301399999989
 30
0.0
 40
4.2558910000000001
 50
342.17883799999993
 51
350.98016799999988
  0
ARC
  5
140
  8
0
 62
     7
 10
94.850888999999995
 20
142.46505199999999
 30
0.0
 40
2.7405349999999991
 50
335.00608299999988
 51
341.83135399999992
  0
ARC
  5
141
  8
0
 62
     7
 10
96.099936999999997
 20
141.88991899999991
 30
0.0
 40
1.365464999999999
 50
328.39633300000003
 51
334.734283
  0
ARC
  5
142
  8
0
 62
     7
 10
96.705398000000002
 20
141.51873699999999
 30
0.0
 40
0.6552850000000001
 50
314.89521999999999
 51
328.29548899999998
  0
ARC
  5
143
  8
0
 62
     7
 10
97.054209
 20
141.17935399999999
 30
0.0
 40
0.16884
 50
295.33098100000001
 51
312.33024599999999
  0
ARC
  5
144
  8
0
 62
     7
 10
97.093303000000006
 20
141.096901
 30
0.0
 40
0.077589
 50
271.21281899999991
 51
295.28788300000002
  0
LINE
  5
145
  8
0
 62
     7
 10
116.78399999999991
 20
146.97200000000001
 30
0.0
 11
116.6309999999999
 21
146.97200000000001
 31
0.0
  0
LINE
  5
146
  8
0
 62
     7
 10
108.599
 20
146.97200000000001
 30
0.0
 11
105.127
 21
146.97200000000001
 31
0.0
  0
ARC
  5
147
  8
0
 62
     7
 10
108.5971459999999
 20
144.97718399999999
 30
0.0
 40
1.9953089999999989
 50
67.316238999999996
 51
89.945212999999995
  0
ARC
  5
148
  8
0
 62
     7
 10
108.58615
 20
144.96918999999991
 30
0.0
 40
2.006937999999999
 50
44.745797999999994
 51
67.114622999999995
  0
ARC
  5
149
  8
0
 62
     7
 10
108.58469099999991
 20
144.979129
 30
0.0
 40
2.0009939999999991
 50
22.535774
 51
44.514243
  0
ARC
  5
14A
  8
0
 62
     7
 10
108.58725699999999
 20
144.98550499999999
 30
0.0
 40
1.9961859999999989
 50
0.074607
 51
22.394964999999999
  0
LINE
  5
14B
  8
0
 62
     7
 10
110.583
 20
144.988
 30
0.0
 11
110.583
 21
143.00399999999991
 31
0.0
  0
ARC
  5
14C
  8
0
 62
     7
 10
108.588823
 20
143.0060039999999
 30
0.0
 40
1.994618999999999
 50
337.59618399999988
 51
359.94419399999992
  0
ARC
  5
14D
  8
0
 62
     7
 10
108.594509
 20
143.00770199999991
 30
0.0
 40
1.990011999999999
 50
315.40417400000001
 51
337.4886029999999
  0
ARC
  5
14E
  8
0
 62
     7
 10
108.595225
 20
143.00990200000001
 30
0.0
 40
1.9910490000000001
 50
292.79495799999989
 51
315.34462100000002
  0
ARC
  5
14F
  8
0
 62
     7
 10
108.5980909999999
 20
143.00177600000001
 30
0.0
 40
1.9824470000000001
 50
270.02782000000002
 51
292.80957799999987
  0
LINE
  5
150
  8
0
 62
     7
 10
96.941800000000015
 20
141.01900000000001
 30
0.0
 11
97.094899999999996
 21
141.01900000000001
 31
0.0
  0
LINE
  5
151
  8
0
 62
     7
 10
116.6309999999999
 20
141.01900000000001
 30
0.0
 11
116.78399999999991
 21
141.01900000000001
 31
0.0
  0
LINE
  5
152
  8
0
 62
     7
 10
105.127
 20
141.01900000000001
 30
0.0
 11
108.599
 21
141.01900000000001
 31
0.0
  0
LINE
  5
153
  8
0
 62
     7
 10
101.40600000000001
 20
160.18199999999999
 30
0.0
 11
101.40600000000001
 21
158.8779999999999
 31
0.0
  0
LINE
  5
154
  8
0
 62
     7
 10
112.319
 20
160.18199999999999
 30
0.0
 11
112.319
 21
158.8779999999999
 31
0.0
  0
TEXT
  5
155
  8
_________2
 62
     7
 10
143.07741250000001
 20
30.627400000000002
 30
0.0
 40
3.9357000000000002
  1
CET740
 41
0.5
 72
     1
 11
148.489
 21
30.627400000000002
 31
0.0
  0
TEXT
  5
156
  8
_________2
 62
     7
 10
143.07741250000001
 20
20.6266
 30
0.0
 40
3.9357000000000002
  1
CET740
 41
0.5
 72
     1
 11
148.489
 21
20.6266
 31
0.0
  0
TEXT
  5
157
  8
_________2
 62
     7
 10
29.525700000000001
 20
22.226900000000001
 30
0.0
 40
3.9357000000000002
  1
ヨーロッパ製洗面器・手洗器用
 41
0.5
  0
LINE
  5
158
  8
_________2
 62
     7
 10
210.24000000000001
 20
148.93100000000001
 30
0.0
 11
188.49000000000001
 21
148.93100000000001
 31
0.0
  0
LINE
  5
159
  8
_________2
 62
     7
 10
105.2389999999999
 20
17.4282
 30
0.0
 11
105.2389999999999
 21
0.4482100000000001
 31
0.0
  0
LINE
  5
15A
  8
_________2
 62
     7
 10
105.2389999999999
 20
297.44999999999987
 30
0.0
 11
105.2389999999999
 21
280.42999999999989
 31
0.0
  0
LINE
  5
15B
  8
_________2
 62
     7
 10
21.988499999999991
 20
148.93100000000001
 30
0.0
 11
0.238058
 21
148.93100000000001
 31
0.0
  0
LINE
  5
15C
  8
_________2
 62
     7
 10
81.679900000000004
 20
51.323999999999998
 30
0.0
 11
79.493700000000004
 21
51.323999999999998
 31
0.0
  0
LINE
  5
15D
  8
_________2
 62
     7
 10
82.172600000000017
 20
51.323999999999998
 30
0.0
 11
81.920400000000001
 21
51.323999999999998
 31
0.0
  0
LINE
  5
15E
  8
_________2
 62
     7
 10
82.665199999999984
 20
51.323999999999998
 30
0.0
 11
85.590100000000007
 21
51.323999999999998
 31
0.0
  0
LINE
  5
15F
  8
_________2
 62
     7
 10
82.172600000000017
 20
51.323999999999998
 30
0.0
 11
82.424800000000005
 21
51.323999999999998
 31
0.0
  0
LINE
  5
160
  8
_________2
 62
     7
 10
75.776399999999995
 20
51.323999999999998
 30
0.0
 11
73.589399999999998
 21
51.323999999999998
 31
0.0
  0
LINE
  5
161
  8
_________2
 62
     7
 10
76.2684
 20
51.323999999999998
 30
0.0
 11
76.016900000000007
 21
51.323999999999998
 31
0.0
  0
LINE
  5
162
  8
_________2
 62
     7
 10
76.2684
 20
51.816600000000001
 30
0.0
 11
76.2684
 21
54.003599999999999
 31
0.0
  0
LINE
  5
163
  8
_________2
 62
     7
 10
76.2684
 20
51.323999999999998
 30
0.0
 11
76.2684
 21
51.576500000000003
 31
0.0
  0
LINE
  5
164
  8
_________2
 62
     7
 10
76.76100000000001
 20
51.323999999999998
 30
0.0
 11
78.947999999999993
 21
51.323999999999998
 31
0.0
  0
LINE
  5
165
  8
_________2
 62
     7
 10
76.2684
 20
51.323999999999998
 30
0.0
 11
76.520499999999998
 21
51.323999999999998
 31
0.0
  0
LINE
  5
166
  8
_________2
 62
     7
 10
76.2684
 20
50.832000000000001
 30
0.0
 11
76.2684
 21
48.645400000000002
 31
0.0
  0
LINE
  5
167
  8
_________2
 62
     7
 10
76.2684
 20
51.323999999999998
 30
0.0
 11
76.2684
 21
51.072499999999998
 31
0.0
  0
LINE
  5
168
  8
_________2
 62
     7
 10
79.979399999999984
 20
50.104399999999998
 30
0.0
 11
85.157399999999996
 21
49.239699999999999
 31
0.0
  0
LINE
  5
169
  8
_________2
 62
     7
 10
79.979399999999984
 20
52.543900000000001
 30
0.0
 11
85.157399999999996
 21
53.409300000000002
 31
0.0
  0
LINE
  5
16A
  8
_________2
 62
     7
 10
85.157399999999996
 20
49.239699999999999
 30
0.0
 11
85.157399999999996
 21
53.409300000000002
 31
0.0
  0
LINE
  5
16B
  8
_________2
 62
     7
 10
79.979399999999984
 20
50.104399999999998
 30
0.0
 11
79.979399999999984
 21
52.543900000000001
 31
0.0
  0
ARC
  5
16C
  8
_________2
 62
     7
 10
76.221766000000002
 20
51.277037
 30
0.0
 40
1.267714
 50
2.1220840000000001
 51
87.894083999999992
  0
ARC
  5
16D
  8
_________2
 62
     7
 10
76.315297000000001
 20
51.277389999999997
 30
0.0
 40
1.267374999999999
 50
92.122849999999985
 51
177.893304
  0
ARC
  5
16E
  8
_________2
 62
     7
 10
76.315273000000005
 20
51.370902000000001
 30
0.0
 40
1.267363
 50
182.12181499999991
 51
267.87821400000001
  0
ARC
  5
16F
  8
_________2
 62
     7
 10
76.221461000000005
 20
51.371583999999999
 30
0.0
 40
1.2680439999999991
 50
272.11916400000001
 51
357.84848499999993
  0
ARC
  5
170
  8
_________2
 62
     7
 10
76.187981999999991
 20
51.243968000000002
 30
0.0
 40
2.1668310000000002
 50
2.1161439999999989
 51
87.874379000000005
  0
ARC
  5
171
  8
_________2
 62
     7
 10
76.348411999999996
 20
51.244990000000001
 30
0.0
 40
2.1657980000000001
 50
92.118487999999999
 51
177.90988599999989
  0
ARC
  5
172
  8
_________2
 62
     7
 10
76.348354
 20
51.403983000000011
 30
0.0
 40
2.1657779999999991
 50
182.11700400000001
 51
267.88302499999992
  0
ARC
  5
173
  8
_________2
 62
     7
 10
76.188378999999983
 20
51.404665999999992
 30
0.0
 40
2.1664590000000001
 50
272.11546800000002
 51
357.86560400000002
  0
TEXT
  5
174
  8
_________2
 62
     7
 10
109.5439999999999
 20
23.198699999999992
 30
0.0
 40
3.0923400000000001
  1
図番
 41
0.5
  0
LINE
  5
175
  8
_________2
 62
     7
 10
108.4889999999999
 20
27.428000000000001
 30
0.0
 11
188.49000000000001
 21
27.428000000000001
 31
0.0
  0
TEXT
  5
176
  8
_________2
 62
     7
 10
109.5439999999999
 20
33.198500000000003
 30
0.0
 40
3.0923400000000001
  1
品番
 41
0.5
  0
TEXT
  5
177
  8
_________2
 62
     7
 10
109.5439999999999
 20
53.337699999999998
 30
0.0
 40
3.0923400000000001
  1
名称
 41
0.5
  0
TEXT
  5
178
  8
_________2
 62
     7
 10
96.784058333333334
 20
48.341500000000011
 30
0.0
 40
3.6545800000000002
  1
mm
 41
0.5
 72
     1
 11
98.306799999999996
 21
48.341500000000011
 31
0.0
  0
TEXT
  5
179
  8
_________2
 62
     7
 10
90.582099999999997
 20
53.337699999999998
 30
0.0
 40
3.0923400000000001
  1
単位
 41
0.5
  0
TEXT
  5
17A
  8
_________2
 62
     7
 10
90.582099999999997
 20
40.930100000000003
 30
0.0
 40
3.0923400000000001
  1
尺度
 41
0.5
  0
TEXT
  5
17B
  8
_________2
 62
     7
 10
95.487658666666675
 20
34.73749999999999
 30
0.0
 40
3.6545800000000002
  1
1 ： 2
 41
0.5
 72
     1
 11
98.898600000000002
 21
34.73749999999999
 31
0.0
  0
TEXT
  5
17C
  8
_________2
 62
     7
 10
114.11799999999999
 20
45.7453
 30
0.0
 40
3.9357000000000002
  1
ダイレクトプッシュ　排水ヘッド部
 41
0.5
  0
TEXT
  5
17D
  8
_________2
 62
     7
 10
44.364200333333329
 20
35.122599999999991
 30
0.0
 40
3.6545800000000002
  1
早川
 41
0.5
 72
     1
 11
46.252400000000002
 21
35.122599999999991
 31
0.0
  0
TEXT
  5
17E
  8
_________2
 62
     7
 10
25.729290666666671
 20
35.122599999999991
 30
0.0
 40
3.6545800000000002
  1
菅原
 41
0.5
 72
     1
 11
27.6784
 21
35.122599999999991
 31
0.0
  0
TEXT
  5
17F
  8
_________2
 62
     7
 10
72.724699999999999
 20
34.73749999999999
 30
0.0
 40
3.6545800000000002
  1
13.01.21
 41
0.5
  0
TEXT
  5
180
  8
_________2
 62
     7
 10
71.531999999999996
 20
40.930100000000003
 30
0.0
 40
3.0923400000000001
  1
日付
 41
0.5
  0
TEXT
  5
181
  8
_________2
 62
     7
 10
34.578299999999992
 20
40.930100000000003
 30
0.0
 40
3.0923400000000001
  1
検図
 41
0.5
  0
TEXT
  5
182
  8
_________2
 62
     7
 10
22.960000000000001
 20
26.730699999999999
 30
0.0
 40
3.0923400000000001
  1
備考
 41
0.5
  0
TEXT
  5
183
  8
_________2
 62
     7
 10
22.960000000000001
 20
40.930100000000003
 30
0.0
 40
3.0923400000000001
  1
製図
 41
0.5
  0
TEXT
  5
184
  8
_________2
 62
     7
 10
28.727365333333339
 20
49.456000000000003
 30
0.0
 40
4.4979399999999989
  1
セラトレーディング株式会社
 41
0.5
 72
     1
 11
46.119399999999992
 21
49.456000000000003
 31
0.0
  0
LINE
  5
185
  8
_________2
 62
     7
 10
188.49000000000001
 20
17.4282
 30
0.0
 11
21.988499999999991
 21
17.4282
 31
0.0
  0
LINE
  5
186
  8
_________2
 62
     7
 10
21.988499999999991
 20
17.4282
 30
0.0
 11
21.988499999999991
 21
280.42999999999989
 31
0.0
  0
LINE
  5
187
  8
_________2
 62
     7
 10
21.988499999999991
 20
280.42999999999989
 30
0.0
 11
188.49000000000001
 21
280.42999999999989
 31
0.0
  0
LINE
  5
188
  8
_________2
 62
     7
 10
188.49000000000001
 20
280.42999999999989
 30
0.0
 11
188.49000000000001
 21
17.4282
 31
0.0
  0
LINE
  5
189
  8
_________2
 62
     7
 10
70.488799999999998
 20
30.9285
 30
0.0
 11
70.488799999999998
 21
57.428400000000011
 31
0.0
  0
LINE
  5
18A
  8
_________2
 62
     7
 10
89.488600000000005
 20
30.9285
 30
0.0
 11
89.488600000000005
 21
57.428400000000011
 31
0.0
  0
LINE
  5
18B
  8
_________2
 62
     7
 10
108.4889999999999
 20
17.4282
 30
0.0
 11
108.4889999999999
 21
57.428400000000011
 31
0.0
  0
LINE
  5
18C
  8
_________2
 62
     7
 10
33.488300000000002
 20
30.9285
 30
0.0
 11
33.488300000000002
 21
44.928499999999993
 31
0.0
  0
LINE
  5
18D
  8
_________2
 62
     7
 10
21.988499999999991
 20
30.9285
 30
0.0
 11
108.4889999999999
 21
30.9285
 31
0.0
  0
LINE
  5
18E
  8
_________2
 62
     7
 10
21.988499999999991
 20
44.928499999999993
 30
0.0
 11
108.4889999999999
 21
44.928499999999993
 31
0.0
  0
LINE
  5
18F
  8
_________2
 62
     7
 10
108.4889999999999
 20
37.427799999999991
 30
0.0
 11
188.49000000000001
 21
37.427799999999991
 31
0.0
  0
LINE
  5
190
  8
_________2
 62
     7
 10
21.988499999999991
 20
57.428400000000011
 30
0.0
 11
188.49000000000001
 21
57.428400000000011
 31
0.0
  0
ENDSEC
  0
EOF
