  0
SECTION
  2
HEADER
  9
$ACADVER
  1
AC1015
  9
$ACADMAINTVER
 70
     6
  9
$DWGCODEPAGE
  3
ANSI_932
  9
$INSBASE
 10
0.0
 20
0.0
 30
0.0
  9
$EXTMIN
 10
-4.701209999999999
 20
-21.07099999999999
 30
0.0
  9
$EXTMAX
 10
205.301
 20
275.9309999999999
 30
0.0
  9
$LIMMIN
 10
0.0
 20
0.0
  9
$LIMMAX
 10
12.0
 20
9.0
  9
$ORTHOMODE
 70
     0
  9
$REGENMODE
 70
     1
  9
$FILLMODE
 70
     1
  9
$QTEXTMODE
 70
     0
  9
$MIRRTEXT
 70
     1
  9
$LTSCALE
 40
1.0
  9
$ATTMODE
 70
     1
  9
$TEXTSIZE
 40
0.0
  9
$TRACEWID
 40
0.05
  9
$TEXTSTYLE
  7
STANDARD
  9
$CLAYER
  8
0
  9
$CELTYPE
  6
CONTINUOUS
  9
$CECOLOR
 62
   256
  9
$CELTSCALE
 40
1.0
  9
$DISPSILH
 70
     0
  9
$DIMSCALE
 40
1.0
  9
$DIMASZ
 40
0.18
  9
$DIMEXO
 40
0.0625
  9
$DIMDLI
 40
0.38
  9
$DIMRND
 40
0.0
  9
$DIMDLE
 40
0.0
  9
$DIMEXE
 40
0.18
  9
$DIMTP
 40
0.0
  9
$DIMTM
 40
0.0
  9
$DIMTXT
 40
0.18
  9
$DIMCEN
 40
0.09
  9
$DIMTSZ
 40
0.0
  9
$DIMTOL
 70
     0
  9
$DIMLIM
 70
     0
  9
$DIMTIH
 70
     1
  9
$DIMTOH
 70
     1
  9
$DIMSE1
 70
     0
  9
$DIMSE2
 70
     0
  9
$DIMTAD
 70
     0
  9
$DIMZIN
 70
     0
  9
$DIMBLK
  1

  9
$DIMASO
 70
     1
  9
$DIMSHO
 70
     1
  9
$DIMPOST
  1

  9
$DIMAPOST
  1

  9
$DIMALT
 70
     0
  9
$DIMALTD
 70
     2
  9
$DIMALTF
 40
25.4
  9
$DIMLFAC
 40
1.0
  9
$DIMTOFL
 70
     0
  9
$DIMTVP
 40
0.0
  9
$DIMTIX
 70
     0
  9
$DIMSOXD
 70
     0
  9
$DIMSAH
 70
     0
  9
$DIMBLK1
  1

  9
$DIMBLK2
  1

  9
$DIMSTYLE
  2
STANDARD
  9
$DIMCLRD
 70
     0
  9
$DIMCLRE
 70
     0
  9
$DIMCLRT
 70
     0
  9
$DIMTFAC
 40
1.0
  9
$DIMGAP
 40
0.09
  9
$DIMJUST
 70
     0
  9
$DIMSD1
 70
     0
  9
$DIMSD2
 70
     0
  9
$DIMTOLJ
 70
     1
  9
$DIMTZIN
 70
     0
  9
$DIMALTZ
 70
     0
  9
$DIMALTTZ
 70
     0
  9
$DIMUPT
 70
     0
  9
$DIMDEC
 70
     4
  9
$DIMTDEC
 70
     4
  9
$DIMALTU
 70
     2
  9
$DIMALTTD
 70
     2
  9
$DIMTXSTY
  7
STANDARD
  9
$DIMAUNIT
 70
     0
  9
$DIMADEC
 70
     0
  9
$DIMALTRND
 40
0.0
  9
$DIMAZIN
 70
     0
  9
$DIMDSEP
 70
    46
  9
$DIMATFIT
 70
     3
  9
$DIMFRAC
 70
     0
  9
$DIMLDRBLK
  1

  9
$DIMLUNIT
 70
     2
  9
$DIMLWD
 70
    -2
  9
$DIMLWE
 70
    -2
  9
$DIMTMOVE
 70
     0
  9
$LUNITS
 70
     2
  9
$LUPREC
 70
     4
  9
$SKETCHINC
 40
0.1
  9
$FILLETRAD
 40
0.0
  9
$AUNITS
 70
     0
  9
$AUPREC
 70
     0
  9
$MENU
  1
.
  9
$ELEVATION
 40
0.0
  9
$PELEVATION
 40
0.0
  9
$THICKNESS
 40
0.0
  9
$LIMCHECK
 70
     0
  9
$CHAMFERA
 40
0.0
  9
$CHAMFERB
 40
0.0
  9
$CHAMFERC
 40
0.0
  9
$CHAMFERD
 40
0.0
  9
$SKPOLY
 70
     0
  9
$TDCREATE
 40
2444972.375000000
  9
$TDUCREATE
 40
2444972.000000000
  9
$TDUPDATE
 40
2455216.793335011
  9
$TDUUPDATE
 40
2455216.418335012
  9
$TDINDWG
 40
0.0185240162
  9
$TDUSRTIMER
 40
0.0185240162
  9
$USRTIMER
 70
     1
  9
$ANGBASE
 50
0.0
  9
$ANGDIR
 70
     0
  9
$PDMODE
 70
     0
  9
$PDSIZE
 40
0.0
  9
$PLINEWID
 40
0.0
  9
$SPLFRAME
 70
     0
  9
$SPLINETYPE
 70
     6
  9
$SPLINESEGS
 70
     8
  9
$HANDSEED
  5
201
  9
$SURFTAB1
 70
     6
  9
$SURFTAB2
 70
     6
  9
$SURFTYPE
 70
     6
  9
$SURFU
 70
     6
  9
$SURFV
 70
     6
  9
$UCSBASE
  2

  9
$UCSNAME
  2

  9
$UCSORG
 10
0.0
 20
0.0
 30
0.0
  9
$UCSXDIR
 10
1.0
 20
0.0
 30
0.0
  9
$UCSYDIR
 10
0.0
 20
1.0
 30
0.0
  9
$UCSORTHOREF
  2

  9
$UCSORTHOVIEW
 70
     0
  9
$UCSORGTOP
 10
0.0
 20
0.0
 30
0.0
  9
$UCSORGBOTTOM
 10
0.0
 20
0.0
 30
0.0
  9
$UCSORGLEFT
 10
0.0
 20
0.0
 30
0.0
  9
$UCSORGRIGHT
 10
0.0
 20
0.0
 30
0.0
  9
$UCSORGFRONT
 10
0.0
 20
0.0
 30
0.0
  9
$UCSORGBACK
 10
0.0
 20
0.0
 30
0.0
  9
$PUCSBASE
  2

  9
$PUCSNAME
  2

  9
$PUCSORG
 10
0.0
 20
0.0
 30
0.0
  9
$PUCSXDIR
 10
1.0
 20
0.0
 30
0.0
  9
$PUCSYDIR
 10
0.0
 20
1.0
 30
0.0
  9
$PUCSORTHOREF
  2

  9
$PUCSORTHOVIEW
 70
     0
  9
$PUCSORGTOP
 10
0.0
 20
0.0
 30
0.0
  9
$PUCSORGBOTTOM
 10
0.0
 20
0.0
 30
0.0
  9
$PUCSORGLEFT
 10
0.0
 20
0.0
 30
0.0
  9
$PUCSORGRIGHT
 10
0.0
 20
0.0
 30
0.0
  9
$PUCSORGFRONT
 10
0.0
 20
0.0
 30
0.0
  9
$PUCSORGBACK
 10
0.0
 20
0.0
 30
0.0
  9
$USERI1
 70
     0
  9
$USERI2
 70
     0
  9
$USERI3
 70
     0
  9
$USERI4
 70
     0
  9
$USERI5
 70
     0
  9
$USERR1
 40
0.0
  9
$USERR2
 40
0.0
  9
$USERR3
 40
0.0
  9
$USERR4
 40
0.0
  9
$USERR5
 40
0.0
  9
$WORLDVIEW
 70
     1
  9
$SHADEDGE
 70
     3
  9
$SHADEDIF
 70
    70
  9
$TILEMODE
 70
     1
  9
$MAXACTVP
 70
    48
  9
$PINSBASE
 10
0.0
 20
0.0
 30
0.0
  9
$PLIMCHECK
 70
     0
  9
$PEXTMIN
 10
1.000000000000000E+20
 20
1.000000000000000E+20
 30
1.000000000000000E+20
  9
$PEXTMAX
 10
-1.000000000000000E+20
 20
-1.000000000000000E+20
 30
-1.000000000000000E+20
  9
$PLIMMIN
 10
0.0
 20
0.0
  9
$PLIMMAX
 10
12.0
 20
9.0
  9
$UNITMODE
 70
     0
  9
$VISRETAIN
 70
     1
  9
$PLINEGEN
 70
     0
  9
$PSLTSCALE
 70
     1
  9
$TREEDEPTH
 70
  3020
  9
$CMLSTYLE
  2
STANDARD
  9
$CMLJUST
 70
     0
  9
$CMLSCALE
 40
1.0
  9
$PROXYGRAPHICS
 70
     1
  9
$MEASUREMENT
 70
     0
  9
$CELWEIGHT
370
    -1
  9
$ENDCAPS
280
     0
  9
$JOINSTYLE
280
     0
  9
$LWDISPLAY
290
     0
  9
$INSUNITS
 70
     0
  9
$HYPERLINKBASE
  1

  9
$STYLESHEET
  1

  9
$XEDIT
290
     1
  9
$CEPSNTYPE
380
     0
  9
$PSTYLEMODE
290
     1
  9
$FINGERPRINTGUID
  2
{90990778-14E9-4AE6-95F3-383AE03A5107}
  9
$VERSIONGUID
  2
{8076D584-D31C-47FB-B763-7F2F1EBF31C0}
  9
$EXTNAMES
290
     1
  9
$PSVPSCALE
 40
0.0
  9
$OLESTARTUP
290
     0
  0
ENDSEC
  0
SECTION
  2
CLASSES
  0
CLASS
  1
ACDBDICTIONARYWDFLT
  2
AcDbDictionaryWithDefault
  3
AutoCAD 2000
 90
        0
280
     0
281
     0
  0
CLASS
  1
ACDBPLACEHOLDER
  2
AcDbPlaceHolder
  3
AutoCAD 2000
 90
        0
280
     0
281
     0
  0
CLASS
  1
LAYOUT
  2
AcDbLayout
  3
AutoCAD 2000
 90
        0
280
     0
281
     0
  0
ENDSEC
  0
SECTION
  2
TABLES
  0
TABLE
  2
VPORT
  5
8
330
0
100
AcDbSymbolTable
 70
     2
  0
VPORT
  5
200
330
8
100
AcDbSymbolTableRecord
100
AcDbViewportTableRecord
  2
*Active
 70
     0
 10
0.0
 20
0.0
 11
1.0
 21
1.0
 12
148.8477534432701
 22
127.4299999999999
 13
0.0
 23
0.0
 14
1.0
 24
1.0
 15
0.0
 25
0.0
 16
0.0
 26
0.0
 36
1.0
 17
0.0
 27
0.0
 37
0.0
 40
299.3074274784841
 41
1.912109374999999
 42
50.0
 43
0.0
 44
0.0
 50
0.0
 51
0.0
 71
     0
 72
   100
 73
     1
 74
     1
 75
     0
 76
     0
 77
     0
 78
     0
281
     0
 65
     1
110
0.0
120
0.0
130
0.0
111
1.0
121
0.0
131
0.0
112
0.0
122
1.0
132
0.0
 79
     0
146
0.0
  0
ENDTAB
  0
TABLE
  2
LTYPE
  5
5
330
0
100
AcDbSymbolTable
 70
     3
  0
LTYPE
  5
12
330
5
100
AcDbSymbolTableRecord
100
AcDbLinetypeTableRecord
  2
BYBLOCK
 70
     0
  3

 72
    65
 73
     0
 40
0.0
  0
LTYPE
  5
13
330
5
100
AcDbSymbolTableRecord
100
AcDbLinetypeTableRecord
  2
BYLAYER
 70
     0
  3

 72
    65
 73
     0
 40
0.0
  0
LTYPE
  5
14
330
5
100
AcDbSymbolTableRecord
100
AcDbLinetypeTableRecord
  2
CONTINUOUS
 70
     0
  3
Solid line
 72
    65
 73
     0
 40
0.0
  0
LTYPE
  5
1F
330
5
100
AcDbSymbolTableRecord
100
AcDbLinetypeTableRecord
  2
AIGENLINE001
 70
     0
  3
generate AI->DXF Converter
 72
    65
 73
     6
 40
7.408375
 49
3.5278
 74
     0
 49
-0.776115
 74
     0
 49
0.776115
 74
     0
 49
-0.776115
 74
     0
 49
0.776115
 74
     0
 49
-0.776115
 74
     0
  0
LTYPE
  5
20
330
5
100
AcDbSymbolTableRecord
100
AcDbLinetypeTableRecord
  2
AIGENLINE002
 70
     0
  3
generate AI->DXF Converter
 72
    65
 73
     4
 40
5.856144999999999
 49
3.5278
 74
     0
 49
-0.776115
 74
     0
 49
0.776115
 74
     0
 49
-0.776115
 74
     0
  0
ENDTAB
  0
TABLE
  2
LAYER
  5
2
330
0
100
AcDbSymbolTable
 70
     2
  0
LAYER
  5
E
330
2
100
AcDbSymbolTableRecord
100
AcDbLayerTableRecord
  2
0
 70
     0
 62
     7
  6
CONTINUOUS
370
    -3
390
1F8
  0
LAYER
  5
21
330
2
100
AcDbSymbolTableRecord
100
AcDbLayerTableRecord
  2
_________2
 70
     0
 62
     7
  6
CONTINUOUS
370
    -3
390
1F8
  0
ENDTAB
  0
TABLE
  2
STYLE
  5
3
330
0
100
AcDbSymbolTable
 70
     1
  0
STYLE
  5
F
330
3
100
AcDbSymbolTableRecord
100
AcDbTextStyleTableRecord
  2
STANDARD
 70
     0
 40
0.0
 41
0.0
 50
0.0
 71
     0
 42
0.0
  3
TXT
  4
BIGFONT
  0
ENDTAB
  0
TABLE
  2
VIEW
  5
6
330
0
100
AcDbSymbolTable
 70
     0
  0
ENDTAB
  0
TABLE
  2
UCS
  5
7
330
0
100
AcDbSymbolTable
 70
     0
  0
ENDTAB
  0
TABLE
  2
APPID
  5
9
330
0
100
AcDbSymbolTable
 70
     1
  0
APPID
  5
10
330
9
100
AcDbSymbolTableRecord
100
AcDbRegAppTableRecord
  2
ACAD
 70
     0
  0
ENDTAB
  0
TABLE
  2
DIMSTYLE
  5
A
330
0
100
AcDbSymbolTable
 70
     1
100
AcDbDimStyleTable
 71
     0
  0
DIMSTYLE
105
1F4
330
A
100
AcDbSymbolTableRecord
100
AcDbDimStyleTableRecord
  2
STANDARD
 70
     0
340
F
  0
ENDTAB
  0
TABLE
  2
BLOCK_RECORD
  5
1
330
0
100
AcDbSymbolTable
 70
     0
  0
BLOCK_RECORD
  5
18
330
1
100
AcDbSymbolTableRecord
100
AcDbBlockTableRecord
  2
*MODEL_SPACE
340
1FB
  0
BLOCK_RECORD
  5
15
330
1
100
AcDbSymbolTableRecord
100
AcDbBlockTableRecord
  2
*PAPER_SPACE
340
1FC
  0
ENDTAB
  0
ENDSEC
  0
SECTION
  2
BLOCKS
  0
BLOCK
  5
19
330
18
100
AcDbEntity
  8
0
100
AcDbBlockBegin
  2
*MODEL_SPACE
 70
     0
 10
0.0
 20
0.0
 30
0.0
  3
*MODEL_SPACE
  1

  0
ENDBLK
  5
1A
330
18
100
AcDbEntity
  8
0
100
AcDbBlockEnd
  0
BLOCK
  5
16
330
15
100
AcDbEntity
 67
     1
  8
0
100
AcDbBlockBegin
  2
*PAPER_SPACE
 70
     0
 10
0.0
 20
0.0
 30
0.0
  3
*PAPER_SPACE
  1

  0
ENDBLK
  5
17
330
15
100
AcDbEntity
 67
     1
  8
0
100
AcDbBlockEnd
  0
ENDSEC
  0
SECTION
  2
ENTITIES
  0
TEXT
  5
23
330
18
100
AcDbEntity
  8
0
100
AcDbText
 10
103.234
 20
185.53861
 30
0.0
 40
3.09234
  1
4
 50
90.0
 41
0.5
 72
     1
 11
103.234
 21
186.054
 31
0.0
100
AcDbText
  0
TEXT
  5
24
330
18
100
AcDbEntity
  8
0
100
AcDbText
 10
27.3401
 20
164.217
 30
0.0
 40
3.09234
  1
%%c21.5(内径)
 41
0.5
100
AcDbText
  0
TEXT
  5
25
330
18
100
AcDbEntity
  8
0
100
AcDbText
 10
64.97458750000001
 20
160.8439999999999
 30
0.0
 40
3.09234
  1
%%c40
 41
0.5
 72
     1
 11
66.90730000000001
 21
160.8439999999999
 31
0.0
100
AcDbText
  0
TEXT
  5
26
330
18
100
AcDbEntity
  8
0
100
AcDbText
 10
32.4671
 20
175.3298299999999
 30
0.0
 40
3.09234
  1
5.8
 50
90.0
 41
0.5
 72
     1
 11
32.4671
 21
176.8759999999999
 31
0.0
100
AcDbText
  0
TEXT
  5
27
330
18
100
AcDbEntity
  8
0
100
AcDbText
 10
32.4671
 20
186.05166
 30
0.0
 40
3.09234
  1
2.8
 50
90.0
 41
0.5
 72
     2
 11
32.4671
 21
189.144
 31
0.0
100
AcDbText
  0
TEXT
  5
28
330
18
100
AcDbEntity
  8
0
100
AcDbText
 10
64.84574000000001
 20
200.049
 30
0.0
 40
3.09234
  1
%%c33
 41
0.5
 72
     1
 11
66.90730000000001
 21
200.049
 31
0.0
100
AcDbText
  0
TEXT
  5
29
330
18
100
AcDbEntity
  8
0
100
AcDbText
 10
95.92081999999999
 20
166.988
 30
0.0
 40
3.09234
  1
3
 41
0.5
 72
     2
 11
96.95160000000001
 21
166.988
 31
0.0
100
AcDbText
  0
TEXT
  5
2A
330
18
100
AcDbEntity
  8
0
100
AcDbText
 10
95.92081999999999
 20
174.2879999999999
 30
0.0
 40
3.09234
  1
2
 41
0.5
 72
     2
 11
96.95160000000001
 21
174.2879999999999
 31
0.0
100
AcDbText
  0
TEXT
  5
2B
330
18
100
AcDbEntity
  8
0
100
AcDbText
 10
96.16131000000001
 20
196.817
 30
0.0
 40
3.09234
  1
1
 41
0.5
 72
     2
 11
96.67670000000001
 21
196.817
 31
0.0
100
AcDbText
  0
TEXT
  5
2C
330
18
100
AcDbEntity
  8
0
100
AcDbText
 10
71.3263
 20
193.7279999999999
 30
0.0
 40
3.09234
  1
G1/2
 41
0.5
 72
     2
 11
76.48019999999999
 21
193.7279999999999
 31
0.0
100
AcDbText
  0
TEXT
  5
2D
330
18
100
AcDbEntity
  8
0
100
AcDbText
 10
57.4692
 20
165.932
 30
0.0
 40
3.09234
  1
G1/2
 41
0.5
100
AcDbText
  0
TEXT
  5
2E
330
18
100
AcDbEntity
  8
0
100
AcDbText
 10
64.58804500000001
 20
77.6833
 30
0.0
 40
3.09234
  1
27.7
 41
0.5
 72
     1
 11
66.90730000000001
 21
77.6833
 31
0.0
100
AcDbText
  0
TEXT
  5
2F
330
18
100
AcDbEntity
  8
0
100
AcDbText
 10
96.5628
 20
106.7675249999999
 30
0.0
 40
3.09234
  1
24
 50
90.0
 41
0.5
 72
     1
 11
96.5628
 21
108.0559999999999
 31
0.0
100
AcDbText
  0
LINE
  5
30
330
18
100
AcDbEntity
  8
0
100
AcDbLine
 10
80.72509999999999
 20
175.059
 30
0.0
 11
78.5159
 21
175.6609999999999
 31
0.0
  0
LINE
  5
31
330
18
100
AcDbEntity
  8
0
100
AcDbLine
 10
78.5159
 20
175.6609999999999
 30
0.0
 11
80.12860000000001
 21
174.035
 31
0.0
  0
LINE
  5
32
330
18
100
AcDbEntity
  8
0
100
AcDbLine
 10
80.12860000000001
 20
174.035
 30
0.0
 11
80.72509999999999
 21
175.059
 31
0.0
  0
LINE
  5
33
330
18
100
AcDbEntity
  8
0
100
AcDbLine
 10
78.5159
 20
175.6609999999999
 30
0.0
 11
94.396
 21
166.3879999999999
 31
0.0
  0
LINE
  5
34
330
18
100
AcDbEntity
  8
0
100
AcDbLine
 10
87.5425
 20
180.314
 30
0.0
 11
85.47539999999999
 21
181.299
 31
0.0
  0
LINE
  5
35
330
18
100
AcDbEntity
  8
0
100
AcDbLine
 10
85.47539999999999
 20
181.299
 30
0.0
 11
86.77319999999999
 21
179.4129999999999
 31
0.0
  0
LINE
  5
36
330
18
100
AcDbEntity
  8
0
100
AcDbLine
 10
86.77319999999999
 20
179.4129999999999
 30
0.0
 11
87.5425
 21
180.314
 31
0.0
  0
LINE
  5
37
330
18
100
AcDbEntity
  8
0
100
AcDbLine
 10
85.47539999999999
 20
181.299
 30
0.0
 11
94.396
 21
173.688
 31
0.0
  0
LINE
  5
38
330
18
100
AcDbEntity
  8
0
100
AcDbLine
 10
84.56850000000001
 20
187.6509999999999
 30
0.0
 11
83.4073
 21
185.678
 31
0.0
  0
LINE
  5
39
330
18
100
AcDbEntity
  8
0
100
AcDbLine
 10
83.4073
 20
185.678
 30
0.0
 11
85.3996
 21
186.8059999999999
 31
0.0
  0
LINE
  5
3A
330
18
100
AcDbEntity
  8
0
100
AcDbLine
 10
85.3996
 20
186.8059999999999
 30
0.0
 11
84.56850000000001
 21
187.6509999999999
 31
0.0
  0
LINE
  5
3B
330
18
100
AcDbEntity
  8
0
100
AcDbLine
 10
83.4073
 20
185.678
 30
0.0
 11
94.1211
 21
196.217
 31
0.0
  0
ARC
  5
3C
330
18
100
AcDbEntity
  8
0
100
AcDbCircle
 10
33.109127
 20
179.756745
 30
0.0
 40
0.311955
100
AcDbArc
 50
270.00002
 51
359.9999899999999
  0
ARC
  5
3D
330
18
100
AcDbEntity
  8
0
100
AcDbCircle
 10
33.109127
 20
179.756745
 30
0.0
 40
0.311955
100
AcDbArc
 50
179.9999699999999
 51
270.00002
  0
ARC
  5
3E
330
18
100
AcDbEntity
  8
0
100
AcDbCircle
 10
33.109127
 20
179.756745
 30
0.0
 40
0.311955
100
AcDbArc
 50
90.0
 51
179.9999699999999
  0
ARC
  5
3F
330
18
100
AcDbEntity
  8
0
100
AcDbCircle
 10
33.109127
 20
179.756745
 30
0.0
 40
0.311955
100
AcDbArc
 50
0.00001
 51
89.99998000000001
  0
LINE
  5
40
330
18
100
AcDbEntity
  8
0
100
AcDbLine
 10
84.2927
 20
184.057
 30
0.0
 11
104.8659999999999
 21
184.057
 31
0.0
  0
LINE
  5
41
330
18
100
AcDbEntity
  8
0
100
AcDbLine
 10
97.6074
 20
188.057
 30
0.0
 11
104.8659999999999
 21
188.057
 31
0.0
  0
LINE
  5
42
330
18
100
AcDbEntity
  8
0
100
AcDbLine
 10
103.2729999999999
 20
190.268
 30
0.0
 11
103.865
 21
188.057
 31
0.0
  0
LINE
  5
43
330
18
100
AcDbEntity
  8
0
100
AcDbLine
 10
103.865
 20
188.057
 30
0.0
 11
104.458
 21
190.268
 31
0.0
  0
LINE
  5
44
330
18
100
AcDbEntity
  8
0
100
AcDbLine
 10
104.458
 20
190.268
 30
0.0
 11
103.2729999999999
 21
190.268
 31
0.0
  0
LINE
  5
45
330
18
100
AcDbEntity
  8
0
100
AcDbLine
 10
104.458
 20
181.845
 30
0.0
 11
103.865
 21
184.057
 31
0.0
  0
LINE
  5
46
330
18
100
AcDbEntity
  8
0
100
AcDbLine
 10
103.865
 20
184.057
 30
0.0
 11
103.2729999999999
 21
181.845
 31
0.0
  0
LINE
  5
47
330
18
100
AcDbEntity
  8
0
100
AcDbLine
 10
103.2729999999999
 20
181.845
 30
0.0
 11
104.458
 21
181.845
 31
0.0
  0
LINE
  5
48
330
18
100
AcDbEntity
  8
0
100
AcDbLine
 10
103.865
 20
179.739
 30
0.0
 11
103.865
 21
191.6719999999999
 31
0.0
  0
LINE
  5
49
330
18
100
AcDbEntity
  8
0
100
AcDbLine
 10
42.6409
 20
162.7259999999999
 30
0.0
 11
27.3401
 21
162.7259999999999
 31
0.0
  0
LINE
  5
4A
330
18
100
AcDbEntity
  8
0
100
AcDbLine
 10
65.49739999999999
 20
179.203
 30
0.0
 11
66.90730000000001
 21
181.0069999999999
 31
0.0
  0
LINE
  5
4B
330
18
100
AcDbEntity
  8
0
100
AcDbLine
 10
66.90730000000001
 20
181.0069999999999
 30
0.0
 11
64.78419999999999
 21
180.149
 31
0.0
  0
LINE
  5
4C
330
18
100
AcDbEntity
  8
0
100
AcDbLine
 10
64.78419999999999
 20
180.149
 30
0.0
 11
65.49739999999999
 21
179.203
 31
0.0
  0
LINE
  5
4D
330
18
100
AcDbEntity
  8
0
100
AcDbLine
 10
66.90730000000001
 20
181.0069999999999
 30
0.0
 11
42.6409
 21
162.7259999999999
 31
0.0
  0
LINE
  5
4E
330
18
100
AcDbEntity
  8
0
100
AcDbLine
 10
56.15709999999999
 20
181.0069999999999
 30
0.0
 11
58.65709999999999
 21
181.632
 31
0.0
  0
LINE
  5
4F
330
18
100
AcDbEntity
  8
0
100
AcDbLine
 10
58.65709999999999
 20
180.3819999999999
 30
0.0
 11
56.15709999999999
 21
181.0069999999999
 31
0.0
  0
LINE
  5
50
330
18
100
AcDbEntity
  8
0
100
AcDbLine
 10
56.15709999999999
 20
181.0069999999999
 30
0.0
 11
66.90730000000001
 21
181.0069999999999
 31
0.0
  0
LINE
  5
51
330
18
100
AcDbEntity
  8
0
100
AcDbLine
 10
77.6572
 20
181.0069999999999
 30
0.0
 11
75.15730000000001
 21
180.3819999999999
 31
0.0
  0
LINE
  5
52
330
18
100
AcDbEntity
  8
0
100
AcDbLine
 10
75.15730000000001
 20
181.632
 30
0.0
 11
77.6572
 21
181.0069999999999
 31
0.0
  0
LINE
  5
53
330
18
100
AcDbEntity
  8
0
100
AcDbLine
 10
77.6572
 20
181.0069999999999
 30
0.0
 11
66.90730000000001
 21
181.0069999999999
 31
0.0
  0
LINE
  5
54
330
18
100
AcDbEntity
  8
0
100
AcDbLine
 10
47.3747
 20
181.357
 30
0.0
 11
47.3747
 21
182.557
 31
0.0
  0
LINE
  5
55
330
18
100
AcDbEntity
  8
0
100
AcDbLine
 10
86.90100000000001
 20
181.357
 30
0.0
 11
86.90100000000001
 21
182.557
 31
0.0
  0
LINE
  5
56
330
18
100
AcDbEntity
  8
0
100
AcDbLine
 10
46.90699999999999
 20
180.97
 30
0.0
 11
47.2939
 21
181.357
 31
0.0
  0
LINE
  5
57
330
18
100
AcDbEntity
  8
0
100
AcDbLine
 10
49.9365
 20
179.757
 30
0.0
 11
51.53649999999999
 21
181.357
 31
0.0
  0
LINE
  5
58
330
18
100
AcDbEntity
  8
0
100
AcDbLine
 10
54.1791
 20
179.757
 30
0.0
 11
55.7792
 21
181.357
 31
0.0
  0
LINE
  5
59
330
18
100
AcDbEntity
  8
0
100
AcDbLine
 10
79.6353
 20
179.757
 30
0.0
 11
81.2352
 21
181.357
 31
0.0
  0
LINE
  5
5A
330
18
100
AcDbEntity
  8
0
100
AcDbLine
 10
83.8779
 20
179.757
 30
0.0
 11
85.47780000000001
 21
181.357
 31
0.0
  0
LINE
  5
5B
330
18
100
AcDbEntity
  8
0
100
AcDbLine
 10
56.3611
 20
179.757
 30
0.0
 11
56.15709999999999
 21
179.793
 31
0.0
  0
LINE
  5
5C
330
18
100
AcDbEntity
  8
0
100
AcDbLine
 10
58.5377
 20
179.757
 30
0.0
 11
56.7206
 21
180.0959999999999
 31
0.0
  0
LINE
  5
5D
330
18
100
AcDbEntity
  8
0
100
AcDbLine
 10
62.6317
 20
179.757
 30
0.0
 11
59.7494
 21
180.4909999999999
 31
0.0
  0
LINE
  5
5E
330
18
100
AcDbEntity
  8
0
100
AcDbLine
 10
67.70520000000001
 20
179.757
 30
0.0
 11
64.8402
 21
181.072
 31
0.0
  0
LINE
  5
5F
330
18
100
AcDbEntity
  8
0
100
AcDbLine
 10
73.41889999999999
 20
179.757
 30
0.0
 11
75.8901
 21
180.274
 31
0.0
  0
LINE
  5
60
330
18
100
AcDbEntity
  8
0
100
AcDbLine
 10
76.64799999999999
 20
179.757
 30
0.0
 11
77.6349
 21
179.932
 31
0.0
  0
LINE
  5
61
330
18
100
AcDbEntity
  8
0
100
AcDbLine
 10
68.6979
 20
179.757
 30
0.0
 11
71.6717
 21
180.803
 31
0.0
  0
LINE
  5
62
330
18
100
AcDbEntity
  8
0
100
AcDbLine
 10
66.1092
 20
182.557
 30
0.0
 11
69.0271
 21
181.2969999999999
 31
0.0
  0
LINE
  5
63
330
18
100
AcDbEntity
  8
0
100
AcDbLine
 10
65.1165
 20
182.557
 30
0.0
 11
62.1007
 21
181.5579999999999
 31
0.0
  0
LINE
  5
64
330
18
100
AcDbEntity
  8
0
100
AcDbLine
 10
57.1664
 20
182.557
 30
0.0
 11
56.1781
 21
182.3909999999999
 31
0.0
  0
LINE
  5
65
330
18
100
AcDbEntity
  8
0
100
AcDbLine
 10
60.2847
 20
182.557
 30
0.0
 11
57.9009
 21
182.0809999999999
 31
0.0
  0
LINE
  5
66
330
18
100
AcDbEntity
  8
0
100
AcDbLine
 10
77.4533
 20
182.557
 30
0.0
 11
77.6572
 21
182.522
 31
0.0
  0
LINE
  5
67
330
18
100
AcDbEntity
  8
0
100
AcDbLine
 10
75.2767
 20
182.557
 30
0.0
 11
77.10049999999999
 21
182.2359999999999
 31
0.0
  0
LINE
  5
68
330
18
100
AcDbEntity
  8
0
100
AcDbLine
 10
71.18269999999999
 20
182.557
 30
0.0
 11
74.0924
 21
181.859
 31
0.0
  0
LINE
  5
69
330
18
100
AcDbEntity
  8
0
100
AcDbLine
 10
53.05699999999999
 20
179.757
 30
0.0
 11
46.90699999999999
 21
179.757
 31
0.0
  0
LINE
  5
6A
330
18
100
AcDbEntity
  8
0
100
AcDbLine
 10
56.15709999999999
 20
179.757
 30
0.0
 11
53.05699999999999
 21
179.757
 31
0.0
  0
LINE
  5
6B
330
18
100
AcDbEntity
  8
0
100
AcDbLine
 10
56.6005
 20
179.757
 30
0.0
 11
56.3611
 21
179.757
 31
0.0
  0
LINE
  5
6C
330
18
100
AcDbEntity
  8
0
100
AcDbLine
 10
58.5377
 20
180.9569999999999
 30
0.0
 11
57.63110000000001
 21
182.557
 31
0.0
  0
LINE
  5
6D
330
18
100
AcDbEntity
  8
0
100
AcDbLine
 10
56.6005
 20
180.8569999999999
 30
0.0
 11
56.3611
 21
180.8569999999999
 31
0.0
  0
LINE
  5
6E
330
18
100
AcDbEntity
  8
0
100
AcDbLine
 10
56.15709999999999
 20
182.557
 30
0.0
 11
47.3747
 21
182.557
 31
0.0
  0
LINE
  5
6F
330
18
100
AcDbEntity
  8
0
100
AcDbLine
 10
59.2009
 20
180.8569999999999
 30
0.0
 11
58.5377
 21
180.8569999999999
 31
0.0
  0
LINE
  5
70
330
18
100
AcDbEntity
  8
0
100
AcDbLine
 10
57.63110000000001
 20
182.557
 30
0.0
 11
57.1664
 21
182.557
 31
0.0
  0
LINE
  5
71
330
18
100
AcDbEntity
  8
0
100
AcDbLine
 10
57.63110000000001
 20
181.4569999999999
 30
0.0
 11
57.1664
 21
181.4569999999999
 31
0.0
  0
LINE
  5
72
330
18
100
AcDbEntity
  8
0
100
AcDbLine
 10
59.2009
 20
179.757
 30
0.0
 11
58.5377
 21
179.757
 31
0.0
  0
LINE
  5
73
330
18
100
AcDbEntity
  8
0
100
AcDbLine
 10
61.2185
 20
181.4569999999999
 30
0.0
 11
60.3955
 21
181.4569999999999
 31
0.0
  0
LINE
  5
74
330
18
100
AcDbEntity
  8
0
100
AcDbLine
 10
61.2185
 20
182.557
 30
0.0
 11
60.3955
 21
182.557
 31
0.0
  0
LINE
  5
75
330
18
100
AcDbEntity
  8
0
100
AcDbLine
 10
56.15709999999999
 20
181.357
 30
0.0
 11
56.3611
 21
179.757
 31
0.0
  0
LINE
  5
76
330
18
100
AcDbEntity
  8
0
100
AcDbLine
 10
56.3611
 20
180.9569999999999
 30
0.0
 11
56.15709999999999
 21
182.557
 31
0.0
  0
LINE
  5
77
330
18
100
AcDbEntity
  8
0
100
AcDbLine
 10
56.6005
 20
180.9569999999999
 30
0.0
 11
57.1664
 21
182.557
 31
0.0
  0
LINE
  5
78
330
18
100
AcDbEntity
  8
0
100
AcDbLine
 10
57.1664
 20
181.357
 30
0.0
 11
56.6005
 21
179.757
 31
0.0
  0
LINE
  5
79
330
18
100
AcDbEntity
  8
0
100
AcDbLine
 10
57.63110000000001
 20
181.357
 30
0.0
 11
58.5377
 21
179.757
 31
0.0
  0
LINE
  5
7A
330
18
100
AcDbEntity
  8
0
100
AcDbLine
 10
60.3955
 20
182.557
 30
0.0
 11
59.2009
 21
180.9569999999999
 31
0.0
  0
LINE
  5
7B
330
18
100
AcDbEntity
  8
0
100
AcDbLine
 10
60.3955
 20
181.357
 30
0.0
 11
59.2009
 21
179.757
 31
0.0
  0
LINE
  5
7C
330
18
100
AcDbEntity
  8
0
100
AcDbLine
 10
61.2185
 20
181.357
 30
0.0
 11
62.6317
 21
179.757
 31
0.0
  0
LINE
  5
7D
330
18
100
AcDbEntity
  8
0
100
AcDbLine
 10
62.6317
 20
180.9569999999999
 30
0.0
 11
61.2185
 21
182.557
 31
0.0
  0
LINE
  5
7E
330
18
100
AcDbEntity
  8
0
100
AcDbLine
 10
65.1165
 20
182.557
 30
0.0
 11
63.5669
 21
180.9569999999999
 31
0.0
  0
LINE
  5
7F
330
18
100
AcDbEntity
  8
0
100
AcDbLine
 10
65.1165
 20
181.357
 30
0.0
 11
63.5669
 21
179.757
 31
0.0
  0
LINE
  5
80
330
18
100
AcDbEntity
  8
0
100
AcDbLine
 10
63.5669
 20
180.8569999999999
 30
0.0
 11
62.6317
 21
180.8569999999999
 31
0.0
  0
LINE
  5
81
330
18
100
AcDbEntity
  8
0
100
AcDbLine
 10
63.5669
 20
179.757
 30
0.0
 11
62.6317
 21
179.757
 31
0.0
  0
LINE
  5
82
330
18
100
AcDbEntity
  8
0
100
AcDbLine
 10
66.1092
 20
181.4569999999999
 30
0.0
 11
65.1165
 21
181.4569999999999
 31
0.0
  0
LINE
  5
83
330
18
100
AcDbEntity
  8
0
100
AcDbLine
 10
68.6979
 20
180.8569999999999
 30
0.0
 11
67.70520000000001
 21
180.8569999999999
 31
0.0
  0
LINE
  5
84
330
18
100
AcDbEntity
  8
0
100
AcDbLine
 10
66.1092
 20
182.557
 30
0.0
 11
65.1165
 21
182.557
 31
0.0
  0
LINE
  5
85
330
18
100
AcDbEntity
  8
0
100
AcDbLine
 10
71.18269999999999
 20
181.4569999999999
 30
0.0
 11
70.2477
 21
181.4569999999999
 31
0.0
  0
LINE
  5
86
330
18
100
AcDbEntity
  8
0
100
AcDbLine
 10
68.6979
 20
179.757
 30
0.0
 11
67.70520000000001
 21
179.757
 31
0.0
  0
LINE
  5
87
330
18
100
AcDbEntity
  8
0
100
AcDbLine
 10
71.18269999999999
 20
182.557
 30
0.0
 11
70.2477
 21
182.557
 31
0.0
  0
LINE
  5
88
330
18
100
AcDbEntity
  8
0
100
AcDbLine
 10
73.41889999999999
 20
179.757
 30
0.0
 11
72.5959
 21
179.757
 31
0.0
  0
LINE
  5
89
330
18
100
AcDbEntity
  8
0
100
AcDbLine
 10
76.64799999999999
 20
179.757
 30
0.0
 11
76.1833
 21
179.757
 31
0.0
  0
LINE
  5
8A
330
18
100
AcDbEntity
  8
0
100
AcDbLine
 10
73.41889999999999
 20
180.8569999999999
 30
0.0
 11
72.5959
 21
180.8569999999999
 31
0.0
  0
LINE
  5
8B
330
18
100
AcDbEntity
  8
0
100
AcDbLine
 10
76.64799999999999
 20
180.8569999999999
 30
0.0
 11
76.1833
 21
180.8569999999999
 31
0.0
  0
LINE
  5
8C
330
18
100
AcDbEntity
  8
0
100
AcDbLine
 10
77.4533
 20
181.4569999999999
 30
0.0
 11
77.21389999999999
 21
181.4569999999999
 31
0.0
  0
LINE
  5
8D
330
18
100
AcDbEntity
  8
0
100
AcDbLine
 10
75.2767
 20
181.4569999999999
 30
0.0
 11
74.6135
 21
181.4569999999999
 31
0.0
  0
LINE
  5
8E
330
18
100
AcDbEntity
  8
0
100
AcDbLine
 10
56.15709999999999
 20
181.357
 30
0.0
 11
46.90699999999999
 21
181.357
 31
0.0
  0
LINE
  5
8F
330
18
100
AcDbEntity
  8
0
100
AcDbLine
 10
77.4533
 20
182.557
 30
0.0
 11
77.21389999999999
 21
182.557
 31
0.0
  0
LINE
  5
90
330
18
100
AcDbEntity
  8
0
100
AcDbLine
 10
75.2767
 20
182.557
 30
0.0
 11
74.6135
 21
182.557
 31
0.0
  0
LINE
  5
91
330
18
100
AcDbEntity
  8
0
100
AcDbLine
 10
77.4533
 20
181.357
 30
0.0
 11
77.6572
 21
179.757
 31
0.0
  0
LINE
  5
92
330
18
100
AcDbEntity
  8
0
100
AcDbLine
 10
77.21389999999999
 20
181.357
 30
0.0
 11
76.64799999999999
 21
179.757
 31
0.0
  0
LINE
  5
93
330
18
100
AcDbEntity
  8
0
100
AcDbLine
 10
77.4533
 20
182.557
 30
0.0
 11
77.6572
 21
181.357
 31
0.0
  0
LINE
  5
94
330
18
100
AcDbEntity
  8
0
100
AcDbLine
 10
76.64799999999999
 20
180.9569999999999
 30
0.0
 11
77.21389999999999
 21
182.557
 31
0.0
  0
LINE
  5
95
330
18
100
AcDbEntity
  8
0
100
AcDbLine
 10
75.2767
 20
181.357
 30
0.0
 11
76.1833
 21
179.757
 31
0.0
  0
LINE
  5
96
330
18
100
AcDbEntity
  8
0
100
AcDbLine
 10
75.2767
 20
182.557
 30
0.0
 11
76.1833
 21
180.9569999999999
 31
0.0
  0
LINE
  5
97
330
18
100
AcDbEntity
  8
0
100
AcDbLine
 10
74.6135
 20
181.357
 30
0.0
 11
73.41889999999999
 21
179.757
 31
0.0
  0
LINE
  5
98
330
18
100
AcDbEntity
  8
0
100
AcDbLine
 10
73.41889999999999
 20
180.9569999999999
 30
0.0
 11
74.6135
 21
182.557
 31
0.0
  0
LINE
  5
99
330
18
100
AcDbEntity
  8
0
100
AcDbLine
 10
72.5959
 20
180.9569999999999
 30
0.0
 11
71.18269999999999
 21
182.557
 31
0.0
  0
LINE
  5
9A
330
18
100
AcDbEntity
  8
0
100
AcDbLine
 10
71.18269999999999
 20
181.357
 30
0.0
 11
72.5959
 21
179.757
 31
0.0
  0
LINE
  5
9B
330
18
100
AcDbEntity
  8
0
100
AcDbLine
 10
68.6979
 20
179.757
 30
0.0
 11
70.2477
 21
181.357
 31
0.0
  0
LINE
  5
9C
330
18
100
AcDbEntity
  8
0
100
AcDbLine
 10
68.6979
 20
180.9569999999999
 30
0.0
 11
70.2477
 21
182.557
 31
0.0
  0
LINE
  5
9D
330
18
100
AcDbEntity
  8
0
100
AcDbLine
 10
66.1092
 20
182.557
 30
0.0
 11
67.70520000000001
 21
180.9569999999999
 31
0.0
  0
LINE
  5
9E
330
18
100
AcDbEntity
  8
0
100
AcDbLine
 10
66.1092
 20
181.357
 30
0.0
 11
67.70520000000001
 21
179.757
 31
0.0
  0
LINE
  5
9F
330
18
100
AcDbEntity
  8
0
100
AcDbLine
 10
61.2185
 20
181.4569999999999
 30
0.0
 11
61.2185
 21
181.357
 31
0.0
  0
LINE
  5
A0
330
18
100
AcDbEntity
  8
0
100
AcDbLine
 10
60.3955
 20
181.4569999999999
 30
0.0
 11
60.3955
 21
181.357
 31
0.0
  0
LINE
  5
A1
330
18
100
AcDbEntity
  8
0
100
AcDbLine
 10
57.63110000000001
 20
181.4569999999999
 30
0.0
 11
57.63110000000001
 21
181.357
 31
0.0
  0
LINE
  5
A2
330
18
100
AcDbEntity
  8
0
100
AcDbLine
 10
57.1664
 20
181.4569999999999
 30
0.0
 11
57.1664
 21
181.357
 31
0.0
  0
LINE
  5
A3
330
18
100
AcDbEntity
  8
0
100
AcDbLine
 10
71.18269999999999
 20
181.4569999999999
 30
0.0
 11
71.18269999999999
 21
181.357
 31
0.0
  0
LINE
  5
A4
330
18
100
AcDbEntity
  8
0
100
AcDbLine
 10
70.2477
 20
181.4569999999999
 30
0.0
 11
70.2477
 21
181.357
 31
0.0
  0
LINE
  5
A5
330
18
100
AcDbEntity
  8
0
100
AcDbLine
 10
66.1092
 20
181.4569999999999
 30
0.0
 11
66.1092
 21
181.357
 31
0.0
  0
LINE
  5
A6
330
18
100
AcDbEntity
  8
0
100
AcDbLine
 10
65.1165
 20
181.4569999999999
 30
0.0
 11
65.1165
 21
181.357
 31
0.0
  0
LINE
  5
A7
330
18
100
AcDbEntity
  8
0
100
AcDbLine
 10
77.4533
 20
181.4569999999999
 30
0.0
 11
77.4533
 21
181.357
 31
0.0
  0
LINE
  5
A8
330
18
100
AcDbEntity
  8
0
100
AcDbLine
 10
77.21389999999999
 20
181.4569999999999
 30
0.0
 11
77.21389999999999
 21
181.357
 31
0.0
  0
LINE
  5
A9
330
18
100
AcDbEntity
  8
0
100
AcDbLine
 10
75.2767
 20
181.4569999999999
 30
0.0
 11
75.2767
 21
181.357
 31
0.0
  0
LINE
  5
AA
330
18
100
AcDbEntity
  8
0
100
AcDbLine
 10
74.6135
 20
181.4569999999999
 30
0.0
 11
74.6135
 21
181.357
 31
0.0
  0
LINE
  5
AB
330
18
100
AcDbEntity
  8
0
100
AcDbLine
 10
56.3611
 20
180.9569999999999
 30
0.0
 11
56.3611
 21
180.8569999999999
 31
0.0
  0
LINE
  5
AC
330
18
100
AcDbEntity
  8
0
100
AcDbLine
 10
56.6005
 20
180.9569999999999
 30
0.0
 11
56.6005
 21
180.8569999999999
 31
0.0
  0
LINE
  5
AD
330
18
100
AcDbEntity
  8
0
100
AcDbLine
 10
58.5377
 20
180.9569999999999
 30
0.0
 11
58.5377
 21
180.8569999999999
 31
0.0
  0
LINE
  5
AE
330
18
100
AcDbEntity
  8
0
100
AcDbLine
 10
59.2009
 20
180.9569999999999
 30
0.0
 11
59.2009
 21
180.8569999999999
 31
0.0
  0
LINE
  5
AF
330
18
100
AcDbEntity
  8
0
100
AcDbLine
 10
62.6317
 20
180.9569999999999
 30
0.0
 11
62.6317
 21
180.8569999999999
 31
0.0
  0
LINE
  5
B0
330
18
100
AcDbEntity
  8
0
100
AcDbLine
 10
63.5669
 20
180.9569999999999
 30
0.0
 11
63.5669
 21
180.8569999999999
 31
0.0
  0
LINE
  5
B1
330
18
100
AcDbEntity
  8
0
100
AcDbLine
 10
76.64799999999999
 20
180.9569999999999
 30
0.0
 11
76.64799999999999
 21
180.8569999999999
 31
0.0
  0
LINE
  5
B2
330
18
100
AcDbEntity
  8
0
100
AcDbLine
 10
76.1833
 20
180.9569999999999
 30
0.0
 11
76.1833
 21
180.8569999999999
 31
0.0
  0
LINE
  5
B3
330
18
100
AcDbEntity
  8
0
100
AcDbLine
 10
73.41889999999999
 20
180.9569999999999
 30
0.0
 11
73.41889999999999
 21
180.8569999999999
 31
0.0
  0
LINE
  5
B4
330
18
100
AcDbEntity
  8
0
100
AcDbLine
 10
72.5959
 20
180.9569999999999
 30
0.0
 11
72.5959
 21
180.8569999999999
 31
0.0
  0
LINE
  5
B5
330
18
100
AcDbEntity
  8
0
100
AcDbLine
 10
68.6979
 20
180.9569999999999
 30
0.0
 11
68.6979
 21
180.8569999999999
 31
0.0
  0
LINE
  5
B6
330
18
100
AcDbEntity
  8
0
100
AcDbLine
 10
67.70520000000001
 20
180.9569999999999
 30
0.0
 11
67.70520000000001
 21
180.8569999999999
 31
0.0
  0
LINE
  5
B7
330
18
100
AcDbEntity
  8
0
100
AcDbLine
 10
56.15709999999999
 20
182.557
 30
0.0
 11
56.15709999999999
 21
179.757
 31
0.0
  0
LINE
  5
B8
330
18
100
AcDbEntity
  8
0
100
AcDbLine
 10
77.6572
 20
182.557
 30
0.0
 11
77.6572
 21
179.757
 31
0.0
  0
LINE
  5
B9
330
18
100
AcDbEntity
  8
0
100
AcDbLine
 10
46.90699999999999
 20
181.357
 30
0.0
 11
46.90699999999999
 21
179.757
 31
0.0
  0
LINE
  5
BA
330
18
100
AcDbEntity
  8
0
100
AcDbLine
 10
86.90739999999999
 20
181.357
 30
0.0
 11
86.90739999999999
 21
179.757
 31
0.0
  0
LINE
  5
BB
330
18
100
AcDbEntity
  8
0
100
AcDbLine
 10
86.90739999999999
 20
181.357
 30
0.0
 11
77.6572
 21
181.357
 31
0.0
  0
LINE
  5
BC
330
18
100
AcDbEntity
  8
0
100
AcDbLine
 10
86.90100000000001
 20
182.557
 30
0.0
 11
77.6572
 21
182.557
 31
0.0
  0
LINE
  5
BD
330
18
100
AcDbEntity
  8
0
100
AcDbLine
 10
80.7573
 20
179.757
 30
0.0
 11
77.6572
 21
179.757
 31
0.0
  0
LINE
  5
BE
330
18
100
AcDbEntity
  8
0
100
AcDbLine
 10
86.90739999999999
 20
179.757
 30
0.0
 11
80.7573
 21
179.757
 31
0.0
  0
LINE
  5
BF
330
18
100
AcDbEntity
  8
0
100
AcDbLine
 10
86.90739999999999
 20
178.744
 30
0.0
 11
86.90739999999999
 21
158.407
 31
0.0
  0
LINE
  5
C0
330
18
100
AcDbEntity
  8
0
100
AcDbLine
 10
46.90699999999999
 20
178.744
 30
0.0
 11
46.90699999999999
 21
158.407
 31
0.0
  0
LINE
  5
C1
330
18
100
AcDbEntity
  8
0
100
AcDbLine
 10
84.6958
 20
158.829
 30
0.0
 11
86.90739999999999
 21
159.4209999999999
 31
0.0
  0
LINE
  5
C2
330
18
100
AcDbEntity
  8
0
100
AcDbLine
 10
86.90739999999999
 20
159.4209999999999
 30
0.0
 11
84.6958
 21
160.014
 31
0.0
  0
LINE
  5
C3
330
18
100
AcDbEntity
  8
0
100
AcDbLine
 10
84.6958
 20
160.014
 30
0.0
 11
84.6958
 21
158.829
 31
0.0
  0
LINE
  5
C4
330
18
100
AcDbEntity
  8
0
100
AcDbLine
 10
49.1186
 20
159.999
 30
0.0
 11
46.90699999999999
 21
159.407
 31
0.0
  0
LINE
  5
C5
330
18
100
AcDbEntity
  8
0
100
AcDbLine
 10
46.90699999999999
 20
159.407
 30
0.0
 11
49.1186
 21
158.8139999999999
 31
0.0
  0
LINE
  5
C6
330
18
100
AcDbEntity
  8
0
100
AcDbLine
 10
49.1186
 20
158.8139999999999
 30
0.0
 11
49.1186
 21
159.999
 31
0.0
  0
LINE
  5
C7
330
18
100
AcDbEntity
  8
0
100
AcDbLine
 10
86.90739999999999
 20
159.407
 30
0.0
 11
46.90699999999999
 21
159.407
 31
0.0
  0
LINE
  5
C8
330
18
100
AcDbEntity
  8
0
100
AcDbLine
 10
52.357
 20
173.957
 30
0.0
 11
32.1092
 21
173.957
 31
0.0
  0
LINE
  5
C9
330
18
100
AcDbEntity
  8
0
100
AcDbLine
 10
46.20689999999999
 20
179.757
 30
0.0
 11
32.1092
 21
179.757
 31
0.0
  0
LINE
  5
CA
330
18
100
AcDbEntity
  8
0
100
AcDbLine
 10
36.207
 20
182.557
 30
0.0
 11
32.1092
 21
182.557
 31
0.0
  0
LINE
  5
CB
330
18
100
AcDbEntity
  8
0
100
AcDbLine
 10
32.51659999999999
 20
184.768
 30
0.0
 11
33.10909999999999
 21
182.557
 31
0.0
  0
LINE
  5
CC
330
18
100
AcDbEntity
  8
0
100
AcDbLine
 10
33.10909999999999
 20
182.557
 30
0.0
 11
33.7017
 21
184.768
 31
0.0
  0
LINE
  5
CD
330
18
100
AcDbEntity
  8
0
100
AcDbLine
 10
33.7017
 20
184.768
 30
0.0
 11
32.51659999999999
 21
184.768
 31
0.0
  0
LINE
  5
CE
330
18
100
AcDbEntity
  8
0
100
AcDbLine
 10
33.7017
 20
171.745
 30
0.0
 11
33.10909999999999
 21
173.957
 31
0.0
  0
LINE
  5
CF
330
18
100
AcDbEntity
  8
0
100
AcDbLine
 10
33.10909999999999
 20
173.957
 30
0.0
 11
32.51659999999999
 21
171.745
 31
0.0
  0
LINE
  5
D0
330
18
100
AcDbEntity
  8
0
100
AcDbLine
 10
32.51659999999999
 20
171.745
 30
0.0
 11
33.7017
 21
171.745
 31
0.0
  0
LINE
  5
D1
330
18
100
AcDbEntity
  8
0
100
AcDbLine
 10
33.10909999999999
 20
170.5929999999999
 30
0.0
 11
33.10909999999999
 21
189.2159999999999
 31
0.0
  0
LINE
  5
D2
330
18
100
AcDbEntity
  8
0
100
AcDbLine
 10
83.4073
 20
188.937
 30
0.0
 11
83.4073
 21
199.7259999999999
 31
0.0
  0
LINE
  5
D3
330
18
100
AcDbEntity
  8
0
100
AcDbLine
 10
50.4071
 20
188.937
 30
0.0
 11
50.4071
 21
199.7259999999999
 31
0.0
  0
LINE
  5
D4
330
18
100
AcDbEntity
  8
0
100
AcDbLine
 10
81.19570000000001
 20
198.1479999999999
 30
0.0
 11
83.4073
 21
198.7409999999999
 31
0.0
  0
LINE
  5
D5
330
18
100
AcDbEntity
  8
0
100
AcDbLine
 10
83.4073
 20
198.7409999999999
 30
0.0
 11
81.19570000000001
 21
199.333
 31
0.0
  0
LINE
  5
D6
330
18
100
AcDbEntity
  8
0
100
AcDbLine
 10
81.19570000000001
 20
199.333
 30
0.0
 11
81.19570000000001
 21
198.1479999999999
 31
0.0
  0
LINE
  5
D7
330
18
100
AcDbEntity
  8
0
100
AcDbLine
 10
52.6187
 20
199.319
 30
0.0
 11
50.4071
 21
198.726
 31
0.0
  0
LINE
  5
D8
330
18
100
AcDbEntity
  8
0
100
AcDbLine
 10
50.4071
 20
198.726
 30
0.0
 11
52.6187
 21
198.134
 31
0.0
  0
LINE
  5
D9
330
18
100
AcDbEntity
  8
0
100
AcDbLine
 10
52.6187
 20
198.134
 30
0.0
 11
52.6187
 21
199.319
 31
0.0
  0
LINE
  5
DA
330
18
100
AcDbEntity
  8
0
100
AcDbLine
 10
83.4073
 20
198.726
 30
0.0
 11
50.4071
 21
198.726
 31
0.0
  0
LINE
  5
DB
330
18
100
AcDbEntity
  8
0
100
AcDbLine
 10
94.396
 20
166.3879999999999
 30
0.0
 11
96.95160000000001
 21
166.3879999999999
 31
0.0
  0
LINE
  5
DC
330
18
100
AcDbEntity
  8
0
100
AcDbLine
 10
94.396
 20
173.688
 30
0.0
 11
96.95160000000001
 21
173.688
 31
0.0
  0
LINE
  5
DD
330
18
100
AcDbEntity
  8
0
100
AcDbLine
 10
94.1211
 20
196.217
 30
0.0
 11
96.67670000000001
 21
196.217
 31
0.0
  0
LINE
  5
DE
330
18
100
AcDbEntity
  8
0
100
AcDbLine
 10
69.07389999999999
 20
193.1279999999999
 30
0.0
 11
76.48019999999999
 21
193.1279999999999
 31
0.0
  0
LINE
  5
DF
330
18
100
AcDbEntity
  8
0
100
AcDbLine
 10
59.172
 20
187.7879999999999
 30
0.0
 11
57.59170000000001
 21
186.1309999999999
 31
0.0
  0
LINE
  5
E0
330
18
100
AcDbEntity
  8
0
100
AcDbLine
 10
57.59170000000001
 20
186.1309999999999
 30
0.0
 11
59.7886
 21
186.7759999999999
 31
0.0
  0
LINE
  5
E1
330
18
100
AcDbEntity
  8
0
100
AcDbLine
 10
59.7886
 20
186.7759999999999
 30
0.0
 11
59.172
 21
187.7879999999999
 31
0.0
  0
LINE
  5
E2
330
18
100
AcDbEntity
  8
0
100
AcDbLine
 10
57.59170000000001
 20
186.1309999999999
 30
0.0
 11
69.07389999999999
 21
193.1279999999999
 31
0.0
  0
LINE
  5
E3
330
18
100
AcDbEntity
  8
0
100
AcDbLine
 10
64.65519999999999
 20
165.1929999999999
 30
0.0
 11
57.2489
 21
165.1929999999999
 31
0.0
  0
LINE
  5
E4
330
18
100
AcDbEntity
  8
0
100
AcDbLine
 10
75.06499999999999
 20
174.6359999999999
 30
0.0
 11
76.2227
 21
176.6109999999999
 31
0.0
  0
LINE
  5
E5
330
18
100
AcDbEntity
  8
0
100
AcDbLine
 10
76.2227
 20
176.6109999999999
 30
0.0
 11
74.2325
 21
175.479
 31
0.0
  0
LINE
  5
E6
330
18
100
AcDbEntity
  8
0
100
AcDbLine
 10
74.2325
 20
175.479
 30
0.0
 11
75.06499999999999
 21
174.6359999999999
 31
0.0
  0
LINE
  5
E7
330
18
100
AcDbEntity
  8
0
100
AcDbLine
 10
76.2227
 20
176.6109999999999
 30
0.0
 11
64.65519999999999
 21
165.1929999999999
 31
0.0
  0
LINE
  5
E8
330
18
100
AcDbEntity
  8
0
100
AcDbLine
 10
53.05699999999999
 20
177.513
 30
0.0
 11
55.3014
 21
179.757
 31
0.0
  0
LINE
  5
E9
330
18
100
AcDbEntity
  8
0
100
AcDbLine
 10
53.7438
 20
173.957
 30
0.0
 11
56.4296
 21
176.642
 31
0.0
  0
LINE
  5
EA
330
18
100
AcDbEntity
  8
0
100
AcDbLine
 10
77.38469999999999
 20
176.384
 30
0.0
 11
80.7573
 21
179.757
 31
0.0
  0
LINE
  5
EB
330
18
100
AcDbEntity
  8
0
100
AcDbLine
 10
79.19979999999999
 20
173.957
 30
0.0
 11
80.7573
 21
175.514
 31
0.0
  0
LINE
  5
EC
330
18
100
AcDbEntity
  8
0
100
AcDbLine
 10
56.4286
 20
173.957
 30
0.0
 11
57.5906
 21
174.6279999999999
 31
0.0
  0
LINE
  5
ED
330
18
100
AcDbEntity
  8
0
100
AcDbLine
 10
56.4296
 20
179.757
 30
0.0
 11
56.4296
 21
173.957
 31
0.0
  0
LINE
  5
EE
330
18
100
AcDbEntity
  8
0
100
AcDbLine
 10
76.2243
 20
174.6279999999999
 30
0.0
 11
77.3863
 21
173.957
 31
0.0
  0
LINE
  5
EF
330
18
100
AcDbEntity
  8
0
100
AcDbLine
 10
77.38469999999999
 20
173.957
 30
0.0
 11
77.38469999999999
 21
179.757
 31
0.0
  0
LINE
  5
F0
330
18
100
AcDbEntity
  8
0
100
AcDbLine
 10
76.22289999999999
 20
178.5949999999999
 30
0.0
 11
77.38469999999999
 21
179.757
 31
0.0
  0
LINE
  5
F1
330
18
100
AcDbEntity
  8
0
100
AcDbLine
 10
76.2227
 20
174.6279999999999
 30
0.0
 11
76.2227
 21
178.5949999999999
 31
0.0
  0
LINE
  5
F2
330
18
100
AcDbEntity
  8
0
100
AcDbLine
 10
56.4296
 20
179.757
 30
0.0
 11
57.59170000000001
 21
178.5949999999999
 31
0.0
  0
LINE
  5
F3
330
18
100
AcDbEntity
  8
0
100
AcDbLine
 10
57.59170000000001
 20
178.5949999999999
 30
0.0
 11
76.2227
 21
178.5949999999999
 31
0.0
  0
LINE
  5
F4
330
18
100
AcDbEntity
  8
0
100
AcDbLine
 10
57.59170000000001
 20
174.6279999999999
 30
0.0
 11
76.2227
 21
174.6279999999999
 31
0.0
  0
LINE
  5
F5
330
18
100
AcDbEntity
  8
0
100
AcDbLine
 10
57.59170000000001
 20
178.5949999999999
 30
0.0
 11
57.59170000000001
 21
174.6279999999999
 31
0.0
  0
LINE
  5
F6
330
18
100
AcDbEntity
  8
0
100
AcDbLine
 10
53.05699999999999
 20
173.957
 30
0.0
 11
53.05699999999999
 21
179.757
 31
0.0
  0
LINE
  5
F7
330
18
100
AcDbEntity
  8
0
100
AcDbLine
 10
80.7573
 20
173.957
 30
0.0
 11
80.7573
 21
179.757
 31
0.0
  0
LINE
  5
F8
330
18
100
AcDbEntity
  8
0
100
AcDbLine
 10
53.05699999999999
 20
179.757
 30
0.0
 11
80.7573
 21
179.757
 31
0.0
  0
LINE
  5
F9
330
18
100
AcDbEntity
  8
0
100
AcDbLine
 10
53.05699999999999
 20
173.957
 30
0.0
 11
80.7573
 21
173.957
 31
0.0
  0
LINE
  5
FA
330
18
100
AcDbEntity
  8
0
100
AcDbLine
 10
50.5431
 20
184.4209999999999
 30
0.0
 11
54.1791
 21
188.057
 31
0.0
  0
LINE
  5
FB
330
18
100
AcDbEntity
  8
0
100
AcDbLine
 10
54.4218
 20
184.057
 30
0.0
 11
56.4296
 21
186.0649999999999
 31
0.0
  0
LINE
  5
FC
330
18
100
AcDbEntity
  8
0
100
AcDbLine
 10
77.38469999999999
 20
185.8059999999999
 30
0.0
 11
79.6353
 21
188.057
 31
0.0
  0
LINE
  5
FD
330
18
100
AcDbEntity
  8
0
100
AcDbLine
 10
79.87779999999999
 20
184.057
 30
0.0
 11
83.39249999999999
 21
187.5709999999999
 31
0.0
  0
LINE
  5
FE
330
18
100
AcDbEntity
  8
0
100
AcDbLine
 10
82.90730000000001
 20
184.057
 30
0.0
 11
83.4073
 21
184.557
 31
0.0
  0
LINE
  5
FF
330
18
100
AcDbEntity
  8
0
100
AcDbLine
 10
50.9071
 20
184.057
 30
0.0
 11
50.4071
 21
184.557
 31
0.0
  0
LINE
  5
100
330
18
100
AcDbEntity
  8
0
100
AcDbLine
 10
76.2227
 20
187.386
 30
0.0
 11
77.38469999999999
 21
188.057
 31
0.0
  0
LINE
  5
101
330
18
100
AcDbEntity
  8
0
100
AcDbLine
 10
76.2227
 20
187.386
 30
0.0
 11
57.59170000000001
 21
187.386
 31
0.0
  0
LINE
  5
102
330
18
100
AcDbEntity
  8
0
100
AcDbLine
 10
57.59170000000001
 20
187.386
 30
0.0
 11
56.4296
 21
188.057
 31
0.0
  0
LINE
  5
103
330
18
100
AcDbEntity
  8
0
100
AcDbLine
 10
76.2227
 20
184.7279999999999
 30
0.0
 11
57.59170000000001
 21
184.7279999999999
 31
0.0
  0
LINE
  5
104
330
18
100
AcDbEntity
  8
0
100
AcDbLine
 10
76.2227
 20
184.7279999999999
 30
0.0
 11
77.38469999999999
 21
184.057
 31
0.0
  0
LINE
  5
105
330
18
100
AcDbEntity
  8
0
100
AcDbLine
 10
57.59170000000001
 20
184.7279999999999
 30
0.0
 11
56.4296
 21
184.057
 31
0.0
  0
LINE
  5
106
330
18
100
AcDbEntity
  8
0
100
AcDbLine
 10
77.38469999999999
 20
184.057
 30
0.0
 11
56.4296
 21
184.057
 31
0.0
  0
LINE
  5
107
330
18
100
AcDbEntity
  8
0
100
AcDbLine
 10
56.4296
 20
184.057
 30
0.0
 11
56.4296
 21
188.057
 31
0.0
  0
LINE
  5
108
330
18
100
AcDbEntity
  8
0
100
AcDbLine
 10
77.38469999999999
 20
188.057
 30
0.0
 11
77.38469999999999
 21
184.057
 31
0.0
  0
LINE
  5
109
330
18
100
AcDbEntity
  8
0
100
AcDbLine
 10
57.59170000000001
 20
184.7279999999999
 30
0.0
 11
57.59170000000001
 21
187.386
 31
0.0
  0
LINE
  5
10A
330
18
100
AcDbEntity
  8
0
100
AcDbLine
 10
76.2227
 20
187.386
 30
0.0
 11
76.2227
 21
184.7279999999999
 31
0.0
  0
LINE
  5
10B
330
18
100
AcDbEntity
  8
0
100
AcDbLine
 10
56.4296
 20
188.057
 30
0.0
 11
77.38469999999999
 21
188.057
 31
0.0
  0
LINE
  5
10C
330
18
100
AcDbEntity
  8
0
100
AcDbLine
 10
82.90730000000001
 20
188.057
 30
0.0
 11
83.4073
 21
187.557
 31
0.0
  0
LINE
  5
10D
330
18
100
AcDbEntity
  8
0
100
AcDbLine
 10
50.4071
 20
187.557
 30
0.0
 11
50.9071
 21
188.057
 31
0.0
  0
LINE
  5
10E
330
18
100
AcDbEntity
  8
0
100
AcDbLine
 10
50.9071
 20
188.057
 30
0.0
 11
82.90730000000001
 21
188.057
 31
0.0
  0
LINE
  5
10F
330
18
100
AcDbEntity
  8
0
100
AcDbLine
 10
83.4073
 20
184.557
 30
0.0
 11
83.4073
 21
187.557
 31
0.0
  0
LINE
  5
110
330
18
100
AcDbEntity
  8
0
100
AcDbLine
 10
50.4071
 20
184.557
 30
0.0
 11
50.4071
 21
187.557
 31
0.0
  0
LINE
  5
111
330
18
100
AcDbEntity
  8
0
100
AcDbLine
 10
50.9071
 20
184.057
 30
0.0
 11
82.90730000000001
 21
184.057
 31
0.0
  0
LINE
  5
112
330
18
100
AcDbEntity
  8
0
  6
AIGENLINE001
100
AcDbLine
 10
36.90699999999999
 20
182.557
 30
0.0
 11
96.90739999999999
 21
182.557
 31
0.0
  0
LINE
  5
113
330
18
100
AcDbEntity
  8
0
  6
AIGENLINE001
100
AcDbLine
 10
36.90699999999999
 20
188.057
 30
0.0
 11
96.90739999999999
 21
188.057
 31
0.0
  0
LINE
  5
114
330
18
100
AcDbEntity
  8
0
  6
AIGENLINE002
100
AcDbLine
 10
66.90730000000001
 20
189.9959999999999
 30
0.0
 11
66.90730000000001
 21
169.5829999999999
 31
0.0
  0
LINE
  5
115
330
18
100
AcDbEntity
  8
0
100
AcDbLine
 10
147.572
 20
182.474
 30
0.0
 11
147.6289999999999
 21
182.557
 31
0.0
  0
LINE
  5
116
330
18
100
AcDbEntity
  8
0
100
AcDbLine
 10
145.0539999999999
 20
182.557
 30
0.0
 11
145.5999999999999
 21
181.805
 31
0.0
  0
LINE
  5
117
330
18
100
AcDbEntity
  8
0
100
AcDbLine
 10
140.0159999999999
 20
182.474
 30
0.0
 11
139.959
 21
182.557
 31
0.0
  0
LINE
  5
118
330
18
100
AcDbEntity
  8
0
100
AcDbLine
 10
142.534
 20
182.557
 30
0.0
 11
141.988
 21
181.805
 31
0.0
  0
LINE
  5
119
330
18
100
AcDbEntity
  8
0
100
AcDbLine
 10
152.656
 20
181.432
 30
0.0
 11
149.871
 21
182.557
 31
0.0
  0
LINE
  5
11A
330
18
100
AcDbEntity
  8
0
100
AcDbLine
 10
151.2889999999999
 20
179.757
 30
0.0
 11
151.561
 21
180.065
 31
0.0
  0
LINE
  5
11B
330
18
100
AcDbEntity
  8
0
100
AcDbLine
 10
137.6989999999999
 20
182.557
 30
0.0
 11
137.102
 21
182.169
 31
0.0
  0
LINE
  5
11C
330
18
100
AcDbEntity
  8
0
100
AcDbLine
 10
142.534
 20
182.557
 30
0.0
 11
145.0539999999999
 21
182.557
 31
0.0
  0
LINE
  5
11D
330
18
100
AcDbEntity
  8
0
100
AcDbLine
 10
142.0469999999999
 20
180.095
 30
0.0
 11
141.7089999999999
 21
179.757
 31
0.0
  0
LINE
  5
11E
330
18
100
AcDbEntity
  8
0
100
AcDbLine
 10
136.298
 20
179.757
 30
0.0
 11
136.043
 21
180.071
 31
0.0
  0
LINE
  5
11F
330
18
100
AcDbEntity
  8
0
100
AcDbLine
 10
149.0779999999999
 20
180.9569999999999
 30
0.0
 11
150.5409999999999
 21
179.757
 31
0.0
  0
LINE
  5
120
330
18
100
AcDbEntity
  8
0
100
AcDbLine
 10
146.8489999999999
 20
179.757
 30
0.0
 11
148.08
 21
180.9569999999999
 31
0.0
  0
LINE
  5
121
330
18
100
AcDbEntity
  8
0
100
AcDbLine
 10
145.8779999999999
 20
179.757
 30
0.0
 11
145.54
 21
180.095
 31
0.0
  0
LINE
  5
122
330
18
100
AcDbEntity
  8
0
100
AcDbLine
 10
139.5079999999999
 20
180.9569999999999
 30
0.0
 11
140.739
 21
179.757
 31
0.0
  0
LINE
  5
123
330
18
100
AcDbEntity
  8
0
100
AcDbLine
 10
137.047
 20
179.757
 30
0.0
 11
138.5089999999999
 21
180.9569999999999
 31
0.0
  0
LINE
  5
124
330
18
100
AcDbEntity
  8
0
100
AcDbLine
 10
137.047
 20
179.757
 30
0.0
 11
136.298
 21
179.757
 31
0.0
  0
LINE
  5
125
330
18
100
AcDbEntity
  8
0
100
AcDbLine
 10
141.7089999999999
 20
179.757
 30
0.0
 11
140.739
 21
179.757
 31
0.0
  0
LINE
  5
126
330
18
100
AcDbEntity
  8
0
100
AcDbLine
 10
150.5409999999999
 20
179.757
 30
0.0
 11
151.2889999999999
 21
179.757
 31
0.0
  0
LINE
  5
127
330
18
100
AcDbEntity
  8
0
100
AcDbLine
 10
145.8779999999999
 20
179.757
 30
0.0
 11
146.8489999999999
 21
179.757
 31
0.0
  0
LINE
  5
128
330
18
100
AcDbEntity
  8
0
100
AcDbLine
 10
124.922
 20
180.967
 30
0.0
 11
124.0439999999999
 21
179.757
 31
0.0
  0
LINE
  5
129
330
18
100
AcDbEntity
  8
0
100
AcDbLine
 10
126.92
 20
179.757
 30
0.0
 11
125.2769999999999
 21
180.967
 31
0.0
  0
LINE
  5
12A
330
18
100
AcDbEntity
  8
0
100
AcDbLine
 10
130.1609999999999
 20
180.967
 30
0.0
 11
127.771
 21
179.757
 31
0.0
  0
LINE
  5
12B
330
18
100
AcDbEntity
  8
0
100
AcDbLine
 10
133.842
 20
179.757
 30
0.0
 11
130.9099999999999
 21
180.967
 31
0.0
  0
LINE
  5
12C
330
18
100
AcDbEntity
  8
0
100
AcDbLine
 10
138.5089999999999
 20
180.9569999999999
 30
0.0
 11
135.1699999999999
 21
179.757
 31
0.0
  0
LINE
  5
12D
330
18
100
AcDbEntity
  8
0
100
AcDbLine
 10
134.932
 20
181.432
 30
0.0
 11
138.246
 21
182.557
 31
0.0
  0
LINE
  5
12E
330
18
100
AcDbEntity
  8
0
100
AcDbLine
 10
131.1309999999999
 20
182.557
 30
0.0
 11
134.072
 21
181.432
 31
0.0
  0
LINE
  5
12F
330
18
100
AcDbEntity
  8
0
100
AcDbLine
 10
127.6149999999999
 20
181.432
 30
0.0
 11
129.955
 21
182.557
 31
0.0
  0
LINE
  5
130
330
18
100
AcDbEntity
  8
0
100
AcDbLine
 10
125.387
 20
182.557
 30
0.0
 11
127.0629999999999
 21
181.432
 31
0.0
  0
LINE
  5
131
330
18
100
AcDbEntity
  8
0
100
AcDbLine
 10
123.794
 20
181.357
 30
0.0
 11
124.8299999999999
 21
182.557
 31
0.0
  0
LINE
  5
132
330
18
100
AcDbEntity
  8
0
100
AcDbLine
 10
156.678
 20
180.967
 30
0.0
 11
153.746
 21
179.757
 31
0.0
  0
LINE
  5
133
330
18
100
AcDbEntity
  8
0
100
AcDbLine
 10
159.816
 20
179.757
 30
0.0
 11
157.426
 21
180.967
 31
0.0
  0
LINE
  5
134
330
18
100
AcDbEntity
  8
0
100
AcDbLine
 10
162.311
 20
180.967
 30
0.0
 11
160.668
 21
179.757
 31
0.0
  0
LINE
  5
135
330
18
100
AcDbEntity
  8
0
100
AcDbLine
 10
160.525
 20
181.432
 30
0.0
 11
162.202
 21
182.557
 31
0.0
  0
LINE
  5
136
330
18
100
AcDbEntity
  8
0
100
AcDbLine
 10
162.666
 20
180.967
 30
0.0
 11
163.5439999999999
 21
179.757
 31
0.0
  0
LINE
  5
137
330
18
100
AcDbEntity
  8
0
100
AcDbLine
 10
162.7589999999999
 20
182.557
 30
0.0
 11
163.7939999999999
 21
181.357
 31
0.0
  0
LINE
  5
138
330
18
100
AcDbEntity
  8
0
100
AcDbLine
 10
157.636
 20
182.557
 30
0.0
 11
159.9729999999999
 21
181.432
 31
0.0
  0
LINE
  5
139
330
18
100
AcDbEntity
  8
0
100
AcDbLine
 10
153.5149999999999
 20
181.432
 30
0.0
 11
156.46
 21
182.557
 31
0.0
  0
LINE
  5
13A
330
18
100
AcDbEntity
  8
0
100
AcDbLine
 10
125.2769999999999
 20
180.967
 30
0.0
 11
124.922
 21
180.967
 31
0.0
  0
LINE
  5
13B
330
18
100
AcDbEntity
  8
0
100
AcDbLine
 10
130.9099999999999
 20
180.967
 30
0.0
 11
130.1609999999999
 21
180.967
 31
0.0
  0
LINE
  5
13C
330
18
100
AcDbEntity
  8
0
100
AcDbLine
 10
162.311
 20
180.967
 30
0.0
 11
162.666
 21
180.967
 31
0.0
  0
LINE
  5
13D
330
18
100
AcDbEntity
  8
0
100
AcDbLine
 10
156.678
 20
180.967
 30
0.0
 11
157.426
 21
180.967
 31
0.0
  0
LINE
  5
13E
330
18
100
AcDbEntity
  8
0
100
AcDbLine
 10
125.387
 20
182.557
 30
0.0
 11
124.8299999999999
 21
182.557
 31
0.0
  0
LINE
  5
13F
330
18
100
AcDbEntity
  8
0
100
AcDbLine
 10
131.1309999999999
 20
182.557
 30
0.0
 11
129.955
 21
182.557
 31
0.0
  0
LINE
  5
140
330
18
100
AcDbEntity
  8
0
100
AcDbLine
 10
162.202
 20
182.557
 30
0.0
 11
162.7589999999999
 21
182.557
 31
0.0
  0
LINE
  5
141
330
18
100
AcDbEntity
  8
0
100
AcDbLine
 10
156.46
 20
182.557
 30
0.0
 11
157.636
 21
182.557
 31
0.0
  0
LINE
  5
142
330
18
100
AcDbEntity
  8
0
100
AcDbLine
 10
139.9479999999999
 20
182.557
 30
0.0
 11
137.717
 21
182.557
 31
0.0
  0
LINE
  5
143
330
18
100
AcDbEntity
  8
0
100
AcDbLine
 10
139.5089999999999
 20
180.9569999999999
 30
0.0
 11
138.5089999999999
 21
180.9569999999999
 31
0.0
  0
LINE
  5
144
330
18
100
AcDbEntity
  8
0
100
AcDbLine
 10
149.0779999999999
 20
180.9569999999999
 30
0.0
 11
152.418
 21
179.757
 31
0.0
  0
LINE
  5
145
330
18
100
AcDbEntity
  8
0
100
AcDbLine
 10
127.6149999999999
 20
181.432
 30
0.0
 11
127.0629999999999
 21
181.432
 31
0.0
  0
LINE
  5
146
330
18
100
AcDbEntity
  8
0
100
AcDbLine
 10
134.932
 20
181.432
 30
0.0
 11
134.072
 21
181.432
 31
0.0
  0
LINE
  5
147
330
18
100
AcDbEntity
  8
0
100
AcDbLine
 10
153.5149999999999
 20
181.432
 30
0.0
 11
152.656
 21
181.432
 31
0.0
  0
LINE
  5
148
330
18
100
AcDbEntity
  8
0
100
AcDbLine
 10
159.9729999999999
 20
181.432
 30
0.0
 11
160.525
 21
181.432
 31
0.0
  0
LINE
  5
149
330
18
100
AcDbEntity
  8
0
100
AcDbLine
 10
123.794
 20
179.757
 30
0.0
 11
124.0439999999999
 21
179.757
 31
0.0
  0
LINE
  5
14A
330
18
100
AcDbEntity
  8
0
100
AcDbLine
 10
133.842
 20
179.757
 30
0.0
 11
135.1699999999999
 21
179.757
 31
0.0
  0
LINE
  5
14B
330
18
100
AcDbEntity
  8
0
100
AcDbLine
 10
126.92
 20
179.757
 30
0.0
 11
127.771
 21
179.757
 31
0.0
  0
LINE
  5
14C
330
18
100
AcDbEntity
  8
0
100
AcDbLine
 10
163.5439999999999
 20
179.757
 30
0.0
 11
163.7939999999999
 21
179.757
 31
0.0
  0
LINE
  5
14D
330
18
100
AcDbEntity
  8
0
100
AcDbLine
 10
159.816
 20
179.757
 30
0.0
 11
160.668
 21
179.757
 31
0.0
  0
LINE
  5
14E
330
18
100
AcDbEntity
  8
0
100
AcDbLine
 10
152.418
 20
179.757
 30
0.0
 11
153.746
 21
179.757
 31
0.0
  0
LINE
  5
14F
330
18
100
AcDbEntity
  8
0
100
AcDbLine
 10
139.5079999999999
 20
180.9569999999999
 30
0.0
 11
143.0439999999999
 21
179.757
 31
0.0
  0
LINE
  5
150
330
18
100
AcDbEntity
  8
0
100
AcDbLine
 10
139.772
 20
182.557
 30
0.0
 11
143.3079999999999
 21
181.357
 31
0.0
  0
LINE
  5
151
330
18
100
AcDbEntity
  8
0
100
AcDbLine
 10
144.5429999999999
 20
179.757
 30
0.0
 11
148.1109999999999
 21
180.967
 31
0.0
  0
LINE
  5
152
330
18
100
AcDbEntity
  8
0
100
AcDbLine
 10
144.279
 20
181.357
 30
0.0
 11
147.816
 21
182.557
 31
0.0
  0
LINE
  5
153
330
18
100
AcDbEntity
  8
0
100
AcDbLine
 10
148.079
 20
180.9569999999999
 30
0.0
 11
149.0779999999999
 21
180.9569999999999
 31
0.0
  0
LINE
  5
154
330
18
100
AcDbEntity
  8
0
100
AcDbLine
 10
143.3079999999999
 20
181.357
 30
0.0
 11
144.279
 21
181.357
 31
0.0
  0
LINE
  5
155
330
18
100
AcDbEntity
  8
0
100
AcDbLine
 10
147.639
 20
182.557
 30
0.0
 11
149.871
 21
182.557
 31
0.0
  0
LINE
  5
156
330
18
100
AcDbEntity
  8
0
100
AcDbLine
 10
143.0439999999999
 20
179.757
 30
0.0
 11
144.5429999999999
 21
179.757
 31
0.0
  0
LINE
  5
157
330
18
100
AcDbEntity
  8
0
100
AcDbLine
 10
123.794
 20
181.357
 30
0.0
 11
123.794
 21
179.757
 31
0.0
  0
LINE
  5
158
330
18
100
AcDbEntity
  8
0
100
AcDbLine
 10
163.7939999999999
 20
181.357
 30
0.0
 11
163.7939999999999
 21
179.757
 31
0.0
  0
LINE
  5
159
330
18
100
AcDbEntity
  8
0
100
AcDbLine
 10
155.7939999999999
 20
179.757
 30
0.0
 11
155.7939999999999
 21
173.957
 31
0.0
  0
LINE
  5
15A
330
18
100
AcDbEntity
  8
0
100
AcDbLine
 10
155.7939999999999
 20
173.957
 30
0.0
 11
131.7939999999999
 21
173.957
 31
0.0
  0
LINE
  5
15B
330
18
100
AcDbEntity
  8
0
100
AcDbLine
 10
131.7939999999999
 20
179.757
 30
0.0
 11
131.7939999999999
 21
173.957
 31
0.0
  0
LINE
  5
15C
330
18
100
AcDbEntity
  8
0
100
AcDbLine
 10
155.7939999999999
 20
179.757
 30
0.0
 11
131.7939999999999
 21
179.757
 31
0.0
  0
LINE
  5
15D
330
18
100
AcDbEntity
  8
0
100
AcDbLine
 10
127.2939999999999
 20
184.557
 30
0.0
 11
160.2939999999999
 21
184.557
 31
0.0
  0
LINE
  5
15E
330
18
100
AcDbEntity
  8
0
100
AcDbLine
 10
159.7939999999999
 20
184.057
 30
0.0
 11
160.2939999999999
 21
184.557
 31
0.0
  0
LINE
  5
15F
330
18
100
AcDbEntity
  8
0
100
AcDbLine
 10
127.794
 20
184.057
 30
0.0
 11
159.7939999999999
 21
184.057
 31
0.0
  0
LINE
  5
160
330
18
100
AcDbEntity
  8
0
100
AcDbLine
 10
127.2939999999999
 20
184.557
 30
0.0
 11
127.794
 21
184.057
 31
0.0
  0
LINE
  5
161
330
18
100
AcDbEntity
  8
0
100
AcDbLine
 10
127.2939999999999
 20
187.557
 30
0.0
 11
160.2939999999999
 21
187.557
 31
0.0
  0
LINE
  5
162
330
18
100
AcDbEntity
  8
0
100
AcDbLine
 10
160.2939999999999
 20
184.557
 30
0.0
 11
160.2939999999999
 21
187.557
 31
0.0
  0
LINE
  5
163
330
18
100
AcDbEntity
  8
0
100
AcDbLine
 10
127.2939999999999
 20
184.557
 30
0.0
 11
127.2939999999999
 21
187.557
 31
0.0
  0
LINE
  5
164
330
18
100
AcDbEntity
  8
0
100
AcDbLine
 10
127.2939999999999
 20
187.557
 30
0.0
 11
127.794
 21
188.057
 31
0.0
  0
LINE
  5
165
330
18
100
AcDbEntity
  8
0
100
AcDbLine
 10
127.794
 20
188.057
 30
0.0
 11
159.7939999999999
 21
188.057
 31
0.0
  0
LINE
  5
166
330
18
100
AcDbEntity
  8
0
100
AcDbLine
 10
159.7939999999999
 20
188.057
 30
0.0
 11
160.2939999999999
 21
187.557
 31
0.0
  0
LINE
  5
167
330
18
100
AcDbEntity
  8
0
  6
AIGENLINE001
100
AcDbLine
 10
113.7939999999999
 20
182.557
 30
0.0
 11
173.794
 21
182.557
 31
0.0
  0
LINE
  5
168
330
18
100
AcDbEntity
  8
0
  6
AIGENLINE001
100
AcDbLine
 10
113.7939999999999
 20
188.057
 30
0.0
 11
173.794
 21
188.057
 31
0.0
  0
LINE
  5
169
330
18
100
AcDbEntity
  8
0
  6
AIGENLINE002
100
AcDbLine
 10
143.7939999999999
 20
198.7949999999999
 30
0.0
 11
143.7939999999999
 21
169.5829999999999
 31
0.0
  0
LINE
  5
16A
330
18
100
AcDbEntity
  8
0
100
AcDbLine
 10
53.0572
 20
107.356
 30
0.0
 11
53.0572
 21
75.8773
 31
0.0
  0
LINE
  5
16B
330
18
100
AcDbEntity
  8
0
100
AcDbLine
 10
80.7573
 20
107.356
 30
0.0
 11
80.7573
 21
75.8773
 31
0.0
  0
LINE
  5
16C
330
18
100
AcDbEntity
  8
0
100
AcDbLine
 10
55.2688
 20
77.4704
 30
0.0
 11
53.0572
 21
76.8778
 31
0.0
  0
LINE
  5
16D
330
18
100
AcDbEntity
  8
0
100
AcDbLine
 10
53.0572
 20
76.8778
 30
0.0
 11
55.2688
 21
76.2852
 31
0.0
  0
LINE
  5
16E
330
18
100
AcDbEntity
  8
0
100
AcDbLine
 10
55.2688
 20
76.2852
 30
0.0
 11
55.2688
 21
77.4704
 31
0.0
  0
LINE
  5
16F
330
18
100
AcDbEntity
  8
0
100
AcDbLine
 10
78.54569999999999
 20
76.2997
 30
0.0
 11
80.7573
 21
76.89230000000001
 31
0.0
  0
LINE
  5
170
330
18
100
AcDbEntity
  8
0
100
AcDbLine
 10
80.7573
 20
76.89230000000001
 30
0.0
 11
78.54569999999999
 21
77.4848
 31
0.0
  0
LINE
  5
171
330
18
100
AcDbEntity
  8
0
100
AcDbLine
 10
78.54569999999999
 20
77.4848
 30
0.0
 11
78.54569999999999
 21
76.2997
 31
0.0
  0
LINE
  5
172
330
18
100
AcDbEntity
  8
0
100
AcDbLine
 10
53.0572
 20
76.8778
 30
0.0
 11
80.7573
 21
76.8778
 31
0.0
  0
ARC
  5
173
330
18
100
AcDbEntity
  8
0
100
AcDbCircle
 10
66.90719
 20
108.056532
 30
0.0
 40
9.315513000000001
100
AcDbArc
 50
359.99948
 51
89.99945
  0
ARC
  5
174
330
18
100
AcDbEntity
  8
0
100
AcDbCircle
 10
66.907279
 20
108.0564459999999
 30
0.0
 40
9.315599
100
AcDbArc
 50
90.0
 51
179.9999699999999
  0
ARC
  5
175
330
18
100
AcDbEntity
  8
0
100
AcDbCircle
 10
66.90727599999999
 20
108.0564459999999
 30
0.0
 40
9.315595
100
AcDbArc
 50
179.9999699999999
 51
270.00002
  0
ARC
  5
176
330
18
100
AcDbEntity
  8
0
100
AcDbCircle
 10
66.90719
 20
108.0563629999999
 30
0.0
 40
9.315513000000001
100
AcDbArc
 50
270.0005499999999
 51
0.00052
  0
LINE
  5
177
330
18
100
AcDbEntity
  8
0
100
AcDbLine
 10
59.9853
 20
120.056
 30
0.0
 11
73.82899999999999
 21
120.056
 31
0.0
  0
LINE
  5
178
330
18
100
AcDbEntity
  8
0
100
AcDbLine
 10
53.0572
 20
108.0559999999999
 30
0.0
 11
59.9853
 21
96.05640000000001
 31
0.0
  0
LINE
  5
179
330
18
100
AcDbEntity
  8
0
100
AcDbLine
 10
73.82899999999999
 20
120.056
 30
0.0
 11
80.7573
 21
108.0559999999999
 31
0.0
  0
LINE
  5
17A
330
18
100
AcDbEntity
  8
0
100
AcDbLine
 10
73.82899999999999
 20
96.05640000000001
 30
0.0
 11
80.7573
 21
108.0559999999999
 31
0.0
  0
LINE
  5
17B
330
18
100
AcDbEntity
  8
0
100
AcDbLine
 10
53.0572
 20
108.0559999999999
 30
0.0
 11
59.9853
 21
120.056
 31
0.0
  0
LINE
  5
17C
330
18
100
AcDbEntity
  8
0
100
AcDbLine
 10
59.9853
 20
96.05640000000001
 30
0.0
 11
73.82899999999999
 21
96.05640000000001
 31
0.0
  0
ARC
  5
17D
330
18
100
AcDbEntity
  8
0
100
AcDbCircle
 10
66.907362
 20
108.05636
 30
0.0
 40
10.47737899999999
100
AcDbArc
 50
0.000481
 51
90.00045099999999
  0
ARC
  5
17E
330
18
100
AcDbEntity
  8
0
100
AcDbCircle
 10
66.907107
 20
108.056273
 30
0.0
 40
10.47746499999999
100
AcDbArc
 50
89.99905799999998
 51
179.999028
  0
ARC
  5
17F
330
18
100
AcDbEntity
  8
0
100
AcDbCircle
 10
66.907448
 20
108.056273
 30
0.0
 40
10.477806
100
AcDbArc
 50
179.999028
 51
269.9990779999999
  0
ARC
  5
180
330
18
100
AcDbEntity
  8
0
100
AcDbCircle
 10
66.90701800000001
 20
108.0561909999999
 30
0.0
 40
10.47772299999999
100
AcDbArc
 50
270.001433
 51
0.001403
  0
LINE
  5
181
330
18
100
AcDbEntity
  8
0
100
AcDbLine
 10
75.0348
 20
96.0557
 30
0.0
 11
98.26299999999999
 21
96.0557
 31
0.0
  0
LINE
  5
182
330
18
100
AcDbEntity
  8
0
100
AcDbLine
 10
75.03499999999999
 20
120.056
 30
0.0
 11
98.26299999999999
 21
120.056
 31
0.0
  0
LINE
  5
183
330
18
100
AcDbEntity
  8
0
100
AcDbLine
 10
96.6848
 20
98.2671
 30
0.0
 11
97.2774
 21
96.0557
 31
0.0
  0
LINE
  5
184
330
18
100
AcDbEntity
  8
0
100
AcDbLine
 10
97.2774
 20
96.0557
 30
0.0
 11
97.86990000000001
 21
98.2671
 31
0.0
  0
LINE
  5
185
330
18
100
AcDbEntity
  8
0
100
AcDbLine
 10
97.86990000000001
 20
98.2671
 30
0.0
 11
96.6848
 21
98.2671
 31
0.0
  0
LINE
  5
186
330
18
100
AcDbEntity
  8
0
100
AcDbLine
 10
97.8555
 20
117.8449999999999
 30
0.0
 11
97.2629
 21
120.056
 31
0.0
  0
LINE
  5
187
330
18
100
AcDbEntity
  8
0
100
AcDbLine
 10
97.2629
 20
120.056
 30
0.0
 11
96.6703
 21
117.8449999999999
 31
0.0
  0
LINE
  5
188
330
18
100
AcDbEntity
  8
0
100
AcDbLine
 10
96.6703
 20
117.8449999999999
 30
0.0
 11
97.8555
 21
117.8449999999999
 31
0.0
  0
LINE
  5
189
330
18
100
AcDbEntity
  8
0
100
AcDbLine
 10
97.2629
 20
96.0557
 30
0.0
 11
97.2629
 21
120.056
 31
0.0
  0
LINE
  5
18A
330
18
100
AcDbEntity
  8
0
100
AcDbLine
 10
66.4072
 20
128.05
 30
0.0
 11
66.4072
 21
120.056
 31
0.0
  0
LINE
  5
18B
330
18
100
AcDbEntity
  8
0
100
AcDbLine
 10
67.4072
 20
128.05
 30
0.0
 11
67.4072
 21
120.056
 31
0.0
  0
LINE
  5
18C
330
18
100
AcDbEntity
  8
0
100
AcDbLine
 10
63.4344
 20
96.05640000000001
 30
0.0
 11
61.63689999999999
 21
88.7631
 31
0.0
  0
LINE
  5
18D
330
18
100
AcDbEntity
  8
0
100
AcDbLine
 10
64.46429999999999
 20
96.05640000000001
 30
0.0
 11
62.6078
 21
88.52400000000001
 31
0.0
  0
LINE
  5
18E
330
18
100
AcDbEntity
  8
0
100
AcDbLine
 10
58.25829999999999
 20
99.04749999999999
 30
0.0
 11
53.2746
 21
93.4223
 31
0.0
  0
LINE
  5
18F
330
18
100
AcDbEntity
  8
0
100
AcDbLine
 10
58.7854
 20
98.13450000000001
 30
0.0
 11
54.02309999999999
 21
92.7594
 31
0.0
  0
LINE
  5
190
330
18
100
AcDbEntity
  8
0
100
AcDbLine
 10
55.7983
 20
103.3079999999999
 30
0.0
 11
48.38989999999999
 21
100.499
 31
0.0
  0
LINE
  5
191
330
18
100
AcDbEntity
  8
0
100
AcDbLine
 10
55.2917
 20
104.186
 30
0.0
 11
48.0353
 21
101.434
 31
0.0
  0
LINE
  5
192
330
18
100
AcDbEntity
  8
0
100
AcDbLine
 10
46.9988
 20
109.97
 30
0.0
 11
53.69279999999999
 21
109.157
 31
0.0
  0
LINE
  5
193
330
18
100
AcDbEntity
  8
0
100
AcDbLine
 10
47.1194
 20
110.9629999999999
 30
0.0
 11
54.2363
 21
110.0989999999999
 31
0.0
  0
LINE
  5
194
330
18
100
AcDbEntity
  8
0
100
AcDbLine
 10
56.753
 20
114.457
 30
0.0
 11
50.1685
 21
119.0029999999999
 31
0.0
  0
LINE
  5
195
330
18
100
AcDbEntity
  8
0
100
AcDbLine
 10
57.2546
 20
115.326
 30
0.0
 11
50.7366
 21
119.826
 31
0.0
  0
LINE
  5
196
330
18
100
AcDbEntity
  8
0
100
AcDbLine
 10
58.0583
 20
125.992
 30
0.0
 11
61.1737
 21
120.056
 31
0.0
  0
LINE
  5
197
330
18
100
AcDbEntity
  8
0
100
AcDbLine
 10
57.1729
 20
125.5279999999999
 30
0.0
 11
60.0444
 21
120.056
 31
0.0
  0
LINE
  5
198
330
18
100
AcDbEntity
  8
0
100
AcDbLine
 10
73.76999999999999
 20
120.056
 30
0.0
 11
76.64149999999999
 21
125.5279999999999
 31
0.0
  0
LINE
  5
199
330
18
100
AcDbEntity
  8
0
100
AcDbLine
 10
72.6406
 20
120.056
 30
0.0
 11
75.75610000000001
 21
125.992
 31
0.0
  0
LINE
  5
19A
330
18
100
AcDbEntity
  8
0
100
AcDbLine
 10
77.06140000000001
 20
114.457
 30
0.0
 11
83.64589999999999
 21
119.0029999999999
 31
0.0
  0
LINE
  5
19B
330
18
100
AcDbEntity
  8
0
100
AcDbLine
 10
76.55979999999999
 20
115.326
 30
0.0
 11
83.07779999999999
 21
119.826
 31
0.0
  0
LINE
  5
19C
330
18
100
AcDbEntity
  8
0
100
AcDbLine
 10
80.12170000000001
 20
109.157
 30
0.0
 11
86.81560000000001
 21
109.97
 31
0.0
  0
LINE
  5
19D
330
18
100
AcDbEntity
  8
0
100
AcDbLine
 10
79.57819999999999
 20
110.0989999999999
 30
0.0
 11
86.69499999999999
 21
110.9629999999999
 31
0.0
  0
LINE
  5
19E
330
18
100
AcDbEntity
  8
0
100
AcDbLine
 10
78.5227
 20
104.186
 30
0.0
 11
85.77910000000001
 21
101.434
 31
0.0
  0
LINE
  5
19F
330
18
100
AcDbEntity
  8
0
100
AcDbLine
 10
78.01619999999999
 20
103.3079999999999
 30
0.0
 11
85.4244
 21
100.499
 31
0.0
  0
LINE
  5
1A0
330
18
100
AcDbEntity
  8
0
100
AcDbLine
 10
75.55620000000001
 20
99.04749999999999
 30
0.0
 11
80.53980000000001
 21
93.4223
 31
0.0
  0
LINE
  5
1A1
330
18
100
AcDbEntity
  8
0
100
AcDbLine
 10
75.029
 20
98.13450000000001
 30
0.0
 11
79.79130000000001
 21
92.7594
 31
0.0
  0
LINE
  5
1A2
330
18
100
AcDbEntity
  8
0
100
AcDbLine
 10
70.38
 20
96.05640000000001
 30
0.0
 11
72.1774
 21
88.7631
 31
0.0
  0
LINE
  5
1A3
330
18
100
AcDbEntity
  8
0
100
AcDbLine
 10
69.34999999999999
 20
96.05640000000001
 30
0.0
 11
71.20659999999999
 21
88.52400000000001
 31
0.0
  0
ARC
  5
1A4
330
18
100
AcDbEntity
  8
0
100
AcDbCircle
 10
66.90736099999999
 20
108.0563579999999
 30
0.0
 40
20.000029
100
AcDbArc
 50
0.000257
 51
90.000227
  0
ARC
  5
1A5
330
18
100
AcDbEntity
  8
0
100
AcDbCircle
 10
66.90710899999999
 20
108.0562719999999
 30
0.0
 40
20.000115
100
AcDbArc
 50
89.99950699999999
 51
179.999477
  0
ARC
  5
1A6
330
18
100
AcDbEntity
  8
0
100
AcDbCircle
 10
66.907274
 20
108.056444
 30
0.0
 40
20.00027999999999
100
AcDbArc
 50
179.9999699999999
 51
270.00002
  0
ARC
  5
1A7
330
18
100
AcDbEntity
  8
0
100
AcDbCircle
 10
66.907188
 20
108.0563649999999
 30
0.0
 40
20.00020099999999
100
AcDbArc
 50
270.0002669999999
 51
0.000237
  0
LINE
  5
1A8
330
18
100
AcDbEntity
  8
0
  6
AIGENLINE002
100
AcDbLine
 10
66.90730000000001
 20
132.4929999999999
 30
0.0
 11
66.90730000000001
 21
84.3382
 31
0.0
  0
LINE
  5
1A9
330
18
100
AcDbEntity
  8
0
  6
AIGENLINE002
100
AcDbLine
 10
42.7556
 20
108.0559999999999
 30
0.0
 11
90.9101
 21
108.0559999999999
 31
0.0
  0
LINE
  5
1AA
330
18
100
AcDbEntity
  8
_________2
100
AcDbLine
 10
151.377
 20
258.911
 30
0.0
 11
151.377
 21
230.9109999999999
 31
0.0
  0
LINE
  5
1AB
330
18
100
AcDbEntity
  8
_________2
100
AcDbLine
 10
162.817
 20
258.911
 30
0.0
 11
162.817
 21
230.9109999999999
 31
0.0
  0
TEXT
  5
1AC
330
18
100
AcDbEntity
  8
_________2
100
AcDbText
 10
170.317232
 20
233.0609999999999
 30
0.0
 40
3.373459999999999
  1
ナット
 41
0.5
 72
     1
 11
173.0159999999999
 21
233.0609999999999
 31
0.0
100
AcDbText
  0
TEXT
  5
1AD
330
18
100
AcDbEntity
  8
_________2
100
AcDbText
 10
156.8427566666666
 20
233.062
 30
0.0
 40
3.373459999999999
  1
3
 41
0.5
 72
     1
 11
157.4049999999999
 21
233.062
 31
0.0
100
AcDbText
  0
TEXT
  5
1AE
330
18
100
AcDbEntity
  8
_________2
100
AcDbText
 10
170.2047833333333
 20
240.0609999999999
 30
0.0
 40
3.373459999999999
  1
菊座金
 41
0.5
 72
     1
 11
173.0159999999999
 21
240.0609999999999
 31
0.0
100
AcDbText
  0
TEXT
  5
1AF
330
18
100
AcDbEntity
  8
_________2
100
AcDbText
 10
167.1124449999999
 20
247.0609999999999
 30
0.0
 40
3.373459999999999
  1
ガイドリング
 41
0.5
 72
     1
 11
173.0159999999999
 21
247.0609999999999
 31
0.0
100
AcDbText
  0
TEXT
  5
1B0
330
18
100
AcDbEntity
  8
_________2
100
AcDbText
 10
171.2730456666666
 20
254.062
 30
0.0
 40
3.373459999999999
  1
品名
 41
0.5
 72
     1
 11
173.0159999999999
 21
254.062
 31
0.0
100
AcDbText
  0
TEXT
  5
1B1
330
18
100
AcDbEntity
  8
_________2
100
AcDbText
 10
156.8427566666666
 20
240.0619999999999
 30
0.0
 40
3.373459999999999
  1
2
 41
0.5
 72
     1
 11
157.4049999999999
 21
240.0619999999999
 31
0.0
100
AcDbText
  0
TEXT
  5
1B2
330
18
100
AcDbEntity
  8
_________2
100
AcDbText
 10
157.1238783333333
 20
247.062
 30
0.0
 40
3.373459999999999
  1
1
 41
0.5
 72
     1
 11
157.4049999999999
 21
247.062
 31
0.0
100
AcDbText
  0
TEXT
  5
1B3
330
18
100
AcDbEntity
  8
_________2
100
AcDbText
 10
155.6058213333333
 20
254.062
 30
0.0
 40
3.373459999999999
  1
番号
 41
0.5
 72
     1
 11
157.4049999999999
 21
254.062
 31
0.0
100
AcDbText
  0
LINE
  5
1B4
330
18
100
AcDbEntity
  8
_________2
100
AcDbLine
 10
151.377
 20
230.9109999999999
 30
0.0
 11
183.551
 21
230.9109999999999
 31
0.0
  0
LINE
  5
1B5
330
18
100
AcDbEntity
  8
_________2
100
AcDbLine
 10
151.377
 20
237.9109999999999
 30
0.0
 11
183.551
 21
237.9109999999999
 31
0.0
  0
LINE
  5
1B6
330
18
100
AcDbEntity
  8
_________2
100
AcDbLine
 10
151.377
 20
244.9109999999999
 30
0.0
 11
183.551
 21
244.9109999999999
 31
0.0
  0
LINE
  5
1B7
330
18
100
AcDbEntity
  8
_________2
100
AcDbLine
 10
151.377
 20
251.9109999999999
 30
0.0
 11
183.551
 21
251.9109999999999
 31
0.0
  0
TEXT
  5
1B8
330
18
100
AcDbEntity
  8
_________2
100
AcDbText
 10
24.5864
 20
0.707627
 30
0.0
 40
3.9357
  1
%%c35取付穴用
 41
0.5
100
AcDbText
  0
TEXT
  5
1B9
330
18
100
AcDbEntity
  8
_________2
100
AcDbText
 10
109.179
 20
24.2261
 30
0.0
 40
3.9357
  1
立水栓取付穴用アダプタ
 41
0.5
100
AcDbText
  0
LINE
  5
1BA
330
18
100
AcDbEntity
  8
_________2
100
AcDbLine
 10
205.301
 20
127.411
 30
0.0
 11
183.551
 21
127.411
 31
0.0
  0
LINE
  5
1BB
330
18
100
AcDbEntity
  8
_________2
100
AcDbLine
 10
100.2999999999999
 20
-4.09108
 30
0.0
 11
100.2999999999999
 21
-21.07099999999999
 31
0.0
  0
LINE
  5
1BC
330
18
100
AcDbEntity
  8
_________2
100
AcDbLine
 10
100.2999999999999
 20
275.9309999999999
 30
0.0
 11
100.2999999999999
 21
258.911
 31
0.0
  0
LINE
  5
1BD
330
18
100
AcDbEntity
  8
_________2
100
AcDbLine
 10
17.04919999999999
 20
127.411
 30
0.0
 11
-4.701209999999999
 21
127.411
 31
0.0
  0
LINE
  5
1BE
330
18
100
AcDbEntity
  8
_________2
100
AcDbLine
 10
76.7407
 20
29.8047
 30
0.0
 11
74.5544
 21
29.8047
 31
0.0
  0
LINE
  5
1BF
330
18
100
AcDbEntity
  8
_________2
100
AcDbLine
 10
77.2333
 20
29.8047
 30
0.0
 11
76.98109999999999
 21
29.8047
 31
0.0
  0
LINE
  5
1C0
330
18
100
AcDbEntity
  8
_________2
100
AcDbLine
 10
77.726
 20
29.8047
 30
0.0
 11
80.65089999999999
 21
29.8047
 31
0.0
  0
LINE
  5
1C1
330
18
100
AcDbEntity
  8
_________2
100
AcDbLine
 10
77.2333
 20
29.8047
 30
0.0
 11
77.4855
 21
29.8047
 31
0.0
  0
LINE
  5
1C2
330
18
100
AcDbEntity
  8
_________2
100
AcDbLine
 10
70.8371
 20
29.8047
 30
0.0
 11
68.6502
 21
29.8047
 31
0.0
  0
LINE
  5
1C3
330
18
100
AcDbEntity
  8
_________2
100
AcDbLine
 10
71.32909999999999
 20
29.8047
 30
0.0
 11
71.0776
 21
29.8047
 31
0.0
  0
LINE
  5
1C4
330
18
100
AcDbEntity
  8
_________2
100
AcDbLine
 10
71.32909999999999
 20
30.2974
 30
0.0
 11
71.32909999999999
 21
32.4844
 31
0.0
  0
LINE
  5
1C5
330
18
100
AcDbEntity
  8
_________2
100
AcDbLine
 10
71.32909999999999
 20
29.8047
 30
0.0
 11
71.32909999999999
 21
30.0573
 31
0.0
  0
LINE
  5
1C6
330
18
100
AcDbEntity
  8
_________2
100
AcDbLine
 10
71.82170000000001
 20
29.8047
 30
0.0
 11
74.00870000000001
 21
29.8047
 31
0.0
  0
LINE
  5
1C7
330
18
100
AcDbEntity
  8
_________2
100
AcDbLine
 10
71.32909999999999
 20
29.8047
 30
0.0
 11
71.58129999999999
 21
29.8047
 31
0.0
  0
LINE
  5
1C8
330
18
100
AcDbEntity
  8
_________2
100
AcDbLine
 10
71.32909999999999
 20
29.3128
 30
0.0
 11
71.32909999999999
 21
27.1262
 31
0.0
  0
LINE
  5
1C9
330
18
100
AcDbEntity
  8
_________2
100
AcDbLine
 10
71.32909999999999
 20
29.8047
 30
0.0
 11
71.32909999999999
 21
29.5532
 31
0.0
  0
LINE
  5
1CA
330
18
100
AcDbEntity
  8
_________2
100
AcDbLine
 10
75.0402
 20
28.5852
 30
0.0
 11
80.21819999999999
 21
27.7204
 31
0.0
  0
LINE
  5
1CB
330
18
100
AcDbEntity
  8
_________2
100
AcDbLine
 10
75.0402
 20
31.0247
 30
0.0
 11
80.21819999999999
 21
31.8901
 31
0.0
  0
LINE
  5
1CC
330
18
100
AcDbEntity
  8
_________2
100
AcDbLine
 10
80.21819999999999
 20
27.7204
 30
0.0
 11
80.21819999999999
 21
31.8901
 31
0.0
  0
LINE
  5
1CD
330
18
100
AcDbEntity
  8
_________2
100
AcDbLine
 10
75.0402
 20
28.5852
 30
0.0
 11
75.0402
 21
31.0247
 31
0.0
  0
ARC
  5
1CE
330
18
100
AcDbEntity
  8
_________2
100
AcDbCircle
 10
71.282502
 20
29.757801
 30
0.0
 40
1.267714
100
AcDbArc
 50
2.122084
 51
87.89408399999999
  0
ARC
  5
1CF
330
18
100
AcDbEntity
  8
_________2
100
AcDbCircle
 10
71.37564000000001
 20
29.758546
 30
0.0
 40
1.266968
100
AcDbArc
 50
92.10578299999999
 51
177.91037
  0
ARC
  5
1D0
330
18
100
AcDbEntity
  8
_________2
100
AcDbCircle
 10
71.376014
 20
29.851671
 30
0.0
 40
1.267368
100
AcDbArc
 50
182.122036
 51
267.877993
  0
ARC
  5
1D1
330
18
100
AcDbEntity
  8
_________2
100
AcDbCircle
 10
71.282196
 20
29.852348
 30
0.0
 40
1.268043999999999
100
AcDbArc
 50
272.119164
 51
357.8484849999999
  0
ARC
  5
1D2
330
18
100
AcDbEntity
  8
_________2
100
AcDbCircle
 10
71.24871699999999
 20
29.72473199999999
 30
0.0
 40
2.166831
100
AcDbArc
 50
2.116143999999999
 51
87.874379
  0
ARC
  5
1D3
330
18
100
AcDbEntity
  8
_________2
100
AcDbCircle
 10
71.40875600000001
 20
29.726146
 30
0.0
 40
2.165392999999999
100
AcDbArc
 50
92.108509
 51
177.919865
  0
ARC
  5
1D4
330
18
100
AcDbEntity
  8
_________2
100
AcDbCircle
 10
71.40909499999999
 20
29.884752
 30
0.0
 40
2.165783
100
AcDbArc
 50
182.117133
 51
267.882897
  0
ARC
  5
1D5
330
18
100
AcDbEntity
  8
_________2
100
AcDbCircle
 10
71.249115
 20
29.88542999999999
 30
0.0
 40
2.166459
100
AcDbArc
 50
272.115468
 51
357.865604
  0
TEXT
  5
1D6
330
18
100
AcDbEntity
  8
_________2
100
AcDbText
 10
104.605
 20
1.67949
 30
0.0
 40
3.09234
  1
図番
 41
0.5
100
AcDbText
  0
LINE
  5
1D7
330
18
100
AcDbEntity
  8
_________2
100
AcDbLine
 10
103.55
 20
5.908719999999999
 30
0.0
 11
183.551
 21
5.908719999999999
 31
0.0
  0
TEXT
  5
1D8
330
18
100
AcDbEntity
  8
_________2
100
AcDbText
 10
104.605
 20
11.67929999999999
 30
0.0
 40
3.09234
  1
品番
 41
0.5
100
AcDbText
  0
TEXT
  5
1D9
330
18
100
AcDbEntity
  8
_________2
100
AcDbText
 10
104.605
 20
31.8184
 30
0.0
 40
3.09234
  1
名称
 41
0.5
100
AcDbText
  0
TEXT
  5
1DA
330
18
100
AcDbEntity
  8
_________2
100
AcDbText
 10
91.84475833333335
 20
26.8223
 30
0.0
 40
3.65458
  1
mm
 41
0.5
 72
     1
 11
93.3675
 21
26.8223
 31
0.0
100
AcDbText
  0
TEXT
  5
1DB
330
18
100
AcDbEntity
  8
_________2
100
AcDbText
 10
85.64289999999999
 20
31.8184
 30
0.0
 40
3.09234
  1
単位
 41
0.5
100
AcDbText
  0
TEXT
  5
1DC
330
18
100
AcDbEntity
  8
_________2
100
AcDbText
 10
85.64289999999999
 20
19.41079999999999
 30
0.0
 40
3.09234
  1
尺度
 41
0.5
100
AcDbText
  0
TEXT
  5
1DD
330
18
100
AcDbEntity
  8
_________2
100
AcDbText
 10
90.85300700000001
 20
13.21819999999999
 30
0.0
 40
3.65458
  1
1 ： 1
 41
0.5
 72
     1
 11
93.95940000000001
 21
13.21819999999999
 31
0.0
100
AcDbText
  0
TEXT
  5
1DE
330
18
100
AcDbEntity
  8
_________2
100
AcDbText
 10
136.33455
 20
9.1082
 30
0.0
 40
3.9357
  1
CET7521R
 41
0.5
 72
     1
 11
143.55
 21
9.1082
 31
0.0
100
AcDbText
  0
TEXT
  5
1DF
330
18
100
AcDbEntity
  8
_________2
100
AcDbText
 10
136.33455
 20
-0.8926299999999999
 30
0.0
 40
3.9357
  1
CET7521R
 41
0.5
 72
     1
 11
143.55
 21
-0.8926299999999999
 31
0.0
100
AcDbText
  0
TEXT
  5
1E0
330
18
100
AcDbEntity
  8
_________2
100
AcDbText
 10
39.303181
 20
13.6034
 30
0.0
 40
3.65458
  1
田尻
 41
0.5
 72
     1
 11
41.3132
 21
13.6034
 31
0.0
100
AcDbText
  0
TEXT
  5
1E1
330
18
100
AcDbEntity
  8
_________2
100
AcDbText
 10
20.79009066666666
 20
13.6034
 30
0.0
 40
3.65458
  1
石原
 41
0.5
 72
     1
 11
22.73919999999999
 21
13.6034
 31
0.0
100
AcDbText
  0
TEXT
  5
1E2
330
18
100
AcDbEntity
  8
_________2
100
AcDbText
 10
67.78539999999999
 20
13.21819999999999
 30
0.0
 40
3.65458
  1
09.10.21
 41
0.5
100
AcDbText
  0
TEXT
  5
1E3
330
18
100
AcDbEntity
  8
_________2
100
AcDbText
 10
66.59269999999999
 20
19.41079999999999
 30
0.0
 40
3.09234
  1
日付
 41
0.5
100
AcDbText
  0
TEXT
  5
1E4
330
18
100
AcDbEntity
  8
_________2
100
AcDbText
 10
29.639
 20
19.41079999999999
 30
0.0
 40
3.09234
  1
検図
 41
0.5
100
AcDbText
  0
TEXT
  5
1E5
330
18
100
AcDbEntity
  8
_________2
100
AcDbText
 10
18.0207
 20
5.21143
 30
0.0
 40
3.09234
  1
備考
 41
0.5
100
AcDbText
  0
TEXT
  5
1E6
330
18
100
AcDbEntity
  8
_________2
100
AcDbText
 10
18.0207
 20
19.41079999999999
 30
0.0
 40
3.09234
  1
製図
 41
0.5
100
AcDbText
  0
TEXT
  5
1E7
330
18
100
AcDbEntity
  8
_________2
100
AcDbText
 10
23.863131
 20
27.9368
 30
0.0
 40
4.497939999999999
  1
セラトレーディング株式会社
 41
0.5
 72
     1
 11
41.1802
 21
27.9368
 31
0.0
100
AcDbText
  0
LINE
  5
1E8
330
18
100
AcDbEntity
  8
_________2
100
AcDbLine
 10
183.551
 20
-4.09108
 30
0.0
 11
17.04919999999999
 21
-4.09108
 31
0.0
  0
LINE
  5
1E9
330
18
100
AcDbEntity
  8
_________2
100
AcDbLine
 10
17.04919999999999
 20
-4.09108
 30
0.0
 11
17.04919999999999
 21
258.911
 31
0.0
  0
LINE
  5
1EA
330
18
100
AcDbEntity
  8
_________2
100
AcDbLine
 10
17.04919999999999
 20
258.911
 30
0.0
 11
183.551
 21
258.911
 31
0.0
  0
LINE
  5
1EB
330
18
100
AcDbEntity
  8
_________2
100
AcDbLine
 10
183.551
 20
258.911
 30
0.0
 11
183.551
 21
-4.09108
 31
0.0
  0
LINE
  5
1EC
330
18
100
AcDbEntity
  8
_________2
100
AcDbLine
 10
65.5496
 20
9.409299999999999
 30
0.0
 11
65.5496
 21
35.9091
 31
0.0
  0
LINE
  5
1ED
330
18
100
AcDbEntity
  8
_________2
100
AcDbLine
 10
84.5494
 20
9.409299999999999
 30
0.0
 11
84.5494
 21
35.9091
 31
0.0
  0
LINE
  5
1EE
330
18
100
AcDbEntity
  8
_________2
100
AcDbLine
 10
103.55
 20
-4.09108
 30
0.0
 11
103.55
 21
35.9091
 31
0.0
  0
LINE
  5
1EF
330
18
100
AcDbEntity
  8
_________2
100
AcDbLine
 10
28.549
 20
9.409299999999999
 30
0.0
 11
28.549
 21
23.4092
 31
0.0
  0
LINE
  5
1F0
330
18
100
AcDbEntity
  8
_________2
100
AcDbLine
 10
17.04919999999999
 20
9.409299999999999
 30
0.0
 11
103.55
 21
9.409299999999999
 31
0.0
  0
LINE
  5
1F1
330
18
100
AcDbEntity
  8
_________2
100
AcDbLine
 10
17.04919999999999
 20
23.4092
 30
0.0
 11
103.55
 21
23.4092
 31
0.0
  0
LINE
  5
1F2
330
18
100
AcDbEntity
  8
_________2
100
AcDbLine
 10
103.55
 20
15.9085
 30
0.0
 11
183.551
 21
15.9085
 31
0.0
  0
LINE
  5
1F3
330
18
100
AcDbEntity
  8
_________2
100
AcDbLine
 10
17.04919999999999
 20
35.9091
 30
0.0
 11
183.551
 21
35.9091
 31
0.0
  0
ENDSEC
  0
SECTION
  2
OBJECTS
  0
DICTIONARY
  5
C
330
0
100
AcDbDictionary
281
     1
  3
ACAD_GROUP
350
D
  3
ACAD_MLINESTYLE
350
1B
  3
ACAD_PLOTSTYLENAME
350
1F7
  3
ACAD_LAYOUT
350
1F9
  3
ACAD_PLOTSETTINGS
350
1FA
  0
DICTIONARY
  5
D
102
{ACAD_REACTORS
330
C
102
}
330
C
100
AcDbDictionary
281
     1
  0
DICTIONARY
  5
1B
102
{ACAD_REACTORS
330
C
102
}
330
C
100
AcDbDictionary
281
     1
  3
STANDARD
350
1C
  0
ACDBDICTIONARYWDFLT
  5
1F7
102
{ACAD_REACTORS
330
C
102
}
330
C
100
AcDbDictionary
281
     1
  3
Normal
350
1F8
100
AcDbDictionaryWithDefault
340
1F8
  0
DICTIONARY
  5
1F9
102
{ACAD_REACTORS
330
C
102
}
330
C
100
AcDbDictionary
281
     1
  3
Model
350
1FB
  3
ﾚｲｱｳﾄ1
350
1FC
  0
DICTIONARY
  5
1FA
102
{ACAD_REACTORS
330
C
102
}
330
C
100
AcDbDictionary
281
     1
  0
MLINESTYLE
  5
1C
102
{ACAD_REACTORS
330
1B
102
}
330
1B
100
AcDbMlineStyle
  2
STANDARD
 70
     0
  3

 62
   256
 51
90.0
 52
90.0
 71
     2
 49
0.5
 62
   256
  6
BYLAYER
 49
-0.5
 62
   256
  6
BYLAYER
  0
ACDBPLACEHOLDER
  5
1F8
102
{ACAD_REACTORS
330
1F7
102
}
330
1F7
  0
LAYOUT
  5
1FB
102
{ACAD_REACTORS
330
1F9
102
}
330
1F9
100
AcDbPlotSettings
  1

  2
Canon LASER SHOT LBP-880
  4

  6

 40
0.0
 41
0.0
 42
0.0
 43
0.0
 44
0.0
 45
0.0
 46
0.0
 47
0.0
 48
0.0
 49
0.0
140
0.0
141
0.0
142
1.0
143
1.0
 70
  1712
 72
     0
 73
     0
 74
     0
  7

 75
     0
147
1.0
148
0.0
149
0.0
100
AcDbLayout
  1
Model
 70
     1
 71
     0
 10
0.0
 20
0.0
 11
12.0
 21
9.0
 12
0.0
 22
0.0
 32
0.0
 14
0.0
 24
0.0
 34
0.0
 15
0.0
 25
0.0
 35
0.0
146
0.0
 13
0.0
 23
0.0
 33
0.0
 16
1.0
 26
0.0
 36
0.0
 17
0.0
 27
1.0
 37
0.0
 76
     0
330
18
  0
LAYOUT
  5
1FC
102
{ACAD_REACTORS
330
1F9
102
}
330
1F9
100
AcDbPlotSettings
  1

  2
Canon LASER SHOT LBP-880
  4

  6

 40
0.0
 41
0.0
 42
0.0
 43
0.0
 44
0.0
 45
0.0
 46
0.0
 47
0.0
 48
0.0
 49
0.0
140
0.0
141
0.0
142
1.0
143
1.0
 70
   688
 72
     0
 73
     0
 74
     5
  7

 75
    16
147
1.0
148
0.0
149
0.0
100
AcDbLayout
  1
ﾚｲｱｳﾄ1
 70
     1
 71
     1
 10
0.0
 20
0.0
 11
12.0
 21
9.0
 12
0.0
 22
0.0
 32
0.0
 14
1.000000000000000E+20
 24
1.000000000000000E+20
 34
1.000000000000000E+20
 15
-1.000000000000000E+20
 25
-1.000000000000000E+20
 35
-1.000000000000000E+20
146
0.0
 13
0.0
 23
0.0
 33
0.0
 16
1.0
 26
0.0
 36
0.0
 17
0.0
 27
1.0
 37
0.0
 76
     0
330
15
  0
ENDSEC
  0
EOF
