  0
SECTION
  2
HEADER
  9
$ACADVER
  1
AC1009
  9
$INSBASE
 10
0.0
 20
0.0
 30
0.0
  9
$EXTMIN
 10
-4.70052
 20
-21.071400000000001
 30
0.0
  9
$EXTMAX
 10
205.30099999999999
 20
275.93000000000001
 30
0.0
  9
$LIMMIN
 10
0.0
 20
0.0
  9
$LIMMAX
 10
12.0
 20
9.0
  9
$ORTHOMODE
 70
     0
  9
$REGENMODE
 70
     1
  9
$FILLMODE
 70
     1
  9
$QTEXTMODE
 70
     0
  9
$MIRRTEXT
 70
     1
  9
$DRAGMODE
 70
     2
  9
$LTSCALE
 40
1.0
  9
$OSMODE
 70
    37
  9
$ATTMODE
 70
     1
  9
$TEXTSIZE
 40
0.0
  9
$TRACEWID
 40
0.05
  9
$TEXTSTYLE
  7
STANDARD
  9
$CLAYER
  8
0
  9
$CELTYPE
  6
CONTINUOUS
  9
$CECOLOR
 62
   256
  9
$DIMSCALE
 40
1.0
  9
$DIMASZ
 40
0.18
  9
$DIMEXO
 40
0.0625
  9
$DIMDLI
 40
0.38
  9
$DIMRND
 40
0.0
  9
$DIMDLE
 40
0.0
  9
$DIMEXE
 40
0.18
  9
$DIMTP
 40
0.0
  9
$DIMTM
 40
0.0
  9
$DIMTXT
 40
0.18
  9
$DIMCEN
 40
0.09
  9
$DIMTSZ
 40
0.0
  9
$DIMTOL
 70
     0
  9
$DIMLIM
 70
     0
  9
$DIMTIH
 70
     1
  9
$DIMTOH
 70
     1
  9
$DIMSE1
 70
     0
  9
$DIMSE2
 70
     0
  9
$DIMTAD
 70
     0
  9
$DIMZIN
 70
     0
  9
$DIMBLK
  1

  9
$DIMASO
 70
     1
  9
$DIMSHO
 70
     1
  9
$DIMPOST
  1

  9
$DIMAPOST
  1

  9
$DIMALT
 70
     0
  9
$DIMALTD
 70
     2
  9
$DIMALTF
 40
25.399999999999999
  9
$DIMLFAC
 40
1.0
  9
$DIMTOFL
 70
     0
  9
$DIMTVP
 40
0.0
  9
$DIMTIX
 70
     0
  9
$DIMSOXD
 70
     0
  9
$DIMSAH
 70
     0
  9
$DIMBLK1
  1

  9
$DIMBLK2
  1

  9
$DIMSTYLE
  2
STANDARD
  9
$DIMCLRD
 70
     0
  9
$DIMCLRE
 70
     0
  9
$DIMCLRT
 70
     0
  9
$DIMTFAC
 40
1.0
  9
$DIMGAP
 40
0.09
  9
$LUNITS
 70
     2
  9
$LUPREC
 70
     4
  9
$SKETCHINC
 40
0.1
  9
$FILLETRAD
 40
0.0
  9
$AUNITS
 70
     0
  9
$AUPREC
 70
     0
  9
$MENU
  1
.
  9
$ELEVATION
 40
0.0
  9
$PELEVATION
 40
0.0
  9
$THICKNESS
 40
0.0
  9
$LIMCHECK
 70
     0
  9
$BLIPMODE
 70
     0
  9
$CHAMFERA
 40
0.0
  9
$CHAMFERB
 40
0.0
  9
$SKPOLY
 70
     0
  9
$TDCREATE
 40
2444972.375
  9
$TDUPDATE
 40
2458272.2545833332
  9
$TDINDWG
 40
0.0000265856
  9
$TDUSRTIMER
 40
0.0000265856
  9
$USRTIMER
 70
     1
  9
$ANGBASE
 50
0.0
  9
$ANGDIR
 70
     0
  9
$PDMODE
 70
     0
  9
$PDSIZE
 40
0.0
  9
$PLINEWID
 40
0.0
  9
$COORDS
 70
     1
  9
$SPLFRAME
 70
     0
  9
$SPLINETYPE
 70
     6
  9
$SPLINESEGS
 70
     8
  9
$ATTDIA
 70
     1
  9
$ATTREQ
 70
     1
  9
$HANDLING
 70
     1
  9
$HANDSEED
  5
1B7
  9
$SURFTAB1
 70
     6
  9
$SURFTAB2
 70
     6
  9
$SURFTYPE
 70
     6
  9
$SURFU
 70
     6
  9
$SURFV
 70
     6
  9
$UCSNAME
  2

  9
$UCSORG
 10
0.0
 20
0.0
 30
0.0
  9
$UCSXDIR
 10
1.0
 20
0.0
 30
0.0
  9
$UCSYDIR
 10
0.0
 20
1.0
 30
0.0
  9
$PUCSNAME
  2

  9
$PUCSORG
 10
0.0
 20
0.0
 30
0.0
  9
$PUCSXDIR
 10
1.0
 20
0.0
 30
0.0
  9
$PUCSYDIR
 10
0.0
 20
1.0
 30
0.0
  9
$USERI1
 70
     0
  9
$USERI2
 70
     0
  9
$USERI3
 70
     0
  9
$USERI4
 70
     0
  9
$USERI5
 70
     0
  9
$USERR1
 40
0.0
  9
$USERR2
 40
0.0
  9
$USERR3
 40
0.0
  9
$USERR4
 40
0.0
  9
$USERR5
 40
0.0
  9
$WORLDVIEW
 70
     1
  9
$SHADEDGE
 70
     3
  9
$SHADEDIF
 70
    70
  9
$TILEMODE
 70
     1
  9
$MAXACTVP
 70
    48
  9
$PLIMCHECK
 70
     0
  9
$PEXTMIN
 10
1.0000000000000000E+020
 20
1.0000000000000000E+020
 30
1.0000000000000000E+020
  9
$PEXTMAX
 10
-1.0000000000000000E+020
 20
-1.0000000000000000E+020
 30
-1.0000000000000000E+020
  9
$PLIMMIN
 10
0.0
 20
0.0
  9
$PLIMMAX
 10
12.0
 20
9.0
  9
$UNITMODE
 70
     0
  9
$VISRETAIN
 70
     1
  9
$PLINEGEN
 70
     0
  9
$PSLTSCALE
 70
     1
  0
ENDSEC
  0
SECTION
  2
TABLES
  0
TABLE
  2
VPORT
 70
     1
  0
VPORT
  2
*ACTIVE
 70
     0
 10
0.0
 20
0.0
 11
1.0
 21
1.0
 12
190.8815905717185
 22
127.4293
 13
0.0
 23
0.0
 14
1.0
 24
1.0
 15
0.0
 25
0.0
 16
0.0
 26
0.0
 36
1.0
 17
0.0
 27
0.0
 37
0.0
 40
280.94834154544247
 41
2.298642533936651
 42
50.0
 43
0.0
 44
0.0
 50
0.0
 51
0.0
 71
     0
 72
   100
 73
     1
 74
     1
 75
     0
 76
     0
 77
     0
 78
     0
  0
ENDTAB
  0
TABLE
  2
LTYPE
 70
     3
  0
LTYPE
  2
CONTINUOUS
 70
     0
  3
Solid line
 72
    65
 73
     0
 40
0.0
  0
LTYPE
  2
AIGENLINE001
 70
     0
  3
generate AI->DXF Converter
 72
    65
 73
     6
 40
7.4083750000000004
 49
3.5278
 49
-0.776115
 49
0.776115
 49
-0.776115
 49
0.776115
 49
-0.776115
  0
LTYPE
  2
AIGENLINE002
 70
     0
  3
generate AI->DXF Converter
 72
    65
 73
     2
 40
1.5522299999999991
 49
0.776115
 49
-0.776115
  0
ENDTAB
  0
TABLE
  2
LAYER
 70
     2
  0
LAYER
  2
0
 70
     0
 62
     7
  6
CONTINUOUS
  0
LAYER
  2
_________2
 70
     0
 62
     7
  6
CONTINUOUS
  0
ENDTAB
  0
TABLE
  2
STYLE
 70
     1
  0
STYLE
  2
STANDARD
 70
     0
 40
0.0
 41
0.0
 50
0.0
 71
     0
 42
0.0
  3
TXT
  4
EXTFONT.SHX
  0
ENDTAB
  0
TABLE
  2
VIEW
 70
     0
  0
ENDTAB
  0
TABLE
  2
UCS
 70
     0
  0
ENDTAB
  0
TABLE
  2
APPID
 70
     3
  0
APPID
  2
ACAD
 70
     0
  0
APPID
  2
ACAD_NAV_VCDISPLAY
 70
     0
  0
APPID
  2
ACAD_MLEADERVER
 70
     0
  0
ENDTAB
  0
TABLE
  2
DIMSTYLE
 70
     1
  0
DIMSTYLE
  2
STANDARD
 70
     0
  3

  4

  5

  6

  7

 40
1.0
 41
0.18
 42
0.0625
 43
0.38
 44
0.18
 45
0.0
 46
0.0
 47
0.0
 48
0.0
140
0.18
141
0.09
142
0.0
143
25.399999999999999
144
1.0
145
0.0
146
1.0
147
0.09
 71
     0
 72
     0
 73
     1
 74
     1
 75
     0
 76
     0
 77
     0
 78
     0
170
     0
171
     2
172
     0
173
     0
174
     0
175
     0
176
     0
177
     0
178
     0
  0
ENDTAB
  0
ENDSEC
  0
SECTION
  2
BLOCKS
  0
BLOCK
  8
0
  2
$MODEL_SPACE
 70
     0
 10
0.0
 20
0.0
 30
0.0
  3
$MODEL_SPACE
  1

  0
ENDBLK
  5
1A
  8
0
  0
BLOCK
 67
     1
  8
0
  2
$PAPER_SPACE
 70
     0
 10
0.0
 20
0.0
 30
0.0
  3
$PAPER_SPACE
  1

  0
ENDBLK
  5
17
 67
     1
  8
0
  0
ENDSEC
  0
SECTION
  2
ENTITIES
  0
TEXT
  5
23
  8
0
 62
     7
 10
78.048999999999992
 20
192.19652500000001
 30
0.0
 40
3.0923400000000001
  1
28
 50
90.0
 41
0.5
 72
     1
 11
78.048999999999992
 21
193.48500000000001
 31
0.0
  0
TEXT
  5
24
  8
0
 62
     7
 10
87.635000000000005
 20
183.695525
 30
0.0
 40
3.0923400000000001
  1
45
 50
90.0
 41
0.5
 72
     1
 11
87.635000000000005
 21
184.98400000000001
 31
0.0
  0
TEXT
  5
25
  8
0
 62
     7
 10
49.425725
 20
122.304
 30
0.0
 40
3.0923400000000001
  1
32
 41
0.5
 72
     1
 11
50.714199999999991
 21
122.304
 31
0.0
  0
TEXT
  5
26
  8
0
 62
     7
 10
80.969899999999996
 20
90.998624999999976
 30
0.0
 40
3.0923400000000001
  1
42
 50
90.0
 41
0.5
 72
     1
 11
80.969899999999996
 21
92.287099999999995
 31
0.0
  0
TEXT
  5
27
  8
0
 62
     7
 10
174.15199999999999
 20
90.864920000000012
 30
0.0
 40
3.0923400000000001
  1
21
 50
90.0
 41
0.5
 72
     1
 11
174.15199999999999
 21
91.895700000000005
 31
0.0
  0
TEXT
  5
28
  8
0
 62
     7
 10
156.02079699999999
 20
116.15900000000001
 30
0.0
 40
3.0923400000000001
  1
%%c6\U+00D730 樹脂プラグ付
 41
0.5
 72
     2
 11
175.45099999999999
 21
116.15900000000001
 31
0.0
  0
TEXT
  5
29
  8
0
 62
     7
 10
149.372266
 20
120.90900000000001
 30
0.0
 40
3.0923400000000001
  1
%%c4.5\U+00D738 SUS皿木ネジ2本
 41
0.5
 72
     2
 11
175.45099999999999
 21
120.90900000000001
 31
0.0
  0
LINE
  5
2A
  8
0
 62
     7
 10
175.45099999999999
 20
120.209
 30
0.0
 11
145.61099999999999
 21
120.209
 31
0.0
  0
LINE
  5
2B
  8
0
 62
     7
 10
143.21199999999999
 20
107.422
 30
0.0
 11
143.49000000000001
 21
105.15000000000001
 31
0.0
  0
LINE
  5
2C
  8
0
 62
     7
 10
143.49000000000001
 20
105.15000000000001
 30
0.0
 11
144.38499999999999
 21
107.256
 31
0.0
  0
LINE
  5
2D
  8
0
 62
     7
 10
144.38499999999999
 20
107.256
 30
0.0
 11
143.21199999999999
 21
107.422
 31
0.0
  0
LINE
  5
2E
  8
0
 62
     7
 10
143.49000000000001
 20
105.15000000000001
 30
0.0
 11
145.61099999999999
 21
120.209
 31
0.0
  0
LINE
  5
2F
  8
0
 62
     7
 10
78.170900000000003
 20
181.69499999999999
 30
0.0
 11
78.763499999999993
 21
179.48400000000001
 31
0.0
  0
LINE
  5
30
  8
0
 62
     7
 10
78.763499999999993
 20
179.48400000000001
 30
0.0
 11
79.355999999999995
 21
181.69499999999999
 31
0.0
  0
LINE
  5
31
  8
0
 62
     7
 10
79.355999999999995
 20
181.69499999999999
 30
0.0
 11
78.170900000000003
 21
181.69499999999999
 31
0.0
  0
LINE
  5
32
  8
0
 62
     7
 10
79.327100000000002
 20
205.27500000000001
 30
0.0
 11
78.734499999999997
 21
207.48599999999999
 31
0.0
  0
LINE
  5
33
  8
0
 62
     7
 10
78.734499999999997
 20
207.48599999999999
 30
0.0
 11
78.141999999999996
 21
205.27500000000001
 31
0.0
  0
LINE
  5
34
  8
0
 62
     7
 10
78.141999999999996
 20
205.27500000000001
 30
0.0
 11
79.327100000000002
 21
205.27500000000001
 31
0.0
  0
LINE
  5
35
  8
0
 62
     7
 10
78.748999999999995
 20
179.48599999999999
 30
0.0
 11
78.748999999999995
 21
207.48500000000001
 31
0.0
  0
LINE
  5
36
  8
0
 62
     7
 10
71.365300000000005
 20
179.48599999999999
 30
0.0
 11
79.463499999999996
 21
179.48599999999999
 31
0.0
  0
LINE
  5
37
  8
0
 62
     7
 10
87.757000000000005
 20
164.69399999999999
 30
0.0
 11
88.349500000000006
 21
162.482
 31
0.0
  0
LINE
  5
38
  8
0
 62
     7
 10
88.349500000000006
 20
162.482
 30
0.0
 11
88.942099999999996
 21
164.69399999999999
 31
0.0
  0
LINE
  5
39
  8
0
 62
     7
 10
88.942099999999996
 20
164.69399999999999
 30
0.0
 11
87.757000000000005
 21
164.69399999999999
 31
0.0
  0
LINE
  5
3A
  8
0
 62
     7
 10
88.9131
 20
205.27500000000001
 30
0.0
 11
88.320599999999999
 21
207.48599999999999
 31
0.0
  0
LINE
  5
3B
  8
0
 62
     7
 10
88.320599999999999
 20
207.48599999999999
 30
0.0
 11
87.727999999999994
 21
205.27500000000001
 31
0.0
  0
LINE
  5
3C
  8
0
 62
     7
 10
87.727999999999994
 20
205.27500000000001
 30
0.0
 11
88.9131
 21
205.27500000000001
 31
0.0
  0
LINE
  5
3D
  8
0
 62
     7
 10
88.334999999999994
 20
162.48400000000001
 30
0.0
 11
88.334999999999994
 21
207.48500000000001
 31
0.0
  0
LINE
  5
3E
  8
0
 62
     7
 10
68.216399999999993
 20
207.48500000000001
 30
0.0
 11
89.052999999999997
 21
207.48500000000001
 31
0.0
  0
LINE
  5
3F
  8
0
 62
     7
 10
62.343899999999998
 20
162.48400000000001
 30
0.0
 11
89.052999999999997
 21
162.48400000000001
 31
0.0
  0
LINE
  5
40
  8
0
 62
     7
 10
64.5047
 20
121.026
 30
0.0
 11
66.715699999999998
 21
121.619
 31
0.0
  0
LINE
  5
41
  8
0
 62
     7
 10
66.715699999999998
 20
121.619
 30
0.0
 11
64.5047
 21
122.211
 31
0.0
  0
LINE
  5
42
  8
0
 62
     7
 10
64.5047
 20
122.211
 30
0.0
 11
64.5047
 21
121.026
 31
0.0
  0
LINE
  5
43
  8
0
 62
     7
 10
36.923699999999997
 20
122.182
 30
0.0
 11
34.712699999999998
 21
121.59
 31
0.0
  0
LINE
  5
44
  8
0
 62
     7
 10
34.712699999999998
 20
121.59
 30
0.0
 11
36.923699999999997
 21
120.997
 31
0.0
  0
LINE
  5
45
  8
0
 62
     7
 10
36.923699999999997
 20
120.997
 30
0.0
 11
36.923699999999997
 21
122.182
 31
0.0
  0
LINE
  5
46
  8
0
 62
     7
 10
66.714399999999998
 20
121.604
 30
0.0
 11
34.713999999999999
 21
121.604
 31
0.0
  0
LINE
  5
47
  8
0
 62
     7
 10
34.715400000000002
 20
114.113
 30
0.0
 11
34.715400000000002
 21
122.319
 31
0.0
  0
LINE
  5
48
  8
0
 62
     7
 10
66.715699999999998
 20
114.113
 30
0.0
 11
66.715699999999998
 21
122.319
 31
0.0
  0
LINE
  5
49
  8
0
 62
     7
 10
82.248000000000005
 20
111.077
 30
0.0
 11
81.655500000000004
 21
113.289
 31
0.0
  0
LINE
  5
4A
  8
0
 62
     7
 10
81.655500000000004
 20
113.289
 30
0.0
 11
81.062899999999985
 21
111.077
 31
0.0
  0
LINE
  5
4B
  8
0
 62
     7
 10
81.062899999999985
 20
111.077
 30
0.0
 11
82.248000000000005
 21
111.077
 31
0.0
  0
LINE
  5
4C
  8
0
 62
     7
 10
81.091899999999995
 20
73.496799999999993
 30
0.0
 11
81.684399999999997
 21
71.285700000000006
 31
0.0
  0
LINE
  5
4D
  8
0
 62
     7
 10
81.684399999999997
 20
71.285700000000006
 30
0.0
 11
82.277000000000001
 21
73.496799999999993
 31
0.0
  0
LINE
  5
4E
  8
0
 62
     7
 10
82.277000000000001
 20
73.496799999999993
 30
0.0
 11
81.091899999999995
 21
73.496799999999993
 31
0.0
  0
LINE
  5
4F
  8
0
 62
     7
 10
81.669899999999998
 20
113.28700000000001
 30
0.0
 11
81.669899999999998
 21
71.287099999999995
 31
0.0
  0
LINE
  5
50
  8
0
 62
     7
 10
89.463800000000006
 20
71.288399999999996
 30
0.0
 11
80.955399999999983
 21
71.288399999999996
 31
0.0
  0
LINE
  5
51
  8
0
 62
     7
 10
89.463800000000006
 20
113.289
 30
0.0
 11
80.955399999999983
 21
113.289
 31
0.0
  0
LINE
  5
52
  8
0
 62
     7
 10
175.43100000000001
 20
100.187
 30
0.0
 11
174.83799999999999
 21
102.398
 31
0.0
  0
LINE
  5
53
  8
0
 62
     7
 10
174.83799999999999
 20
102.398
 30
0.0
 11
174.245
 21
100.187
 31
0.0
  0
LINE
  5
54
  8
0
 62
     7
 10
174.245
 20
100.187
 30
0.0
 11
175.43100000000001
 21
100.187
 31
0.0
  0
LINE
  5
55
  8
0
 62
     7
 10
174.274
 20
83.605400000000003
 30
0.0
 11
174.86699999999999
 21
81.393699999999995
 31
0.0
  0
LINE
  5
56
  8
0
 62
     7
 10
174.86699999999999
 20
81.393699999999995
 30
0.0
 11
175.459
 21
83.605400000000003
 31
0.0
  0
LINE
  5
57
  8
0
 62
     7
 10
175.459
 20
83.605400000000003
 30
0.0
 11
174.274
 21
83.605400000000003
 31
0.0
  0
LINE
  5
58
  8
0
 62
     7
 10
174.852
 20
102.396
 30
0.0
 11
174.852
 21
81.395700000000005
 31
0.0
  0
LINE
  5
59
  8
0
 62
     7
 10
167.84700000000001
 20
81.397099999999995
 30
0.0
 11
175.53800000000001
 21
81.397099999999995
 31
0.0
  0
LINE
  5
5A
  8
0
 62
     7
 10
167.815
 20
102.398
 30
0.0
 11
175.53800000000001
 21
102.398
 31
0.0
  0
ARC
  5
5B
  8
0
  6
AIGENLINE001
 62
     7
 10
50.713848999999989
 20
244.60856000000001
 30
0.0
 40
82.123761999999985
 50
263.56993599999998
 51
276.43008400000002
  0
LINE
  5
5C
  8
0
  6
AIGENLINE002
 62
     7
 10
50.713799999999999
 20
183.43600000000001
 30
0.0
 11
50.713799999999999
 21
240.03299999999999
 31
0.0
  0
LINE
  5
5D
  8
0
  6
AIGENLINE002
 62
     7
 10
50.713799999999999
 20
67.672399999999996
 30
0.0
 11
50.713799999999999
 21
116.03100000000001
 31
0.0
  0
LINE
  5
5E
  8
0
  6
AIGENLINE002
 62
     7
 10
44.421699999999987
 20
101.488
 30
0.0
 11
57.296799999999998
 21
101.488
 31
0.0
  0
LINE
  5
5F
  8
0
  6
AIGENLINE002
 62
     7
 10
44.119900000000001
 20
80.287800000000004
 30
0.0
 11
56.897100000000002
 21
80.287800000000004
 31
0.0
  0
LINE
  5
60
  8
0
  6
AIGENLINE002
 62
     7
 10
69.965199999999996
 20
179.48599999999999
 30
0.0
 11
31.753299999999999
 21
179.48599999999999
 31
0.0
  0
LINE
  5
61
  8
0
  6
AIGENLINE002
 62
     7
 10
167.14699999999999
 20
81.378500000000003
 30
0.0
 11
130.28299999999999
 21
81.378500000000003
 31
0.0
  0
LINE
  5
62
  8
0
  6
AIGENLINE002
 62
     7
 10
167.11500000000001
 20
102.398
 30
0.0
 11
130.155
 21
102.398
 31
0.0
  0
LINE
  5
63
  8
0
  6
AIGENLINE002
 62
     7
 10
106.913
 20
118.584
 30
0.0
 11
106.913
 21
65.320099999999996
 31
0.0
  0
ARC
  5
64
  8
0
 62
     7
 10
49.242908999999997
 20
191.62040400000001
 30
0.0
 40
1.4703479999999991
 50
236.26236599999999
 51
245.98452599999999
  0
ARC
  5
65
  8
0
 62
     7
 10
49.716689000000002
 20
192.62701200000001
 30
0.0
 40
2.582743999999999
 50
245.47217699999999
 51
253.40322699999999
  0
ARC
  5
66
  8
0
 62
     7
 10
50.203840999999997
 20
194.17865900000001
 30
0.0
 40
4.2089610000000004
 50
253.08125200000001
 51
259.72068100000001
  0
ARC
  5
67
  8
0
 62
     7
 10
50.633963000000001
 20
196.41727700000001
 30
0.0
 40
6.4884449999999987
 50
259.51101599999998
 51
269.90414900000002
  0
ARC
  5
68
  8
0
 62
     7
 10
50.700147999999999
 20
197.19575499999999
 30
0.0
 40
7.2673220000000001
 50
269.39261199999999
 51
279.109624
  0
ARC
  5
69
  8
0
 62
     7
 10
51.009577
 20
194.915221
 30
0.0
 40
4.9668729999999996
 50
279.75027399999999
 51
287.57725600000009
  0
ARC
  5
6A
  8
0
 62
     7
 10
51.71709899999999
 20
192.577157
 30
0.0
 40
2.5245029999999988
 50
288.29417000000001
 51
296.74480899999998
  0
ARC
  5
6B
  8
0
 62
     7
 10
52.187049000000002
 20
191.61262099999999
 30
0.0
 40
1.451738999999999
 50
297.31247000000002
 51
303.43466999999998
  0
LINE
  5
6C
  8
0
 62
     7
 10
53.465800000000002
 20
231.78800000000001
 30
0.0
 11
47.965299999999992
 21
237.28800000000001
 31
0.0
  0
LINE
  5
6D
  8
0
 62
     7
 10
53.465800000000002
 20
228.25299999999999
 30
0.0
 11
47.965299999999992
 21
233.75200000000001
 31
0.0
  0
LINE
  5
6E
  8
0
 62
     7
 10
53.465800000000002
 20
224.71700000000001
 30
0.0
 11
47.965299999999992
 21
230.21700000000001
 31
0.0
  0
LINE
  5
6F
  8
0
 62
     7
 10
53.465800000000002
 20
221.18199999999999
 30
0.0
 11
47.965299999999992
 21
226.68100000000001
 31
0.0
  0
LINE
  5
70
  8
0
 62
     7
 10
53.465800000000002
 20
217.64500000000001
 30
0.0
 11
47.965299999999992
 21
223.14599999999999
 31
0.0
  0
LINE
  5
71
  8
0
 62
     7
 10
53.465800000000002
 20
214.11099999999999
 30
0.0
 11
47.965299999999992
 21
219.61000000000001
 31
0.0
  0
LINE
  5
72
  8
0
 62
     7
 10
53.465800000000002
 20
210.57400000000001
 30
0.0
 11
47.965299999999992
 21
216.07499999999999
 31
0.0
  0
LINE
  5
73
  8
0
 62
     7
 10
53.465800000000002
 20
207.03800000000001
 30
0.0
 11
47.965299999999992
 21
212.53899999999999
 31
0.0
  0
LINE
  5
74
  8
0
 62
     7
 10
48.466299999999997
 20
232.78800000000001
 30
0.0
 11
50.713799999999999
 21
236.68600000000001
 31
0.0
  0
LINE
  5
75
  8
0
 62
     7
 10
50.713799999999999
 20
236.68600000000001
 30
0.0
 11
52.9649
 21
232.78800000000001
 31
0.0
  0
LINE
  5
76
  8
0
 62
     7
 10
48.466299999999997
 20
207.48500000000001
 30
0.0
 11
48.466299999999997
 21
232.78800000000001
 31
0.0
  0
LINE
  5
77
  8
0
 62
     7
 10
52.9649
 20
232.78800000000001
 30
0.0
 11
52.9649
 21
207.48500000000001
 31
0.0
  0
ARC
  5
78
  8
0
 62
     7
 10
41.612977999999998
 20
171.413973
 30
0.0
 40
1.0151879999999991
 50
0.218142
 51
41.154260000000001
  0
ARC
  5
79
  8
0
 62
     7
 10
59.812832
 20
171.41074
 30
0.0
 40
1.0133179999999991
 50
138.509648
 51
179.59861599999999
  0
ARC
  5
7A
  8
0
 62
     7
 10
50.111550999999992
 20
179.448341
 30
0.0
 40
11.585584000000001
 50
320.51957299999998
 51
46.293908999999992
  0
ARC
  5
7B
  8
0
 62
     7
 10
50.750892999999998
 20
178.88611499999999
 30
0.0
 40
11.581536
 50
50.506015999999988
 51
136.30333999999999
  0
ARC
  5
7C
  8
0
 62
     7
 10
51.224484999999987
 20
179.48458099999999
 30
0.0
 40
11.535558
 50
140.08027200000001
 51
219.91972799999999
  0
ARC
  5
7D
  8
0
 62
     7
 10
50.714490000000012
 20
179.485592
 30
0.0
 40
11.849759000000001
 50
313.02336300000002
 51
43.027743000000001
  0
ARC
  5
7E
  8
0
 62
     7
 10
50.714669000000001
 20
179.48354699999999
 30
0.0
 40
11.851024000000001
 50
43.03555999999999
 51
133.027298
  0
ARC
  5
7F
  8
0
 62
     7
 10
51.356909000000002
 20
179.46255199999999
 30
0.0
 40
12.313019000000001
 50
135.14581000000001
 51
220.90489099999999
  0
ARC
  5
80
  8
0
 62
     7
 10
49.965184999999998
 20
178.736951
 30
0.0
 40
10.792133
 50
222.83190200000001
 51
227.168128
  0
LINE
  5
81
  8
0
 62
     7
 10
40.21309999999999
 20
71.288399999999996
 30
0.0
 11
35.713799999999999
 21
71.288399999999996
 31
0.0
  0
LINE
  5
82
  8
0
 62
     7
 10
65.713899999999995
 20
71.288399999999996
 30
0.0
 11
40.21309999999999
 21
71.288399999999996
 31
0.0
  0
ARC
  5
83
  8
0
 62
     7
 10
58.038183999999987
 20
259.64379000000002
 30
0.0
 40
98.066881999999993
 50
256.71918199999999
 51
258.51027599999998
  0
ARC
  5
84
  8
0
 62
     7
 10
52.847618999999987
 20
234.798756
 30
0.0
 40
72.685941999999983
 50
258.61874699999998
 51
261.03171900000001
  0
ARC
  5
85
  8
0
 62
     7
 10
48.704318999999991
 20
234.41105099999999
 30
0.0
 40
72.283636000000001
 50
278.91893199999998
 51
282.74344600000001
  0
ARC
  5
86
  8
0
 62
     7
 10
42.702866
 20
262.217895
 30
0.0
 40
100.729755
 50
282.58408300000002
 51
283.32422500000001
  0
LINE
  5
87
  8
0
 62
     7
 10
34.715400000000002
 20
207.48500000000001
 30
0.0
 11
34.715400000000002
 21
165.178
 31
0.0
  0
LINE
  5
88
  8
0
 62
     7
 10
66.715699999999998
 20
207.48500000000001
 30
0.0
 11
66.715699999999998
 21
165.178
 31
0.0
  0
LINE
  5
89
  8
0
 62
     7
 10
66.715699999999998
 20
112.288
 30
0.0
 11
66.715699999999998
 21
72.288899999999984
 31
0.0
  0
LINE
  5
8A
  8
0
 62
     7
 10
34.715400000000002
 20
72.288899999999984
 30
0.0
 11
34.715400000000002
 21
112.288
 31
0.0
  0
ARC
  5
8B
  8
0
 62
     7
 10
50.520161000000002
 20
80.096227999999996
 30
0.0
 40
5.1967730000000003
 50
2.1122700000000001
 51
87.864035999999984
  0
ARC
  5
8C
  8
0
 62
     7
 10
50.905619000000002
 20
80.098145000000002
 30
0.0
 40
5.1947859999999988
 50
92.115593999999973
 51
177.90806000000001
  0
ARC
  5
8D
  8
0
 62
     7
 10
50.906125000000003
 20
80.479330000000004
 30
0.0
 40
5.1953629999999986
 50
182.113079
 51
267.87905499999999
  0
ARC
  5
8E
  8
0
 62
     7
 10
50.522249999999993
 20
80.478651999999997
 30
0.0
 40
5.1946620000000001
 50
272.11377700000003
 51
357.89412800000002
  0
ARC
  5
8F
  8
0
 62
     7
 10
50.522258000000001
 20
101.296741
 30
0.0
 40
5.1946789999999989
 50
2.1136659999999989
 51
87.886324000000002
  0
ARC
  5
90
  8
0
 62
     7
 10
50.905473000000001
 20
101.296707
 30
0.0
 40
5.1947140000000003
 50
92.114011000000005
 51
177.88595900000001
  0
ARC
  5
91
  8
0
 62
     7
 10
50.905428000000001
 20
101.67991000000001
 30
0.0
 40
5.194666999999999
 50
182.11356199999989
 51
267.88646799999998
  0
ARC
  5
92
  8
0
 62
     7
 10
50.522297999999999
 20
101.67988200000001
 30
0.0
 40
5.1946370000000002
 50
272.11324999999999
 51
357.88675999999998
  0
ARC
  5
93
  8
0
 62
     7
 10
35.746868999999997
 20
165.20381599999999
 30
0.0
 40
1.0317780000000001
 50
181.43140700000001
 51
256.719875
  0
ARC
  5
94
  8
0
 62
     7
 10
65.682823999999997
 20
165.20671899999999
 30
0.0
 40
1.033992
 50
283.09839299999999
 51
358.41074600000002
  0
ARC
  5
95
  8
0
 62
     7
 10
59.837990000000012
 20
164.032723
 30
0.0
 40
1.0391619999999999
 50
182.119021
 51
268.01900000000001
  0
ARC
  5
96
  8
0
 62
     7
 10
59.810695000000003
 20
163.68706299999999
 30
0.0
 40
0.6929340000000001
 50
269.28663
 51
278.31747000000001
  0
LINE
  5
97
  8
0
 62
     7
 10
58.799500000000002
 20
72.288899999999984
 30
0.0
 11
58.799500000000002
 21
112.288
 31
0.0
  0
ARC
  5
98
  8
0
 62
     7
 10
59.838297999999988
 20
72.327269999999999
 30
0.0
 40
1.0394680000000001
 50
182.11569800000001
 51
268.00259
  0
ARC
  5
99
  8
0
 62
     7
 10
59.840665000000001
 20
112.247339
 30
0.0
 40
1.041922999999999
 50
92.122932999999975
 51
177.75878
  0
ARC
  5
9A
  8
0
 62
     7
 10
41.591425999999998
 20
72.325089000000006
 30
0.0
 40
1.0373639999999991
 50
272.11795999999998
 51
358.00055200000003
  0
LINE
  5
9B
  8
0
 62
     7
 10
42.6282
 20
112.288
 30
0.0
 11
42.6282
 21
72.288899999999984
 31
0.0
  0
ARC
  5
9C
  8
0
 62
     7
 10
41.589533000000003
 20
112.25000300000001
 30
0.0
 40
1.0393229999999991
 50
2.0998689999999991
 51
87.781618999999978
  0
LINE
  5
9D
  8
0
 62
     7
 10
59.802100000000003
 20
113.289
 30
0.0
 11
64.816100000000006
 21
113.289
 31
0.0
  0
ARC
  5
9E
  8
0
 62
     7
 10
65.67699300000001
 20
112.249759
 30
0.0
 40
1.0394429999999999
 50
2.1130569999999991
 51
87.965799000000004
  0
ARC
  5
9F
  8
0
 62
     7
 10
65.675657000000001
 20
72.328558999999998
 30
0.0
 40
1.0408280000000001
 50
272.10508099999998
 51
357.8160640000001
  0
ARC
  5
A0
  8
0
 62
     7
 10
35.754038000000001
 20
72.326977999999997
 30
0.0
 40
1.0393229999999991
 50
182.099872
 51
267.781656
  0
ARC
  5
A1
  8
0
 62
     7
 10
35.752527000000001
 20
112.25151099999999
 30
0.0
 40
1.0377590000000001
 50
92.138211000000027
 51
177.98026200000001
  0
LINE
  5
A2
  8
0
 62
     7
 10
35.713799999999999
 20
113.289
 30
0.0
 11
65.713899999999995
 21
113.289
 31
0.0
  0
LINE
  5
A3
  8
0
 62
     7
 10
50.713799999999999
 20
87.287599999999983
 30
0.0
 11
58.799500000000002
 21
87.287599999999983
 31
0.0
  0
LINE
  5
A4
  8
0
 62
     7
 10
42.6282
 20
87.287599999999983
 30
0.0
 11
50.713799999999999
 21
87.287599999999983
 31
0.0
  0
LINE
  5
A5
  8
0
 62
     7
 10
34.715400000000002
 20
207.48500000000001
 30
0.0
 11
66.715699999999998
 21
207.48500000000001
 31
0.0
  0
LINE
  5
A6
  8
0
 62
     7
 10
42.6282
 20
168.346
 30
0.0
 11
42.6282
 21
163.994
 31
0.0
  0
LINE
  5
A7
  8
0
 62
     7
 10
42.6282
 20
171.41800000000001
 30
0.0
 11
42.6282
 21
168.346
 31
0.0
  0
ARC
  5
A8
  8
0
 62
     7
 10
41.595483999999999
 20
164.03967599999999
 30
0.0
 40
1.041239
 50
265.66415799999999
 51
351.28953100000001
  0
ARC
  5
A9
  8
0
 62
     7
 10
41.684812000000001
 20
163.967029
 30
0.0
 40
0.9437399999999998
 50
354.83011800000003
 51
1.6559060000000001
  0
LINE
  5
AA
  8
0
 62
     7
 10
58.799500000000002
 20
163.994
 30
0.0
 11
58.799500000000002
 21
168.346
 31
0.0
  0
LINE
  5
AB
  8
0
 62
     7
 10
58.799500000000002
 20
168.346
 30
0.0
 11
58.799500000000002
 21
171.41800000000001
 31
0.0
  0
LINE
  5
AC
  8
0
 62
     7
 10
159.21799999999999
 20
78.627899999999997
 30
0.0
 11
164.715
 21
84.129099999999994
 31
0.0
  0
LINE
  5
AD
  8
0
 62
     7
 10
155.68199999999999
 20
78.627899999999997
 30
0.0
 11
161.18199999999999
 21
84.129099999999994
 31
0.0
  0
LINE
  5
AE
  8
0
 62
     7
 10
152.14599999999999
 20
78.627899999999997
 30
0.0
 11
157.64599999999999
 21
84.129099999999994
 31
0.0
  0
LINE
  5
AF
  8
0
 62
     7
 10
148.60900000000001
 20
78.627899999999997
 30
0.0
 11
154.10900000000001
 21
84.129099999999994
 31
0.0
  0
LINE
  5
B0
  8
0
 62
     7
 10
145.072
 20
78.627899999999997
 30
0.0
 11
150.57299999999989
 21
84.129099999999994
 31
0.0
  0
LINE
  5
B1
  8
0
 62
     7
 10
141.53999999999999
 20
78.627899999999997
 30
0.0
 11
147.03999999999999
 21
84.129099999999994
 31
0.0
  0
LINE
  5
B2
  8
0
 62
     7
 10
138.00299999999999
 20
78.627899999999997
 30
0.0
 11
143.50399999999999
 21
84.129099999999994
 31
0.0
  0
LINE
  5
B3
  8
0
 62
     7
 10
134.46700000000001
 20
78.627899999999997
 30
0.0
 11
139.96799999999999
 21
84.129099999999994
 31
0.0
  0
LINE
  5
B4
  8
0
 62
     7
 10
160.21700000000001
 20
83.630200000000002
 30
0.0
 11
164.113
 21
81.378500000000003
 31
0.0
  0
LINE
  5
B5
  8
0
 62
     7
 10
164.113
 20
81.378500000000003
 30
0.0
 11
160.21700000000001
 21
79.129499999999993
 31
0.0
  0
LINE
  5
B6
  8
0
 62
     7
 10
134.91300000000001
 20
83.630200000000002
 30
0.0
 11
160.21700000000001
 21
83.630200000000002
 31
0.0
  0
LINE
  5
B7
  8
0
 62
     7
 10
160.21700000000001
 20
79.129499999999993
 30
0.0
 11
134.91300000000001
 21
79.129499999999993
 31
0.0
  0
LINE
  5
B8
  8
0
 62
     7
 10
159.21799999999999
 20
99.647300000000016
 30
0.0
 11
164.715
 21
105.148
 31
0.0
  0
LINE
  5
B9
  8
0
 62
     7
 10
155.68199999999999
 20
99.647300000000016
 30
0.0
 11
161.18199999999999
 21
105.148
 31
0.0
  0
LINE
  5
BA
  8
0
 62
     7
 10
152.14599999999999
 20
99.647300000000016
 30
0.0
 11
157.64599999999999
 21
105.148
 31
0.0
  0
LINE
  5
BB
  8
0
 62
     7
 10
148.60900000000001
 20
99.647300000000016
 30
0.0
 11
154.10900000000001
 21
105.148
 31
0.0
  0
LINE
  5
BC
  8
0
 62
     7
 10
145.072
 20
99.647300000000016
 30
0.0
 11
150.57299999999989
 21
105.148
 31
0.0
  0
LINE
  5
BD
  8
0
 62
     7
 10
141.53999999999999
 20
99.647300000000016
 30
0.0
 11
147.03999999999999
 21
105.148
 31
0.0
  0
LINE
  5
BE
  8
0
 62
     7
 10
138.00299999999999
 20
99.647300000000016
 30
0.0
 11
143.50399999999999
 21
105.148
 31
0.0
  0
LINE
  5
BF
  8
0
 62
     7
 10
134.46700000000001
 20
99.647300000000016
 30
0.0
 11
139.96799999999999
 21
105.148
 31
0.0
  0
LINE
  5
C0
  8
0
 62
     7
 10
160.21700000000001
 20
104.64700000000001
 30
0.0
 11
164.113
 21
102.398
 31
0.0
  0
LINE
  5
C1
  8
0
 62
     7
 10
164.113
 20
102.398
 30
0.0
 11
160.21700000000001
 21
100.148
 31
0.0
  0
LINE
  5
C2
  8
0
 62
     7
 10
134.91300000000001
 20
104.64700000000001
 30
0.0
 11
160.21700000000001
 21
104.64700000000001
 31
0.0
  0
LINE
  5
C3
  8
0
 62
     7
 10
160.21700000000001
 20
100.148
 30
0.0
 11
134.91300000000001
 21
100.148
 31
0.0
  0
LINE
  5
C4
  8
0
 62
     7
 10
91.412400000000005
 20
71.288399999999996
 30
0.0
 11
134.91300000000001
 21
71.288399999999996
 31
0.0
  0
ARC
  5
C5
  8
0
 62
     7
 10
91.453018999999983
 20
72.32736899999999
 30
0.0
 40
1.0397289999999999
 50
182.120644
 51
267.76088399999998
  0
ARC
  5
C6
  8
0
 62
     7
 10
91.451110999999983
 20
112.251516
 30
0.0
 40
1.0377529999999999
 50
92.137937000000008
 51
177.980535
  0
LINE
  5
C7
  8
0
 62
     7
 10
90.414000000000016
 20
112.288
 30
0.0
 11
90.414000000000016
 21
72.288899999999984
 31
0.0
  0
LINE
  5
C8
  8
0
 62
     7
 10
134.91300000000001
 20
81.287499999999994
 30
0.0
 11
134.91300000000001
 21
71.288399999999996
 31
0.0
  0
LINE
  5
C9
  8
0
 62
     7
 10
134.91300000000001
 20
102.489
 30
0.0
 11
134.91300000000001
 21
81.287499999999994
 31
0.0
  0
LINE
  5
CA
  8
0
 62
     7
 10
134.91300000000001
 20
113.289
 30
0.0
 11
134.91300000000001
 21
102.489
 31
0.0
  0
LINE
  5
CB
  8
0
 62
     7
 10
91.412400000000005
 20
113.289
 30
0.0
 11
134.91300000000001
 21
113.289
 31
0.0
  0
LINE
  5
CC
  8
_________2
 62
     7
 10
205.30099999999999
 20
127.411
 30
0.0
 11
183.55000000000001
 21
127.411
 31
0.0
  0
LINE
  5
CD
  8
_________2
 62
     7
 10
100.3
 20
-4.0910799999999998
 30
0.0
 11
100.3
 21
-21.071400000000001
 31
0.0
  0
LINE
  5
CE
  8
_________2
 62
     7
 10
100.3
 20
275.93000000000001
 30
0.0
 11
100.3
 21
258.911
 31
0.0
  0
LINE
  5
CF
  8
_________2
 62
     7
 10
17.049499999999998
 20
127.411
 30
0.0
 11
-4.70052
 21
127.411
 31
0.0
  0
LINE
  5
D0
  8
_________2
 62
     7
 10
76.741
 20
29.8047
 30
0.0
 11
74.554699999999997
 21
29.8047
 31
0.0
  0
LINE
  5
D1
  8
_________2
 62
     7
 10
77.233699999999999
 20
29.8047
 30
0.0
 11
76.981499999999997
 21
29.8047
 31
0.0
  0
LINE
  5
D2
  8
_________2
 62
     7
 10
77.726299999999995
 20
29.8047
 30
0.0
 11
80.651200000000003
 21
29.8047
 31
0.0
  0
LINE
  5
D3
  8
_________2
 62
     7
 10
77.233699999999999
 20
29.8047
 30
0.0
 11
77.485500000000002
 21
29.8047
 31
0.0
  0
LINE
  5
D4
  8
_________2
 62
     7
 10
70.837100000000007
 20
29.8047
 30
0.0
 11
68.650499999999994
 21
29.8047
 31
0.0
  0
LINE
  5
D5
  8
_________2
 62
     7
 10
71.329400000000007
 20
29.8047
 30
0.0
 11
71.077600000000004
 21
29.8047
 31
0.0
  0
LINE
  5
D6
  8
_________2
 62
     7
 10
71.329400000000007
 20
30.2974
 30
0.0
 11
71.329400000000007
 21
32.484400000000001
 31
0.0
  0
LINE
  5
D7
  8
_________2
 62
     7
 10
71.329400000000007
 20
29.8047
 30
0.0
 11
71.329400000000007
 21
30.056899999999999
 31
0.0
  0
LINE
  5
D8
  8
_________2
 62
     7
 10
71.822100000000006
 20
29.8047
 30
0.0
 11
74.009
 21
29.8047
 31
0.0
  0
LINE
  5
D9
  8
_________2
 62
     7
 10
71.329400000000007
 20
29.8047
 30
0.0
 11
71.581599999999995
 21
29.8047
 31
0.0
  0
LINE
  5
DA
  8
_________2
 62
     7
 10
71.329400000000007
 20
29.312799999999999
 30
0.0
 11
71.329400000000007
 21
27.125800000000002
 31
0.0
  0
LINE
  5
DB
  8
_________2
 62
     7
 10
71.329400000000007
 20
29.8047
 30
0.0
 11
71.329400000000007
 21
29.5532
 31
0.0
  0
LINE
  5
DC
  8
_________2
 62
     7
 10
75.040499999999994
 20
28.5852
 30
0.0
 11
80.218500000000006
 21
27.720400000000001
 31
0.0
  0
LINE
  5
DD
  8
_________2
 62
     7
 10
75.040499999999994
 20
31.0243
 30
0.0
 11
80.218500000000006
 21
31.889700000000001
 31
0.0
  0
LINE
  5
DE
  8
_________2
 62
     7
 10
80.218500000000006
 20
27.720400000000001
 30
0.0
 11
80.218500000000006
 21
31.889700000000001
 31
0.0
  0
LINE
  5
DF
  8
_________2
 62
     7
 10
75.040499999999994
 20
28.5852
 30
0.0
 11
75.040499999999994
 21
31.0243
 31
0.0
  0
ARC
  5
E0
  8
_________2
 62
     7
 10
71.28285600000001
 20
29.757811
 30
0.0
 40
1.2673589999999999
 50
2.122214
 51
87.893958999999995
  0
ARC
  5
E1
  8
_________2
 62
     7
 10
71.375959999999992
 20
29.758213000000001
 30
0.0
 40
1.2669559999999991
 50
92.104701000000006
 51
177.89526900000001
  0
ARC
  5
E2
  8
_________2
 62
     7
 10
71.376357999999996
 20
29.851671
 30
0.0
 40
1.2673680000000001
 50
182.12203600000001
 51
267.877993
  0
ARC
  5
E3
  8
_________2
 62
     7
 10
71.282531999999989
 20
29.851998999999999
 30
0.0
 40
1.267695999999999
 50
272.12015300000002
 51
357.863674
  0
ARC
  5
E4
  8
_________2
 62
     7
 10
71.329430000000002
 20
29.804742999999998
 30
0.0
 40
2.0849849999999992
 50
0.00001
 51
89.999980000000008
  0
ARC
  5
E5
  8
_________2
 62
     7
 10
71.329603000000006
 20
29.804915000000001
 30
0.0
 40
2.084813
 50
90.004733999999999
 51
180.00474399999999
  0
ARC
  5
E6
  8
_________2
 62
     7
 10
71.409106000000008
 20
29.884775999999999
 30
0.0
 40
2.1657950000000001
 50
182.11776599999999
 51
267.89173399999999
  0
ARC
  5
E7
  8
_________2
 62
     7
 10
71.249459000000002
 20
29.885429999999999
 30
0.0
 40
2.1664590000000001
 50
272.11546800000002
 51
357.86560400000002
  0
TEXT
  5
E8
  8
_________2
 62
     7
 10
104.605
 20
1.6794899999999999
 30
0.0
 40
3.0923400000000001
  1
図番
 41
0.5
  0
LINE
  5
E9
  8
_________2
 62
     7
 10
103.55
 20
5.9087199999999989
 30
0.0
 11
183.55099999999999
 21
5.9087199999999989
 31
0.0
  0
TEXT
  5
EA
  8
_________2
 62
     7
 10
104.605
 20
11.6793
 30
0.0
 40
3.0923400000000001
  1
品番
 41
0.5
  0
TEXT
  5
EB
  8
_________2
 62
     7
 10
104.605
 20
31.818100000000001
 30
0.0
 40
3.0923400000000001
  1
名称
 41
0.5
  0
TEXT
  5
EC
  8
_________2
 62
     7
 10
91.845058333333341
 20
26.821999999999999
 30
0.0
 40
3.6545800000000002
  1
mm
 41
0.5
 72
     1
 11
93.367800000000003
 21
26.821999999999999
 31
0.0
  0
TEXT
  5
ED
  8
_________2
 62
     7
 10
85.643199999999993
 20
31.818100000000001
 30
0.0
 40
3.0923400000000001
  1
単位
 41
0.5
  0
TEXT
  5
EE
  8
_________2
 62
     7
 10
85.643199999999993
 20
19.410799999999998
 30
0.0
 40
3.0923400000000001
  1
尺度
 41
0.5
  0
TEXT
  5
EF
  8
_________2
 62
     7
 10
90.853307000000001
 20
13.2179
 30
0.0
 40
3.6545800000000002
  1
1 ： 1
 41
0.5
 72
     1
 11
93.959699999999998
 21
13.2179
 31
0.0
  0
TEXT
  5
F0
  8
_________2
 62
     7
 10
136.33455000000001
 20
9.1078600000000005
 30
0.0
 40
3.9357000000000002
  1
CET8040R
 41
0.5
 72
     1
 11
143.55000000000001
 21
9.1078600000000005
 31
0.0
  0
TEXT
  5
F1
  8
_________2
 62
     7
 10
136.33455000000001
 20
-0.8926299999999999
 30
0.0
 40
3.9357000000000002
  1
CET8040R
 41
0.5
 72
     1
 11
143.55000000000001
 21
-0.8926299999999999
 31
0.0
  0
TEXT
  5
F2
  8
_________2
 62
     7
 10
109.179
 20
24.2257
 30
0.0
 40
3.9357000000000002
  1
C1 シャワーホルダー
 41
0.5
  0
TEXT
  5
F3
  8
_________2
 62
     7
 10
39.425300333333333
 20
13.603
 30
0.0
 40
3.6545800000000002
  1
井田
 41
0.5
 72
     1
 11
41.313499999999998
 21
13.603
 31
0.0
  0
TEXT
  5
F4
  8
_________2
 62
     7
 10
20.851000333333339
 20
13.603
 30
0.0
 40
3.6545800000000002
  1
福田
 41
0.5
 72
     1
 11
22.7392
 21
13.603
 31
0.0
  0
TEXT
  5
F5
  8
_________2
 62
     7
 10
67.785399999999996
 20
13.2179
 30
0.0
 40
3.6545800000000002
  1
18.06.01
 41
0.5
  0
TEXT
  5
F6
  8
_________2
 62
     7
 10
66.593100000000007
 20
19.410799999999998
 30
0.0
 40
3.0923400000000001
  1
日付
 41
0.5
  0
TEXT
  5
F7
  8
_________2
 62
     7
 10
29.639399999999998
 20
19.410799999999998
 30
0.0
 40
3.0923400000000001
  1
検図
 41
0.5
  0
TEXT
  5
F8
  8
_________2
 62
     7
 10
18.021100000000001
 20
5.21143
 30
0.0
 40
3.0923400000000001
  1
備考
 41
0.5
  0
TEXT
  5
F9
  8
_________2
 62
     7
 10
18.021100000000001
 20
19.410799999999998
 30
0.0
 40
3.0923400000000001
  1
製図
 41
0.5
  0
TEXT
  5
FA
  8
_________2
 62
     7
 10
23.788465333333338
 20
27.936800000000002
 30
0.0
 40
4.4979399999999989
  1
セラトレーディング株式会社
 41
0.5
 72
     1
 11
41.180500000000002
 21
27.936800000000002
 31
0.0
  0
LINE
  5
FB
  8
_________2
 62
     7
 10
183.55099999999999
 20
-4.0910799999999998
 30
0.0
 11
17.049499999999998
 21
-4.0910799999999998
 31
0.0
  0
LINE
  5
FC
  8
_________2
 62
     7
 10
17.049499999999998
 20
-4.0910799999999998
 30
0.0
 11
17.049499999999998
 21
258.911
 31
0.0
  0
LINE
  5
FD
  8
_________2
 62
     7
 10
17.049499999999998
 20
258.911
 30
0.0
 11
183.55099999999999
 21
258.911
 31
0.0
  0
LINE
  5
FE
  8
_________2
 62
     7
 10
183.55099999999999
 20
258.911
 30
0.0
 11
183.55099999999999
 21
-4.0910799999999998
 31
0.0
  0
LINE
  5
FF
  8
_________2
 62
     7
 10
65.549599999999998
 20
9.4089600000000004
 30
0.0
 11
65.549599999999998
 21
35.908799999999999
 31
0.0
  0
LINE
  5
100
  8
_________2
 62
     7
 10
84.549700000000016
 20
9.4089600000000004
 30
0.0
 11
84.549700000000016
 21
35.908799999999999
 31
0.0
  0
LINE
  5
101
  8
_________2
 62
     7
 10
103.55
 20
-4.0910799999999998
 30
0.0
 11
103.55
 21
35.908799999999999
 31
0.0
  0
LINE
  5
102
  8
_________2
 62
     7
 10
28.549299999999999
 20
9.4089600000000004
 30
0.0
 11
28.549299999999999
 21
23.409199999999998
 31
0.0
  0
LINE
  5
103
  8
_________2
 62
     7
 10
17.049499999999998
 20
9.4089600000000004
 30
0.0
 11
103.55
 21
9.4089600000000004
 31
0.0
  0
LINE
  5
104
  8
_________2
 62
     7
 10
17.049499999999998
 20
23.409199999999998
 30
0.0
 11
103.55
 21
23.409199999999998
 31
0.0
  0
LINE
  5
105
  8
_________2
 62
     7
 10
103.55
 20
15.9085
 30
0.0
 11
183.55099999999999
 21
15.9085
 31
0.0
  0
LINE
  5
106
  8
_________2
 62
     7
 10
17.049499999999998
 20
35.908799999999999
 30
0.0
 11
183.55099999999999
 21
35.908799999999999
 31
0.0
  0
ENDSEC
  0
EOF
