  0
SECTION
  2
HEADER
  9
$ACADVER
  1
AC1009
  9
$INSBASE
 10
0.0
 20
0.0
 30
0.0
  9
$EXTMIN
 10
-4.70052
 20
-21.071400000000001
 30
0.0
  9
$EXTMAX
 10
205.30099999999999
 20
275.93000000000001
 30
0.0
  9
$LIMMIN
 10
0.0
 20
0.0
  9
$LIMMAX
 10
12.0
 20
9.0
  9
$ORTHOMODE
 70
     0
  9
$REGENMODE
 70
     1
  9
$FILLMODE
 70
     1
  9
$QTEXTMODE
 70
     0
  9
$MIRRTEXT
 70
     1
  9
$DRAGMODE
 70
     2
  9
$LTSCALE
 40
1.0
  9
$OSMODE
 70
    37
  9
$ATTMODE
 70
     1
  9
$TEXTSIZE
 40
0.0
  9
$TRACEWID
 40
0.05
  9
$TEXTSTYLE
  7
STANDARD
  9
$CLAYER
  8
0
  9
$CELTYPE
  6
CONTINUOUS
  9
$CECOLOR
 62
   256
  9
$DIMSCALE
 40
1.0
  9
$DIMASZ
 40
0.18
  9
$DIMEXO
 40
0.0625
  9
$DIMDLI
 40
0.38
  9
$DIMRND
 40
0.0
  9
$DIMDLE
 40
0.0
  9
$DIMEXE
 40
0.18
  9
$DIMTP
 40
0.0
  9
$DIMTM
 40
0.0
  9
$DIMTXT
 40
0.18
  9
$DIMCEN
 40
0.09
  9
$DIMTSZ
 40
0.0
  9
$DIMTOL
 70
     0
  9
$DIMLIM
 70
     0
  9
$DIMTIH
 70
     1
  9
$DIMTOH
 70
     1
  9
$DIMSE1
 70
     0
  9
$DIMSE2
 70
     0
  9
$DIMTAD
 70
     0
  9
$DIMZIN
 70
     0
  9
$DIMBLK
  1

  9
$DIMASO
 70
     1
  9
$DIMSHO
 70
     1
  9
$DIMPOST
  1

  9
$DIMAPOST
  1

  9
$DIMALT
 70
     0
  9
$DIMALTD
 70
     2
  9
$DIMALTF
 40
25.399999999999999
  9
$DIMLFAC
 40
1.0
  9
$DIMTOFL
 70
     0
  9
$DIMTVP
 40
0.0
  9
$DIMTIX
 70
     0
  9
$DIMSOXD
 70
     0
  9
$DIMSAH
 70
     0
  9
$DIMBLK1
  1

  9
$DIMBLK2
  1

  9
$DIMSTYLE
  2
STANDARD
  9
$DIMCLRD
 70
     0
  9
$DIMCLRE
 70
     0
  9
$DIMCLRT
 70
     0
  9
$DIMTFAC
 40
1.0
  9
$DIMGAP
 40
0.09
  9
$LUNITS
 70
     2
  9
$LUPREC
 70
     4
  9
$SKETCHINC
 40
0.1
  9
$FILLETRAD
 40
0.0
  9
$AUNITS
 70
     0
  9
$AUPREC
 70
     0
  9
$MENU
  1
.
  9
$ELEVATION
 40
0.0
  9
$PELEVATION
 40
0.0
  9
$THICKNESS
 40
0.0
  9
$LIMCHECK
 70
     0
  9
$BLIPMODE
 70
     0
  9
$CHAMFERA
 40
0.0
  9
$CHAMFERB
 40
0.0
  9
$SKPOLY
 70
     0
  9
$TDCREATE
 40
2444972.375
  9
$TDUPDATE
 40
2457449.248657546
  9
$TDINDWG
 40
0.0000273495
  9
$TDUSRTIMER
 40
0.0000273495
  9
$USRTIMER
 70
     1
  9
$ANGBASE
 50
0.0
  9
$ANGDIR
 70
     0
  9
$PDMODE
 70
     0
  9
$PDSIZE
 40
0.0
  9
$PLINEWID
 40
0.0
  9
$COORDS
 70
     1
  9
$SPLFRAME
 70
     0
  9
$SPLINETYPE
 70
     6
  9
$SPLINESEGS
 70
     8
  9
$ATTDIA
 70
     1
  9
$ATTREQ
 70
     1
  9
$HANDLING
 70
     1
  9
$HANDSEED
  5
206
  9
$SURFTAB1
 70
     6
  9
$SURFTAB2
 70
     6
  9
$SURFTYPE
 70
     6
  9
$SURFU
 70
     6
  9
$SURFV
 70
     6
  9
$UCSNAME
  2

  9
$UCSORG
 10
0.0
 20
0.0
 30
0.0
  9
$UCSXDIR
 10
1.0
 20
0.0
 30
0.0
  9
$UCSYDIR
 10
0.0
 20
1.0
 30
0.0
  9
$PUCSNAME
  2

  9
$PUCSORG
 10
0.0
 20
0.0
 30
0.0
  9
$PUCSXDIR
 10
1.0
 20
0.0
 30
0.0
  9
$PUCSYDIR
 10
0.0
 20
1.0
 30
0.0
  9
$USERI1
 70
     0
  9
$USERI2
 70
     0
  9
$USERI3
 70
     0
  9
$USERI4
 70
     0
  9
$USERI5
 70
     0
  9
$USERR1
 40
0.0
  9
$USERR2
 40
0.0
  9
$USERR3
 40
0.0
  9
$USERR4
 40
0.0
  9
$USERR5
 40
0.0
  9
$WORLDVIEW
 70
     1
  9
$SHADEDGE
 70
     3
  9
$SHADEDIF
 70
    70
  9
$TILEMODE
 70
     1
  9
$MAXACTVP
 70
    48
  9
$PLIMCHECK
 70
     0
  9
$PEXTMIN
 10
1.0000000000000000E+020
 20
1.0000000000000000E+020
 30
1.0000000000000000E+020
  9
$PEXTMAX
 10
-1.0000000000000000E+020
 20
-1.0000000000000000E+020
 30
-1.0000000000000000E+020
  9
$PLIMMIN
 10
0.0
 20
0.0
  9
$PLIMMAX
 10
12.0
 20
9.0
  9
$UNITMODE
 70
     0
  9
$VISRETAIN
 70
     1
  9
$PLINEGEN
 70
     0
  9
$PSLTSCALE
 70
     1
  0
ENDSEC
  0
SECTION
  2
TABLES
  0
TABLE
  2
VPORT
 70
     1
  0
VPORT
  2
*ACTIVE
 70
     0
 10
0.0
 20
0.0
 11
1.0
 21
1.0
 12
165.72783662617491
 22
127.4293
 13
0.0
 23
0.0
 14
1.0
 24
1.0
 15
0.0
 25
0.0
 16
0.0
 26
0.0
 36
1.0
 17
0.0
 27
0.0
 37
0.0
 40
283.52786288599168
 41
2.1001926782273599
 42
50.0
 43
0.0
 44
0.0
 50
0.0
 51
0.0
 71
     0
 72
   100
 73
     1
 74
     1
 75
     0
 76
     0
 77
     0
 78
     0
  0
ENDTAB
  0
TABLE
  2
LTYPE
 70
     2
  0
LTYPE
  2
CONTINUOUS
 70
     0
  3
Solid line
 72
    65
 73
     0
 40
0.0
  0
LTYPE
  2
AIGENLINE001
 70
     0
  3
generate AI->DXF Converter
 72
    65
 73
     4
 40
5.8561449999999988
 49
3.5278
 49
-0.776115
 49
0.776115
 49
-0.776115
  0
ENDTAB
  0
TABLE
  2
LAYER
 70
     2
  0
LAYER
  2
0
 70
     0
 62
     7
  6
CONTINUOUS
  0
LAYER
  2
_________2
 70
     0
 62
     7
  6
CONTINUOUS
  0
ENDTAB
  0
TABLE
  2
STYLE
 70
     1
  0
STYLE
  2
STANDARD
 70
     0
 40
0.0
 41
0.0
 50
0.0
 71
     0
 42
0.0
  3
TXT
  4
EXTFONT.SHX
  0
ENDTAB
  0
TABLE
  2
VIEW
 70
     0
  0
ENDTAB
  0
TABLE
  2
UCS
 70
     0
  0
ENDTAB
  0
TABLE
  2
APPID
 70
     3
  0
APPID
  2
ACAD
 70
     0
  0
APPID
  2
ACAD_NAV_VCDISPLAY
 70
     0
  0
APPID
  2
ACAD_MLEADERVER
 70
     0
  0
ENDTAB
  0
TABLE
  2
DIMSTYLE
 70
     1
  0
DIMSTYLE
  2
STANDARD
 70
     0
  3

  4

  5

  6

  7

 40
1.0
 41
0.18
 42
0.0625
 43
0.38
 44
0.18
 45
0.0
 46
0.0
 47
0.0
 48
0.0
140
0.18
141
0.09
142
0.0
143
25.399999999999999
144
1.0
145
0.0
146
1.0
147
0.09
 71
     0
 72
     0
 73
     1
 74
     1
 75
     0
 76
     0
 77
     0
 78
     0
170
     0
171
     2
172
     0
173
     0
174
     0
175
     0
176
     0
177
     0
178
     0
  0
ENDTAB
  0
ENDSEC
  0
SECTION
  2
BLOCKS
  0
BLOCK
  8
0
  2
$MODEL_SPACE
 70
     0
 10
0.0
 20
0.0
 30
0.0
  3
$MODEL_SPACE
  1

  0
ENDBLK
  5
1A
  8
0
  0
BLOCK
 67
     1
  8
0
  2
$PAPER_SPACE
 70
     0
 10
0.0
 20
0.0
 30
0.0
  3
$PAPER_SPACE
  1

  0
ENDBLK
  5
17
 67
     1
  8
0
  0
ENDSEC
  0
SECTION
  2
ENTITIES
  0
TEXT
  5
22
  8
0
 62
     7
 10
79.856999999999999
 20
58.417499999999997
 30
0.0
 40
3.0923400000000001
  1
G1/2
 41
0.5
  0
TEXT
  5
23
  8
0
 62
     7
 10
114.84252600000001
 20
159.851
 30
0.0
 40
3.0923400000000001
  1
L＝1785
 41
0.5
 72
     2
 11
123.398
 21
159.851
 31
0.0
  0
TEXT
  5
24
  8
0
 62
     7
 10
81.980400000000003
 20
232.77099999999999
 30
0.0
 40
3.0923400000000001
  1
G1/2
 41
0.5
  0
LINE
  5
25
  8
0
 62
     7
 10
105.051
 20
233.13300000000001
 30
0.0
 11
95.551000000000016
 21
233.13300000000001
 31
0.0
  0
LINE
  5
26
  8
0
 62
     7
 10
95.551000000000016
 20
233.13300000000001
 30
0.0
 11
95.551000000000016
 21
234.13300000000001
 31
0.0
  0
LINE
  5
27
  8
0
 62
     7
 10
95.551000000000016
 20
234.13300000000001
 30
0.0
 11
105.051
 21
234.13300000000001
 31
0.0
  0
LINE
  5
28
  8
0
 62
     7
 10
105.051
 20
234.13300000000001
 30
0.0
 11
105.051
 21
233.13300000000001
 31
0.0
  0
LINE
  5
29
  8
0
 62
     7
 10
105.051
 20
57.852499999999999
 30
0.0
 11
95.551000000000016
 21
57.852499999999999
 31
0.0
  0
LINE
  5
2A
  8
0
 62
     7
 10
95.551000000000016
 20
57.852499999999999
 30
0.0
 11
95.551000000000016
 21
58.852200000000003
 31
0.0
  0
LINE
  5
2B
  8
0
 62
     7
 10
95.551000000000016
 20
58.852200000000003
 30
0.0
 11
105.051
 21
58.852200000000003
 31
0.0
  0
LINE
  5
2C
  8
0
 62
     7
 10
105.051
 20
58.852200000000003
 30
0.0
 11
105.051
 21
57.852499999999999
 31
0.0
  0
LINE
  5
2D
  8
0
 62
     7
 10
88.747900000000001
 20
57.717399999999998
 30
0.0
 11
79.856999999999999
 21
57.717399999999998
 31
0.0
  0
LINE
  5
2E
  8
0
 62
     7
 10
123.398
 20
159.15100000000001
 30
0.0
 11
111.782
 21
159.15100000000001
 31
0.0
  0
LINE
  5
2F
  8
0
 62
     7
 10
90.475499999999997
 20
232.071
 30
0.0
 11
81.980400000000003
 21
232.071
 31
0.0
  0
LINE
  5
30
  8
0
  6
AIGENLINE001
 62
     7
 10
100.301
 20
237.65899999999999
 30
0.0
 11
100.301
 21
55.345799999999997
 31
0.0
  0
ARC
  5
31
  8
0
 62
     7
 10
94.193398999999999
 20
224.72720699999999
 30
0.0
 40
0.258599
 50
92.160714999999982
 51
178.313424
  0
LINE
  5
32
  8
0
 62
     7
 10
93.934899999999985
 20
224.73500000000001
 30
0.0
 11
93.934899999999985
 21
224.721
 31
0.0
  0
ARC
  5
33
  8
0
 62
     7
 10
94.538764999999984
 20
219.24412899999999
 30
0.0
 40
0.25832
 50
185.15761499999991
 51
268.10624799999999
  0
LINE
  5
34
  8
0
 62
     7
 10
93.934899999999985
 20
224.721
 30
0.0
 11
94.279799999999994
 21
219.221
 31
0.0
  0
LINE
  5
35
  8
0
 62
     7
 10
94.530199999999994
 20
218.98599999999999
 30
0.0
 11
100.301
 21
218.98599999999999
 31
0.0
  0
ARC
  5
36
  8
0
 62
     7
 10
106.410993
 20
224.72873999999999
 30
0.0
 40
0.256833
 50
358.35830900000002
 51
84.983194999999995
  0
ARC
  5
37
  8
0
 62
     7
 10
106.42151699999999
 20
224.919285
 30
0.0
 40
0.066386
 50
79.641840000000002
 51
92.186908000000003
  0
ARC
  5
38
  8
0
 62
     7
 10
106.063665
 20
219.246239
 30
0.0
 40
0.260435
 50
271.92312600000002
 51
354.41835500000002
  0
LINE
  5
39
  8
0
 62
     7
 10
106.66800000000001
 20
224.721
 30
0.0
 11
106.32299999999999
 21
219.221
 31
0.0
  0
LINE
  5
3A
  8
0
 62
     7
 10
106.072
 20
218.98599999999999
 30
0.0
 11
100.301
 21
218.98599999999999
 31
0.0
  0
LINE
  5
3B
  8
0
 62
     7
 10
94.183599999999984
 20
224.98599999999999
 30
0.0
 11
106.419
 21
224.98599999999999
 31
0.0
  0
ARC
  5
3C
  8
0
 62
     7
 10
95.474909999999994
 20
198.493438
 30
0.0
 40
0.257035
 50
183.629346
 51
268.22658200000001
  0
ARC
  5
3D
  8
0
 62
     7
 10
95.474909999999994
 20
198.493438
 30
0.0
 40
0.257035
 50
183.629346
 51
268.22658200000001
  0
LINE
  5
3E
  8
0
 62
     7
 10
94.436000000000007
 20
218.726
 30
0.0
 11
95.218400000000003
 21
198.477
 31
0.0
  0
LINE
  5
3F
  8
0
 62
     7
 10
100.301
 20
198.23699999999999
 30
0.0
 11
95.467000000000013
 21
198.23699999999999
 31
0.0
  0
LINE
  5
40
  8
0
 62
     7
 10
100.301
 20
73.514300000000006
 30
0.0
 11
94.804500000000004
 21
73.514300000000006
 31
0.0
  0
LINE
  5
41
  8
0
 62
     7
 10
100.301
 20
73.514300000000006
 30
0.0
 11
94.806200000000004
 21
73.514300000000006
 31
0.0
  0
ARC
  5
42
  8
0
 62
     7
 10
110.546392
 20
69.844771999999992
 30
0.0
 40
16.455268
 50
177.04360500000001
 51
178.53700900000001
  0
ARC
  5
43
  8
0
 62
     7
 10
99.813528000000005
 20
70.264506000000011
 30
0.0
 40
5.7166199999999989
 50
171.48792800000001
 51
175.696654
  0
ARC
  5
44
  8
0
 62
     7
 10
101.46737299999999
 20
69.881493999999989
 30
0.0
 40
7.410150999999999
 50
167.37598199999999
 51
170.45181199999999
  0
ARC
  5
45
  8
0
 62
     7
 10
97.953131999999997
 20
70.620522999999991
 30
0.0
 40
3.819637999999999
 50
161.08681300000001
 51
166.672729
  0
ARC
  5
46
  8
0
 62
     7
 10
97.993797999999998
 20
70.586202999999998
 30
0.0
 40
3.8692809999999991
 50
155.848029
 51
160.801232
  0
ARC
  5
47
  8
0
 62
     7
 10
96.997574000000014
 20
70.950322
 30
0.0
 40
2.8122899999999991
 50
148.37474900000001
 51
154.312365
  0
ARC
  5
48
  8
0
 62
     7
 10
95.916179000000014
 20
71.618535999999992
 30
0.0
 40
1.5411019999999991
 50
139.06648100000001
 51
148.44686400000001
  0
ARC
  5
49
  8
0
 62
     7
 10
95.52873000000001
 20
71.981689000000003
 30
0.0
 40
1.010672999999999
 50
127.905429
 51
140.228814
  0
ARC
  5
4A
  8
0
 62
     7
 10
95.461877000000001
 20
72.072302000000008
 30
0.0
 40
0.8981100000000001
 50
115.76709099999999
 51
128.09172799999999
  0
ARC
  5
4B
  8
0
 62
     7
 10
95.321195999999986
 20
72.354737999999998
 30
0.0
 40
0.5826140000000001
 50
98.189944999999994
 51
115.38221
  0
ARC
  5
4C
  8
0
 62
     7
 10
95.321743999999995
 20
72.437163999999996
 30
0.0
 40
0.501257
 50
80.405777999999984
 51
99.594202000000024
  0
ARC
  5
4D
  8
0
 62
     7
 10
95.342320999999998
 20
72.419561999999999
 30
0.0
 40
0.515707
 50
63.506413000000009
 51
82.986731999999989
  0
ARC
  5
4E
  8
0
 62
     7
 10
95.297729000000004
 20
72.258829000000006
 30
0.0
 40
0.6801960000000001
 50
49.901401999999997
 51
66.185556000000005
  0
ARC
  5
4F
  8
0
 62
     7
 10
95.191913999999997
 20
72.052421999999993
 30
0.0
 40
0.9077309999999998
 50
39.371647000000003
 51
53.185766000000001
  0
ARC
  5
50
  8
0
 62
     7
 10
94.703066000000007
 20
71.600385000000003
 30
0.0
 40
1.5728749999999989
 50
31.618328999999999
 51
40.805092000000002
  0
ARC
  5
51
  8
0
 62
     7
 10
94.510158999999987
 20
71.46271999999999
 30
0.0
 40
1.8093900000000001
 50
28.398790999999999
 51
32.128028999999998
  0
ARC
  5
52
  8
0
 62
     7
 10
93.185475999999994
 20
70.736395999999985
 30
0.0
 40
3.320114999999999
 50
25.568989000000009
 51
28.552215000000011
  0
ARC
  5
53
  8
0
 62
     7
 10
93.519739999999999
 20
70.933479000000005
 30
0.0
 40
2.9337169999999988
 50
18.381395000000001
 51
24.914439000000002
  0
ARC
  5
54
  8
0
 62
     7
 10
92.681634000000003
 20
70.614412999999999
 30
0.0
 40
3.8298709999999989
 50
13.384931
 51
18.957346999999999
  0
ARC
  5
55
  8
0
 62
     7
 10
91.818021999999985
 20
70.403199999999998
 30
0.0
 40
4.718920999999999
 50
8.6223530000000004
 51
13.452396
  0
ARC
  5
56
  8
0
 62
     7
 10
91.668154999999999
 20
70.354623000000004
 30
0.0
 40
4.8744440000000004
 50
3.9860310000000001
 51
8.9227860000000003
  0
ARC
  5
57
  8
0
 62
     7
 10
87.233230999999989
 20
70.12010699999999
 30
0.0
 40
9.3152380000000008
 50
0.890553
 51
3.528794
  0
ARC
  5
58
  8
0
 62
     7
 10
83.24284200000001
 20
70.495543999999995
 30
0.0
 40
13.306502
 50
357.63845700000002
 51
359.00678399999998
  0
ARC
  5
59
  8
0
 62
     7
 10
91.548229000000006
 20
70.198634999999996
 30
0.0
 40
4.996141999999999
 50
353.35682200000002
 51
357.11589600000002
  0
ARC
  5
5A
  8
0
 62
     7
 10
91.266633999999996
 20
70.227372000000003
 30
0.0
 40
5.2791719999999991
 50
349.77143699999999
 51
353.40058299999998
  0
ARC
  5
5B
  8
0
 62
     7
 10
91.708827999999997
 20
70.143940999999998
 30
0.0
 40
4.829191999999999
 50
345.73956299999998
 51
349.813941
  0
ARC
  5
5C
  8
0
 62
     7
 10
91.994543999999976
 20
70.116311999999994
 30
0.0
 40
4.5456839999999987
 50
340.88055200000002
 51
345.18996400000009
  0
ARC
  5
5D
  8
0
 62
     7
 10
92.815057999999993
 20
69.88381600000001
 30
0.0
 40
3.6946050000000001
 50
335.09051199999999
 51
340.119415
  0
ARC
  5
5E
  8
0
 62
     7
 10
93.971777000000003
 20
69.402904000000007
 30
0.0
 40
2.44347
 50
327.14373799999998
 51
333.89410400000003
  0
ARC
  5
5F
  8
0
 62
     7
 10
94.825961000000007
 20
68.835195999999996
 30
0.0
 40
1.417989999999999
 50
317.73748599999999
 51
327.68806499999999
  0
ARC
  5
60
  8
0
 62
     7
 10
95.045881000000008
 20
68.617167000000009
 30
0.0
 40
1.108684
 50
307.52605
 51
318.43278800000002
  0
ARC
  5
61
  8
0
 62
     7
 10
95.273741000000015
 20
68.312572000000003
 30
0.0
 40
0.7283390000000001
 50
293.273639
 51
307.9056490000001
  0
ARC
  5
62
  8
0
 62
     7
 10
95.327178000000004
 20
68.145848999999984
 30
0.0
 40
0.554322
 50
277.52545300000003
 51
295.00903099999999
  0
ARC
  5
63
  8
0
 62
     7
 10
95.323183999999983
 20
68.173006999999998
 30
0.0
 40
0.581769
 50
261.23998499999999
 51
277.56517100000002
  0
ARC
  5
64
  8
0
 62
     7
 10
95.342415999999986
 20
68.249785000000003
 30
0.0
 40
0.660621
 50
245.785178
 51
260.60554800000011
  0
ARC
  5
65
  8
0
 62
     7
 10
95.376986000000002
 20
68.321850999999995
 30
0.0
 40
0.740528
 50
231.406128
 51
245.63272699999999
  0
ARC
  5
66
  8
0
 62
     7
 10
95.517953000000006
 20
68.524231999999998
 30
0.0
 40
0.986772
 50
220.37586999999999
 51
232.33909199999999
  0
ARC
  5
67
  8
0
 62
     7
 10
95.834805000000003
 20
68.854392000000004
 30
0.0
 40
1.442772999999999
 50
213.11308399999999
 51
222.21340000000001
  0
ARC
  5
68
  8
0
 62
     7
 10
96.340479000000002
 20
69.210152000000008
 30
0.0
 40
2.0607859999999998
 50
206.36533900000001
 51
213.717422
  0
ARC
  5
69
  8
0
 62
     7
 10
97.276275999999996
 20
69.660946999999993
 30
0.0
 40
3.0994589999999991
 50
200.26401300000001
 51
206.14949100000001
  0
ARC
  5
6A
  8
0
 62
     7
 10
97.818696000000003
 20
69.849800000000002
 30
0.0
 40
3.6737309999999992
 50
194.373446
 51
200.097104
  0
ARC
  5
6B
  8
0
 62
     7
 10
99.191424999999995
 20
70.222426999999996
 30
0.0
 40
5.0960330000000003
 50
190.45712800000001
 51
194.60052400000001
  0
ARC
  5
6C
  8
0
 62
     7
 10
99.050736999999998
 20
70.175368999999989
 30
0.0
 40
4.9491839999999989
 50
186.24678299999999
 51
190.21699699999999
  0
ARC
  5
6D
  8
0
 62
     7
 10
101.01018500000001
 20
70.346694999999997
 30
0.0
 40
6.9157729999999988
 50
183.23686099999989
 51
185.891367
  0
ARC
  5
6E
  8
0
 62
     7
 10
100.19827100000001
 20
70.287479000000005
 30
0.0
 40
6.1018249999999989
 50
180.21213399999999
 51
183.11217400000001
  0
ARC
  5
6F
  8
0
 62
     7
 10
101.57527
 20
70.264888999999997
 30
0.0
 40
7.5101729999999991
 50
154.36279099999999
 51
205.63720900000001
  0
ARC
  5
70
  8
0
 62
     7
 10
100.66616500000001
 20
75.652497999999994
 30
0.0
 40
8.0699679999999994
 50
265.70947999999999
 51
267.40752300000003
  0
ARC
  5
71
  8
0
 62
     7
 10
100.244586
 20
69.689629000000011
 30
0.0
 40
2.0924279999999991
 50
261.58493700000002
 51
265.0055089999999
  0
ARC
  5
72
  8
0
 62
     7
 10
100.233525
 20
69.559631999999993
 30
0.0
 40
1.9622289999999989
 50
250.617718
 51
261.34895399999999
  0
ARC
  5
73
  8
0
 62
     7
 10
100.389399
 20
70.059803000000002
 30
0.0
 40
2.485854999999999
 50
242.541304
 51
251.05451600000001
  0
ARC
  5
74
  8
0
 62
     7
 10
100.534425
 20
70.241591999999983
 30
0.0
 40
2.714407
 50
233.64438000000001
 51
241.594292
  0
ARC
  5
75
  8
0
 62
     7
 10
100.34886899999999
 20
69.987380000000002
 30
0.0
 40
2.39968
 50
224.35412400000001
 51
233.61435800000001
  0
ARC
  5
76
  8
0
 62
     7
 10
100.537274
 20
70.175211000000004
 30
0.0
 40
2.6657090000000001
 50
215.74071000000001
 51
224.40986100000001
  0
ARC
  5
77
  8
0
 62
     7
 10
100.55847900000001
 20
70.181894999999997
 30
0.0
 40
2.6868340000000002
 50
206.57571100000001
 51
215.59227000000001
  0
ARC
  5
78
  8
0
 62
     7
 10
100.83249000000001
 20
70.322502999999998
 30
0.0
 40
2.9948009999999989
 50
198.25652700000001
 51
206.63626500000001
  0
ARC
  5
79
  8
0
 62
     7
 10
101.24956400000001
 20
70.378111000000004
 30
0.0
 40
3.4091900000000002
 50
189.484632
 51
196.94805299999999
  0
ARC
  5
7A
  8
0
 62
     7
 10
100.66522000000001
 20
70.255318000000003
 30
0.0
 40
2.812708999999999
 50
179.80500599999999
 51
188.97894299999999
  0
ARC
  5
7B
  8
0
 62
     7
 10
100.741826
 20
70.266521999999995
 30
0.0
 40
2.8892989999999998
 50
171.14314200000001
 51
180.03240299999999
  0
ARC
  5
7C
  8
0
 62
     7
 10
101.076933
 20
70.194687000000002
 30
0.0
 40
3.2315290000000001
 50
162.889329
 51
170.79946799999999
  0
ARC
  5
7D
  8
0
 62
     7
 10
100.762449
 20
70.231720999999993
 30
0.0
 40
2.9206269999999992
 50
153.20056400000001
 51
161.768462
  0
ARC
  5
7E
  8
0
 62
     7
 10
100.579854
 20
70.338111999999995
 30
0.0
 40
2.709705
 50
144.508702
 51
153.46777900000001
  0
ARC
  5
7F
  8
0
 62
     7
 10
100.472441
 20
70.410790000000006
 30
0.0
 40
2.580057
 50
135.47452999999999
 51
144.43793199999999
  0
ARC
  5
80
  8
0
 62
     7
 10
100.63830400000001
 20
70.206553999999997
 30
0.0
 40
2.8416739999999998
 50
127.07084999999999
 51
134.883736
  0
ARC
  5
81
  8
0
 62
     7
 10
100.32122699999999
 20
70.606362000000004
 30
0.0
 40
2.3315669999999988
 50
117.541016
 51
126.77626600000001
  0
ARC
  5
82
  8
0
 62
     7
 10
100.255295
 20
70.780766
 30
0.0
 40
2.1465549999999989
 50
108.271102
 51
118.133077
  0
ARC
  5
83
  8
0
 62
     7
 10
100.315681
 20
70.690568999999996
 30
0.0
 40
2.2513239999999999
 50
99.647924000000003
 51
109.01078099999999
  0
ARC
  5
84
  8
0
 62
     7
 10
100.19194299999999
 20
71.222656000000001
 30
0.0
 40
1.70634
 50
94.73451
 51
98.546067000000036
  0
ARC
  5
85
  8
0
 62
     7
 10
100.644503
 20
65.525981000000002
 30
0.0
 40
7.4209559999999994
 50
92.651942000000005
 51
94.586404000000002
  0
LINE
  5
86
  8
0
 62
     7
 10
100.301
 20
67.015500000000003
 30
0.0
 11
94.804500000000004
 21
67.015500000000003
 31
0.0
  0
LINE
  5
87
  8
0
 62
     7
 10
96.351100000000002
 20
80.563400000000001
 30
0.0
 11
100.301
 21
80.563400000000001
 31
0.0
  0
LINE
  5
88
  8
0
 62
     7
 10
96.712400000000002
 20
80.563400000000001
 30
0.0
 11
96.712400000000002
 21
141.03999999999999
 31
0.0
  0
LINE
  5
89
  8
0
 62
     7
 10
96.351100000000002
 20
80.563400000000001
 30
0.0
 11
96.351100000000002
 21
73.614199999999997
 31
0.0
  0
ARC
  5
8A
  8
0
 62
     7
 10
130.083957
 20
102.81296399999999
 30
0.0
 40
50.743896999999997
 50
130.46577400000001
 51
131.12068099999999
  0
ARC
  5
8B
  8
0
 62
     7
 10
104.010828
 20
133.342568
 30
0.0
 40
10.595891999999999
 50
126.40333
 51
130.34278900000001
  0
ARC
  5
8C
  8
0
 62
     7
 10
100.679551
 20
137.80517800000001
 30
0.0
 40
5.027228
 50
120.34049
 51
126.02948000000001
  0
ARC
  5
8D
  8
0
 62
     7
 10
99.572999999999993
 20
139.68040400000001
 30
0.0
 40
2.849883999999999
 50
108.04662500000001
 51
120.184719
  0
ARC
  5
8E
  8
0
 62
     7
 10
99.185218000000006
 20
140.781317
 30
0.0
 40
1.683227
 50
88.100666000000004
 51
107.105322
  0
ARC
  5
8F
  8
0
 62
     7
 10
99.169967
 20
141.10063
 30
0.0
 40
1.3648400000000001
 50
74.796775999999994
 51
87.016447000000014
  0
ARC
  5
90
  8
0
 62
     7
 10
99.092933000000016
 20
140.842083
 30
0.0
 40
1.6345529999999999
 50
65.532015999999999
 51
74.567655999999999
  0
ARC
  5
91
  8
0
 62
     7
 10
98.534409999999994
 20
139.570322
 30
0.0
 40
3.0234879999999991
 50
57.952277000000002
 51
65.880341000000001
  0
ARC
  5
92
  8
0
 62
     7
 10
96.295376000000005
 20
135.827009
 30
0.0
 40
7.3849619999999989
 50
57.151307999999979
 51
58.638731999999997
  0
ARC
  5
93
  8
0
 62
     7
 10
129.48719299999999
 20
104.529963
 30
0.0
 40
49.836176999999992
 50
130.45420200000001
 51
131.120981
  0
ARC
  5
94
  8
0
 62
     7
 10
104.00564300000001
 20
134.381044
 30
0.0
 40
10.588317999999999
 50
126.398691
 51
130.340789
  0
ARC
  5
95
  8
0
 62
     7
 10
100.681575
 20
138.83463
 30
0.0
 40
5.0311979999999998
 50
120.340735
 51
126.025097
  0
ARC
  5
96
  8
0
 62
     7
 10
99.573494999999994
 20
140.71193
 30
0.0
 40
2.8512930000000001
 50
108.047855
 51
120.17975199999999
  0
ARC
  5
97
  8
0
 62
     7
 10
99.185218000000006
 20
141.81416300000001
 30
0.0
 40
1.683227
 50
88.100666000000004
 51
107.105322
  0
ARC
  5
98
  8
0
 62
     7
 10
99.169967
 20
142.133476
 30
0.0
 40
1.3648400000000001
 50
74.796775999999994
 51
87.016447000000014
  0
ARC
  5
99
  8
0
 62
     7
 10
99.124481000000003
 20
141.940043
 30
0.0
 40
1.563445999999999
 50
65.616437000000005
 51
75.047166000000004
  0
ARC
  5
9A
  8
0
 62
     7
 10
98.583731000000014
 20
140.69429500000001
 30
0.0
 40
2.9214029999999989
 50
58.118928000000011
 51
66.043625000000006
  0
ARC
  5
9B
  8
0
 62
     7
 10
96.480712999999994
 20
137.159887
 30
0.0
 40
7.033822999999999
 50
57.101564000000003
 51
58.778387000000002
  0
LINE
  5
9C
  8
0
 62
     7
 10
96.712400000000002
 20
142.07300000000001
 30
0.0
 11
96.712400000000002
 21
198.23699999999999
 31
0.0
  0
ARC
  5
9D
  8
0
 62
     7
 10
94.696000999999995
 20
218.72597300000001
 30
0.0
 40
0.260159
 50
92.138805000000005
 51
177.97934100000001
  0
LINE
  5
9E
  8
0
 62
     7
 10
94.436000000000007
 20
218.73500000000001
 30
0.0
 11
94.436000000000007
 21
218.726
 31
0.0
  0
ARC
  5
9F
  8
0
 62
     7
 10
94.696000999999995
 20
218.72597300000001
 30
0.0
 40
0.260159
 50
92.138805000000005
 51
177.97934100000001
  0
LINE
  5
A0
  8
0
 62
     7
 10
94.436000000000007
 20
218.73500000000001
 30
0.0
 11
94.436000000000007
 21
218.726
 31
0.0
  0
LINE
  5
A1
  8
0
 62
     7
 10
100.301
 20
218.98599999999999
 30
0.0
 11
94.686300000000003
 21
218.98599999999999
 31
0.0
  0
ARC
  5
A2
  8
0
 62
     7
 10
94.545514999999995
 20
219.24323999999999
 30
0.0
 40
0.257415
 50
184.97706199999999
 51
268.20751500000011
  0
LINE
  5
A3
  8
0
 62
     7
 10
94.537499999999994
 20
218.98599999999999
 30
0.0
 11
100.301
 21
218.98599999999999
 31
0.0
  0
ARC
  5
A4
  8
0
 62
     7
 10
105.12659499999999
 20
198.49663899999999
 30
0.0
 40
0.260271
 50
271.999661
 51
355.70962700000001
  0
ARC
  5
A5
  8
0
 62
     7
 10
105.12659499999999
 20
198.49663899999999
 30
0.0
 40
0.260271
 50
271.999661
 51
355.70962700000001
  0
LINE
  5
A6
  8
0
 62
     7
 10
106.166
 20
218.726
 30
0.0
 11
105.386
 21
198.477
 31
0.0
  0
LINE
  5
A7
  8
0
 62
     7
 10
100.301
 20
198.23699999999999
 30
0.0
 11
105.136
 21
198.23699999999999
 31
0.0
  0
LINE
  5
A8
  8
0
 62
     7
 10
100.301
 20
73.514300000000006
 30
0.0
 11
105.8
 21
73.514300000000006
 31
0.0
  0
LINE
  5
A9
  8
0
 62
     7
 10
100.301
 20
73.514300000000006
 30
0.0
 11
105.798
 21
73.514300000000006
 31
0.0
  0
ARC
  5
AA
  8
0
 62
     7
 10
88.968125999999998
 20
69.816870999999992
 30
0.0
 40
17.54374
 50
1.4633320000000001
 51
2.8640330000000001
  0
ARC
  5
AB
  8
0
 62
     7
 10
102.145876
 20
70.409740999999997
 30
0.0
 40
4.3533319999999991
 50
3.7367939999999988
 51
9.2654449999999997
  0
ARC
  5
AC
  8
0
 62
     7
 10
101.499185
 20
70.349043999999992
 30
0.0
 40
5.0015539999999996
 50
8.7588980000000003
 51
13.315851
  0
ARC
  5
AD
  8
0
 62
     7
 10
102.649501
 20
70.620522999999991
 30
0.0
 40
3.819637999999999
 50
13.327251
 51
18.913167000000001
  0
ARC
  5
AE
  8
0
 62
     7
 10
102.87382100000001
 20
70.693331999999984
 30
0.0
 40
3.5838299999999998
 50
18.974426000000001
 51
24.321408000000002
  0
ARC
  5
AF
  8
0
 62
     7
 10
103.084901
 20
70.683646999999993
 30
0.0
 40
3.3968229999999999
 50
25.936837000000001
 51
30.839504999999999
  0
ARC
  5
B0
  8
0
 62
     7
 10
104.30616000000001
 20
71.339809000000002
 30
0.0
 40
2.0128449999999991
 50
32.623854999999999
 51
39.799565999999999
  0
ARC
  5
B1
  8
0
 62
     7
 10
104.977918
 20
71.871555000000001
 30
0.0
 40
1.156568
 50
40.862769999999998
 51
51.694642000000002
  0
ARC
  5
B2
  8
0
 62
     7
 10
105.143569
 20
72.078126999999995
 30
0.0
 40
0.8917899999999999
 50
51.81963300000001
 51
64.213059999999999
  0
ARC
  5
B3
  8
0
 62
     7
 10
105.277952
 20
72.341453000000001
 30
0.0
 40
0.596262
 50
64.832619999999991
 51
81.660525000000007
  0
ARC
  5
B4
  8
0
 62
     7
 10
105.280889
 20
72.43895400000001
 30
0.0
 40
0.499492
 50
80.371551999999994
 51
99.628428
  0
ARC
  5
B5
  8
0
 62
     7
 10
105.257924
 20
72.427494999999993
 30
0.0
 40
0.5075440000000001
 50
96.855027000000021
 51
116.651788
  0
ARC
  5
B6
  8
0
 62
     7
 10
105.297532
 20
72.271372999999997
 30
0.0
 40
0.6657450000000001
 50
113.66994200000001
 51
130.297325
  0
ARC
  5
B7
  8
0
 62
     7
 10
105.47329499999999
 20
71.995881000000011
 30
0.0
 40
0.9905209999999998
 50
127.74435
 51
140.326652
  0
ARC
  5
B8
  8
0
 62
     7
 10
105.68458699999999
 20
71.759181000000012
 30
0.0
 40
1.3051209999999991
 50
138.24983399999999
 51
149.32670400000001
  0
ARC
  5
B9
  8
0
 62
     7
 10
105.918541
 20
71.542303000000004
 30
0.0
 40
1.618376
 50
146.94744900000001
 51
150.74307099999999
  0
ARC
  5
BA
  8
0
 62
     7
 10
106.902995
 20
70.995279000000011
 30
0.0
 40
2.744599
 50
150.82416699999999
 51
154.67352500000001
  0
ARC
  5
BB
  8
0
 62
     7
 10
107.082893
 20
70.933479000000005
 30
0.0
 40
2.9337169999999988
 50
155.08554100000001
 51
161.618585
  0
ARC
  5
BC
  8
0
 62
     7
 10
107.786357
 20
70.674207999999993
 30
0.0
 40
3.6831279999999991
 50
161.24194600000001
 51
167.02767700000001
  0
ARC
  5
BD
  8
0
 62
     7
 10
107.059935
 20
70.764580000000009
 30
0.0
 40
2.9559099999999989
 50
165.573714
 51
168.47043199999999
  0
ARC
  5
BE
  8
0
 62
     7
 10
110.073331
 20
70.150806000000003
 30
0.0
 40
6.0311779999999988
 50
168.47906800000001
 51
170.84244799999999
  0
ARC
  5
BF
  8
0
 62
     7
 10
111.05991299999999
 20
70.114172999999994
 30
0.0
 40
7.0120570000000004
 50
171.829949
 51
175.26119399999999
  0
ARC
  5
C0
  8
0
 62
     7
 10
111.97487099999999
 20
70.180281999999991
 30
0.0
 40
7.9196899999999992
 50
176.284727
 51
179.387868
  0
ARC
  5
C1
  8
0
 62
     7
 10
118.698998
 20
70.51888000000001
 30
0.0
 40
14.645568000000001
 50
180.99372
 51
182.236895
  0
ARC
  5
C2
  8
0
 62
     7
 10
109.05440299999999
 20
70.198634999999996
 30
0.0
 40
4.996141999999999
 50
182.8841239999999
 51
186.6431979999999
  0
ARC
  5
C3
  8
0
 62
     7
 10
114.97109399999999
 20
71.060896
 30
0.0
 40
10.974206000000001
 50
187.54121599999991
 51
189.28680299999999
  0
ARC
  5
C4
  8
0
 62
     7
 10
108.893805
 20
70.143940999999998
 30
0.0
 40
4.829191999999999
 50
190.18607900000001
 51
194.260457
  0
ARC
  5
C5
  8
0
 62
     7
 10
108.55274799999999
 20
70.101663000000002
 30
0.0
 40
4.4884360000000001
 50
194.809853
 51
199.17489800000001
  0
ARC
  5
C6
  8
0
 62
     7
 10
107.235107
 20
69.670559999999995
 30
0.0
 40
3.1024060000000002
 50
199.64762200000001
 51
205.648246
  0
ARC
  5
C7
  8
0
 62
     7
 10
106.840476
 20
69.50488399999999
 30
0.0
 40
2.6750329999999991
 50
206.10793699999999
 51
212.255269
  0
ARC
  5
C8
  8
0
 62
     7
 10
105.783924
 20
68.839787000000001
 30
0.0
 40
1.426572999999999
 50
212.312128
 51
222.19848300000001
  0
ARC
  5
C9
  8
0
 62
     7
 10
105.571945
 20
68.634484999999998
 30
0.0
 40
1.1316740000000001
 50
221.70705000000009
 51
232.39797200000001
  0
ARC
  5
CA
  8
0
 62
     7
 10
105.320345
 20
68.298624000000004
 30
0.0
 40
0.7120850000000001
 50
231.94746499999999
 51
246.92739599999999
  0
ARC
  5
CB
  8
0
 62
     7
 10
105.284093
 20
68.177498999999983
 30
0.0
 40
0.5866120000000001
 50
245.54853299999999
 51
262.20977900000003
  0
ARC
  5
CC
  8
0
 62
     7
 10
105.280328
 20
68.156518999999975
 30
0.0
 40
0.5653160000000002
 50
262.29956099999998
 51
278.90918599999998
  0
ARC
  5
CD
  8
0
 62
     7
 10
105.260148
 20
68.252285000000001
 30
0.0
 40
0.663071
 50
279.35035699999997
 51
294.15877799999998
  0
ARC
  5
CE
  8
0
 62
     7
 10
105.258763
 20
68.246957999999992
 30
0.0
 40
0.658786
 50
294.45836500000001
 51
300.75375700000001
  0
ARC
  5
CF
  8
0
 62
     7
 10
105.01208699999999
 20
68.660566000000003
 30
0.0
 40
1.140368
 50
300.77827100000002
 51
306.431512
  0
ARC
  5
D0
  8
0
 62
     7
 10
104.963121
 20
68.653497999999999
 30
0.0
 40
1.1645760000000001
 50
308.57678499999997
 51
318.70829300000003
  0
ARC
  5
D1
  8
0
 62
     7
 10
104.86399900000001
 20
68.768794999999997
 30
0.0
 40
1.315307
 50
317.783906
 51
327.7133
  0
ARC
  5
D2
  8
0
 62
     7
 10
104.375713
 20
69.144279999999995
 30
0.0
 40
1.929495999999999
 50
326.03208699999999
 51
333.88519200000002
  0
ARC
  5
D3
  8
0
 62
     7
 10
103.269481
 20
69.688676999999998
 30
0.0
 40
3.1624249999999989
 50
333.850955
 51
339.62161400000002
  0
ARC
  5
D4
  8
0
 62
     7
 10
102.751988
 20
69.861475999999996
 30
0.0
 40
3.7077459999999989
 50
339.90310499999998
 51
345.57499999999999
  0
ARC
  5
D5
  8
0
 62
     7
 10
102.905868
 20
69.886949999999985
 30
0.0
 40
3.5656199999999991
 50
344.56252999999998
 51
350.48447499999997
  0
ARC
  5
D6
  8
0
 62
     7
 10
100.82134600000001
 20
70.283900000000003
 30
0.0
 40
5.6872759999999989
 50
350.01212199999998
 51
353.46716600000002
  0
ARC
  5
D7
  8
0
 62
     7
 10
98.029115000000004
 20
70.471491999999984
 30
0.0
 40
8.4837360000000004
 50
354.35398800000002
 51
356.51782400000002
  0
ARC
  5
D8
  8
0
 62
     7
 10
99.071972999999986
 20
70.326142000000004
 30
0.0
 40
7.4344239999999999
 50
357.14779900000002
 51
359.52793200000002
  0
ARC
  5
D9
  8
0
 62
     7
 10
99.025823000000003
 20
70.264888999999997
 30
0.0
 40
7.5131149999999991
 50
334.3735759999999
 51
25.626424
  0
ARC
  5
DA
  8
0
 62
     7
 10
99.934413000000006
 20
75.720928000000001
 30
0.0
 40
8.1384059999999998
 50
272.58273600000001
 51
274.27315700000003
  0
ARC
  5
DB
  8
0
 62
     7
 10
100.352628
 20
69.772278
 30
0.0
 40
2.1752880000000001
 50
274.96299900000002
 51
278.291561
  0
ARC
  5
DC
  8
0
 62
     7
 10
100.365891
 20
69.564288000000005
 30
0.0
 40
1.967632
 50
278.78279099999997
 51
289.42094400000002
  0
ARC
  5
DD
  8
0
 62
     7
 10
100.266699
 20
69.938555000000008
 30
0.0
 40
2.3537880000000002
 50
288.66882399999997
 51
297.67225400000001
  0
ARC
  5
DE
  8
0
 62
     7
 10
100.073629
 20
70.232214999999997
 30
0.0
 40
2.7037450000000001
 50
298.40562199999999
 51
306.383847
  0
ARC
  5
DF
  8
0
 62
     7
 10
100.259563
 20
69.979752000000005
 30
0.0
 40
2.390201999999999
 50
306.38554699999997
 51
315.67945900000001
  0
ARC
  5
E0
  8
0
 62
     7
 10
100.047606
 20
70.192584999999994
 30
0.0
 40
2.6905489999999999
 50
315.590418
 51
324.18412300000011
  0
ARC
  5
E1
  8
0
 62
     7
 10
99.984950999999995
 20
70.215448999999992
 30
0.0
 40
2.7547950000000001
 50
324.56108399999999
 51
333.35105199999998
  0
ARC
  5
E2
  8
0
 62
     7
 10
100.14075099999999
 20
70.169398999999999
 30
0.0
 40
2.5950489999999991
 50
332.71689700000002
 51
342.39035100000001
  0
ARC
  5
E3
  8
0
 62
     7
 10
99.879479000000003
 20
70.253353000000004
 30
0.0
 40
2.8694769999999989
 50
342.370833
 51
351.23982799999999
  0
ARC
  5
E4
  8
0
 62
     7
 10
100.014521
 20
70.251482999999993
 30
0.0
 40
2.7357900000000002
 50
350.84779800000001
 51
0.280762
  0
ARC
  5
E5
  8
0
 62
     7
 10
99.889201999999997
 20
70.266518999999988
 30
0.0
 40
2.861076999999999
 50
359.96736199999998
 51
8.9449839999999998
  0
ARC
  5
E6
  8
0
 62
     7
 10
100.087262
 20
70.326983999999996
 30
0.0
 40
2.6561819999999989
 50
8.3208399999999987
 51
17.947201
  0
ARC
  5
E7
  8
0
 62
     7
 10
99.701453000000001
 20
70.185950000000005
 30
0.0
 40
3.0667140000000002
 50
18.232828999999999
 51
26.379576
  0
ARC
  5
E8
  8
0
 62
     7
 10
100.10425600000001
 20
70.377980000000008
 30
0.0
 40
2.620541999999999
 50
26.531258000000001
 51
35.811433000000001
  0
ARC
  5
E9
  8
0
 62
     7
 10
100.146845
 20
70.422461999999996
 30
0.0
 40
2.5600009999999989
 50
35.561833
 51
44.600578999999989
  0
ARC
  5
EA
  8
0
 62
     7
 10
100.024081
 20
70.276468000000008
 30
0.0
 40
2.749979999999999
 50
44.970415000000003
 51
53.041517000000013
  0
ARC
  5
EB
  8
0
 62
     7
 10
100.24254999999999
 20
70.545249999999996
 30
0.0
 40
2.4038870000000001
 50
53.350666000000011
 51
62.304014000000002
  0
ARC
  5
EC
  8
0
 62
     7
 10
100.31725400000001
 20
70.707280000000011
 30
0.0
 40
2.225719999999999
 50
62.068136000000003
 51
71.590785999999994
  0
ARC
  5
ED
  8
0
 62
     7
 10
100.310373
 20
70.791668999999999
 30
0.0
 40
2.1480790000000001
 50
70.705765
 51
80.461642999999995
  0
ARC
  5
EE
  8
0
 62
     7
 10
100.406841
 20
71.156749000000005
 30
0.0
 40
1.7723990000000001
 50
81.581438000000006
 51
85.294468999999992
  0
ARC
  5
EF
  8
0
 62
     7
 10
99.939880000000016
 20
65.202072000000001
 30
0.0
 40
7.7453469999999989
 50
85.465361999999999
 51
87.326586999999989
  0
LINE
  5
F0
  8
0
 62
     7
 10
100.301
 20
67.015500000000003
 30
0.0
 11
105.8
 21
67.015500000000003
 31
0.0
  0
LINE
  5
F1
  8
0
 62
     7
 10
104.251
 20
80.563400000000001
 30
0.0
 11
100.301
 21
80.563400000000001
 31
0.0
  0
LINE
  5
F2
  8
0
 62
     7
 10
103.89
 20
80.563400000000001
 30
0.0
 11
103.89
 21
141.03999999999999
 31
0.0
  0
LINE
  5
F3
  8
0
 62
     7
 10
104.251
 20
80.563400000000001
 30
0.0
 11
104.251
 21
73.614199999999997
 31
0.0
  0
ARC
  5
F4
  8
0
 62
     7
 10
70.518675000000002
 20
102.81296399999999
 30
0.0
 40
50.743896999999997
 50
48.879298999999989
 51
49.534206000000012
  0
ARC
  5
F5
  8
0
 62
     7
 10
96.582812000000004
 20
133.33121
 30
0.0
 40
10.61037
 50
49.659880000000008
 51
53.593960999999993
  0
ARC
  5
F6
  8
0
 62
     7
 10
99.921386999999996
 20
137.80238700000001
 30
0.0
 40
5.0304809999999991
 50
53.973591999999996
 51
59.659104999999997
  0
ARC
  5
F7
  8
0
 62
     7
 10
101.029883
 20
139.68089699999999
 30
0.0
 40
2.849321999999999
 50
59.815015000000002
 51
71.956110999999993
  0
ARC
  5
F8
  8
0
 62
     7
 10
101.417224
 20
140.780351
 30
0.0
 40
1.6841900000000001
 50
72.899884
 51
91.896143999999993
  0
ARC
  5
F9
  8
0
 62
     7
 10
101.432542
 20
141.10025400000001
 30
0.0
 40
1.3652150000000001
 50
92.982980999999995
 51
105.201072
  0
ARC
  5
FA
  8
0
 62
     7
 10
101.505416
 20
140.85687100000001
 30
0.0
 40
1.6192040000000001
 50
105.431337
 51
114.537722
  0
ARC
  5
FB
  8
0
 62
     7
 10
101.905896
 20
139.92558500000001
 30
0.0
 40
2.632795999999999
 50
114.049277
 51
118.149348
  0
ARC
  5
FC
  8
0
 62
     7
 10
102.96636599999999
 20
137.96493699999999
 30
0.0
 40
4.8618489999999994
 50
118.26790099999999
 51
123.24297900000001
  0
ARC
  5
FD
  8
0
 62
     7
 10
71.115438999999995
 20
104.529963
 30
0.0
 40
49.836176999999992
 50
48.878999
 51
49.545777999999999
  0
ARC
  5
FE
  8
0
 62
     7
 10
96.588009999999997
 20
134.36970199999999
 30
0.0
 40
10.602776
 50
49.661879999999989
 51
53.598599999999998
  0
ARC
  5
FF
  8
0
 62
     7
 10
99.919360999999995
 20
138.83183399999999
 30
0.0
 40
5.0344569999999988
 50
53.977975000000001
 51
59.658859999999997
  0
ARC
  5
100
  8
0
 62
     7
 10
101.029388
 20
140.712423
 30
0.0
 40
2.85073
 50
59.819981999999989
 51
71.954880000000003
  0
ARC
  5
101
  8
0
 62
     7
 10
101.417224
 20
141.813197
 30
0.0
 40
1.6841900000000001
 50
72.899884
 51
91.896143999999993
  0
ARC
  5
102
  8
0
 62
     7
 10
101.432542
 20
142.13310000000001
 30
0.0
 40
1.3652150000000001
 50
92.982980999999995
 51
105.201072
  0
ARC
  5
103
  8
0
 62
     7
 10
101.474328
 20
141.953611
 30
0.0
 40
1.5493959999999991
 50
104.95183299999999
 51
114.452482
  0
ARC
  5
104
  8
0
 62
     7
 10
101.865818
 20
141.03157400000001
 30
0.0
 40
2.5509080000000002
 50
113.88441
 51
117.95882400000001
  0
ARC
  5
105
  8
0
 62
     7
 10
102.887564
 20
139.13150099999999
 30
0.0
 40
4.7082610000000003
 50
118.100804
 51
123.321495
  0
LINE
  5
106
  8
0
 62
     7
 10
103.89
 20
142.07300000000001
 30
0.0
 11
103.89
 21
198.23699999999999
 31
0.0
  0
ARC
  5
107
  8
0
 62
     7
 10
105.907462
 20
218.72769199999999
 30
0.0
 40
0.258998
 50
359.66750100000002
 51
85.669155999999987
  0
LINE
  5
108
  8
0
 62
     7
 10
105.92700000000001
 20
218.98599999999999
 30
0.0
 11
105.916
 21
218.98599999999999
 31
0.0
  0
ARC
  5
109
  8
0
 62
     7
 10
105.907462
 20
218.72769199999999
 30
0.0
 40
0.258998
 50
359.66750100000002
 51
85.669155999999987
  0
LINE
  5
10A
  8
0
 62
     7
 10
105.92700000000001
 20
218.98599999999999
 30
0.0
 11
105.916
 21
218.98599999999999
 31
0.0
  0
LINE
  5
10B
  8
0
 62
     7
 10
100.301
 20
218.98599999999999
 30
0.0
 11
105.916
 21
218.98599999999999
 31
0.0
  0
ARC
  5
10C
  8
0
 62
     7
 10
106.056104
 20
219.246599
 30
0.0
 40
0.260794
 50
271.91641600000003
 51
354.34647200000001
  0
LINE
  5
10D
  8
0
 62
     7
 10
106.065
 20
218.98599999999999
 30
0.0
 11
100.301
 21
218.98599999999999
 31
0.0
  0
LINE
  5
10E
  8
0
 62
     7
 10
96.523200000000017
 20
65.006299999999996
 30
0.0
 11
97.621399999999994
 21
67.015500000000003
 31
0.0
  0
LINE
  5
10F
  8
0
 62
     7
 10
97.621399999999994
 20
67.015500000000003
 30
0.0
 11
95.665599999999998
 21
65.8245
 31
0.0
  0
LINE
  5
110
  8
0
 62
     7
 10
95.665599999999998
 20
65.8245
 30
0.0
 11
96.523200000000017
 21
65.006299999999996
 31
0.0
  0
LINE
  5
111
  8
0
 62
     7
 10
97.621399999999994
 20
67.015500000000003
 30
0.0
 11
88.747900000000001
 21
57.717399999999998
 31
0.0
  0
LINE
  5
112
  8
0
 62
     7
 10
105.178
 20
154.23599999999999
 30
0.0
 11
103.89
 21
152.34200000000001
 31
0.0
  0
LINE
  5
113
  8
0
 62
     7
 10
103.89
 20
152.34200000000001
 30
0.0
 11
105.952
 21
153.33799999999999
 31
0.0
  0
LINE
  5
114
  8
0
 62
     7
 10
105.952
 20
153.33799999999999
 30
0.0
 11
105.178
 21
154.23599999999999
 31
0.0
  0
LINE
  5
115
  8
0
 62
     7
 10
103.89
 20
152.34200000000001
 30
0.0
 11
111.782
 21
159.15100000000001
 31
0.0
  0
LINE
  5
116
  8
0
 62
     7
 10
93.75200000000001
 20
226.44399999999999
 30
0.0
 11
95.516900000000007
 21
224.98599999999999
 31
0.0
  0
LINE
  5
117
  8
0
 62
     7
 10
95.516900000000007
 20
224.98599999999999
 30
0.0
 11
94.717600000000004
 21
227.131
 31
0.0
  0
LINE
  5
118
  8
0
 62
     7
 10
94.717600000000004
 20
227.131
 30
0.0
 11
93.75200000000001
 21
226.44399999999999
 31
0.0
  0
LINE
  5
119
  8
0
 62
     7
 10
95.516900000000007
 20
224.98599999999999
 30
0.0
 11
90.475499999999997
 21
232.071
 31
0.0
  0
LINE
  5
11A
  8
_________2
 62
     7
 10
205.30099999999999
 20
127.411
 30
0.0
 11
183.55000000000001
 21
127.411
 31
0.0
  0
LINE
  5
11B
  8
_________2
 62
     7
 10
100.3
 20
-4.0910799999999998
 30
0.0
 11
100.3
 21
-21.071400000000001
 31
0.0
  0
LINE
  5
11C
  8
_________2
 62
     7
 10
100.3
 20
275.93000000000001
 30
0.0
 11
100.3
 21
258.911
 31
0.0
  0
LINE
  5
11D
  8
_________2
 62
     7
 10
17.049499999999998
 20
127.411
 30
0.0
 11
-4.70052
 21
127.411
 31
0.0
  0
LINE
  5
11E
  8
_________2
 62
     7
 10
76.741
 20
29.8047
 30
0.0
 11
74.554699999999997
 21
29.8047
 31
0.0
  0
LINE
  5
11F
  8
_________2
 62
     7
 10
77.233699999999999
 20
29.8047
 30
0.0
 11
76.981499999999997
 21
29.8047
 31
0.0
  0
LINE
  5
120
  8
_________2
 62
     7
 10
77.726299999999995
 20
29.8047
 30
0.0
 11
80.651200000000003
 21
29.8047
 31
0.0
  0
LINE
  5
121
  8
_________2
 62
     7
 10
77.233699999999999
 20
29.8047
 30
0.0
 11
77.485500000000002
 21
29.8047
 31
0.0
  0
LINE
  5
122
  8
_________2
 62
     7
 10
70.837100000000007
 20
29.8047
 30
0.0
 11
68.650499999999994
 21
29.8047
 31
0.0
  0
LINE
  5
123
  8
_________2
 62
     7
 10
71.329400000000007
 20
29.8047
 30
0.0
 11
71.077600000000004
 21
29.8047
 31
0.0
  0
LINE
  5
124
  8
_________2
 62
     7
 10
71.329400000000007
 20
30.2974
 30
0.0
 11
71.329400000000007
 21
32.484400000000001
 31
0.0
  0
LINE
  5
125
  8
_________2
 62
     7
 10
71.329400000000007
 20
29.8047
 30
0.0
 11
71.329400000000007
 21
30.056899999999999
 31
0.0
  0
LINE
  5
126
  8
_________2
 62
     7
 10
71.822100000000006
 20
29.8047
 30
0.0
 11
74.009
 21
29.8047
 31
0.0
  0
LINE
  5
127
  8
_________2
 62
     7
 10
71.329400000000007
 20
29.8047
 30
0.0
 11
71.581599999999995
 21
29.8047
 31
0.0
  0
LINE
  5
128
  8
_________2
 62
     7
 10
71.329400000000007
 20
29.312799999999999
 30
0.0
 11
71.329400000000007
 21
27.125800000000002
 31
0.0
  0
LINE
  5
129
  8
_________2
 62
     7
 10
71.329400000000007
 20
29.8047
 30
0.0
 11
71.329400000000007
 21
29.5532
 31
0.0
  0
LINE
  5
12A
  8
_________2
 62
     7
 10
75.040499999999994
 20
28.5852
 30
0.0
 11
80.218500000000006
 21
27.720400000000001
 31
0.0
  0
LINE
  5
12B
  8
_________2
 62
     7
 10
75.040499999999994
 20
31.0243
 30
0.0
 11
80.218500000000006
 21
31.889700000000001
 31
0.0
  0
LINE
  5
12C
  8
_________2
 62
     7
 10
80.218500000000006
 20
27.720400000000001
 30
0.0
 11
80.218500000000006
 21
31.889700000000001
 31
0.0
  0
LINE
  5
12D
  8
_________2
 62
     7
 10
75.040499999999994
 20
28.5852
 30
0.0
 11
75.040499999999994
 21
31.0243
 31
0.0
  0
ARC
  5
12E
  8
_________2
 62
     7
 10
71.28285600000001
 20
29.757811
 30
0.0
 40
1.2673589999999999
 50
2.122214
 51
87.893958999999995
  0
ARC
  5
12F
  8
_________2
 62
     7
 10
71.375959999999992
 20
29.758213000000001
 30
0.0
 40
1.2669559999999991
 50
92.104701000000006
 51
177.89526900000001
  0
ARC
  5
130
  8
_________2
 62
     7
 10
71.376357999999996
 20
29.851671
 30
0.0
 40
1.2673680000000001
 50
182.12203600000001
 51
267.877993
  0
ARC
  5
131
  8
_________2
 62
     7
 10
71.282531999999989
 20
29.851998999999999
 30
0.0
 40
1.267695999999999
 50
272.12015300000002
 51
357.863674
  0
ARC
  5
132
  8
_________2
 62
     7
 10
71.329430000000002
 20
29.804742999999998
 30
0.0
 40
2.0849849999999992
 50
0.00001
 51
89.999980000000008
  0
ARC
  5
133
  8
_________2
 62
     7
 10
71.329603000000006
 20
29.804915000000001
 30
0.0
 40
2.084813
 50
90.004733999999999
 51
180.00474399999999
  0
ARC
  5
134
  8
_________2
 62
     7
 10
71.409106000000008
 20
29.884775999999999
 30
0.0
 40
2.1657950000000001
 50
182.11776599999999
 51
267.89173399999999
  0
ARC
  5
135
  8
_________2
 62
     7
 10
71.249459000000002
 20
29.885429999999999
 30
0.0
 40
2.1664590000000001
 50
272.11546800000002
 51
357.86560400000002
  0
TEXT
  5
136
  8
_________2
 62
     7
 10
104.605
 20
1.6794899999999999
 30
0.0
 40
3.0923400000000001
  1
図番
 41
0.5
  0
LINE
  5
137
  8
_________2
 62
     7
 10
103.55
 20
5.9087199999999989
 30
0.0
 11
183.55099999999999
 21
5.9087199999999989
 31
0.0
  0
TEXT
  5
138
  8
_________2
 62
     7
 10
104.605
 20
11.6793
 30
0.0
 40
3.0923400000000001
  1
品番
 41
0.5
  0
TEXT
  5
139
  8
_________2
 62
     7
 10
104.605
 20
31.818100000000001
 30
0.0
 40
3.0923400000000001
  1
名称
 41
0.5
  0
TEXT
  5
13A
  8
_________2
 62
     7
 10
91.845058333333341
 20
26.821999999999999
 30
0.0
 40
3.6545800000000002
  1
mm
 41
0.5
 72
     1
 11
93.367800000000003
 21
26.821999999999999
 31
0.0
  0
TEXT
  5
13B
  8
_________2
 62
     7
 10
85.643199999999993
 20
31.818100000000001
 30
0.0
 40
3.0923400000000001
  1
単位
 41
0.5
  0
TEXT
  5
13C
  8
_________2
 62
     7
 10
85.643199999999993
 20
19.410799999999998
 30
0.0
 40
3.0923400000000001
  1
尺度
 41
0.5
  0
TEXT
  5
13D
  8
_________2
 62
     7
 10
90.548758666666686
 20
13.2179
 30
0.0
 40
3.6545800000000002
  1
1 ： 2
 41
0.5
 72
     1
 11
93.959699999999998
 21
13.2179
 31
0.0
  0
TEXT
  5
13E
  8
_________2
 62
     7
 10
137.31847500000001
 20
9.1078600000000005
 30
0.0
 40
3.9357000000000002
  1
CET8050
 41
0.5
 72
     1
 11
143.55000000000001
 21
9.1078600000000005
 31
0.0
  0
TEXT
  5
13F
  8
_________2
 62
     7
 10
137.31847500000001
 20
-0.8926299999999999
 30
0.0
 40
3.9357000000000002
  1
CET8050
 41
0.5
 72
     1
 11
143.55000000000001
 21
-0.8926299999999999
 31
0.0
  0
TEXT
  5
140
  8
_________2
 62
     7
 10
109.179
 20
24.2257
 30
0.0
 40
3.9357000000000002
  1
C1 シャワーホース
 41
0.5
  0
TEXT
  5
141
  8
_________2
 62
     7
 10
39.425300333333333
 20
13.603
 30
0.0
 40
3.6545800000000002
  1
早川
 41
0.5
 72
     1
 11
41.313499999999998
 21
13.603
 31
0.0
  0
TEXT
  5
142
  8
_________2
 62
     7
 10
20.790090666666661
 20
13.603
 30
0.0
 40
3.6545800000000002
  1
石原
 41
0.5
 72
     1
 11
22.7392
 21
13.603
 31
0.0
  0
TEXT
  5
143
  8
_________2
 62
     7
 10
67.785399999999996
 20
13.2179
 30
0.0
 40
3.6545800000000002
  1
16.02.26
 41
0.5
  0
TEXT
  5
144
  8
_________2
 62
     7
 10
66.593100000000007
 20
19.410799999999998
 30
0.0
 40
3.0923400000000001
  1
日付
 41
0.5
  0
TEXT
  5
145
  8
_________2
 62
     7
 10
29.639399999999998
 20
19.410799999999998
 30
0.0
 40
3.0923400000000001
  1
検図
 41
0.5
  0
TEXT
  5
146
  8
_________2
 62
     7
 10
18.021100000000001
 20
5.21143
 30
0.0
 40
3.0923400000000001
  1
備考
 41
0.5
  0
TEXT
  5
147
  8
_________2
 62
     7
 10
18.021100000000001
 20
19.410799999999998
 30
0.0
 40
3.0923400000000001
  1
製図
 41
0.5
  0
TEXT
  5
148
  8
_________2
 62
     7
 10
23.788465333333338
 20
27.936800000000002
 30
0.0
 40
4.4979399999999989
  1
セラトレーディング株式会社
 41
0.5
 72
     1
 11
41.180500000000002
 21
27.936800000000002
 31
0.0
  0
LINE
  5
149
  8
_________2
 62
     7
 10
183.55099999999999
 20
-4.0910799999999998
 30
0.0
 11
17.049499999999998
 21
-4.0910799999999998
 31
0.0
  0
LINE
  5
14A
  8
_________2
 62
     7
 10
17.049499999999998
 20
-4.0910799999999998
 30
0.0
 11
17.049499999999998
 21
258.911
 31
0.0
  0
LINE
  5
14B
  8
_________2
 62
     7
 10
17.049499999999998
 20
258.911
 30
0.0
 11
183.55099999999999
 21
258.911
 31
0.0
  0
LINE
  5
14C
  8
_________2
 62
     7
 10
183.55099999999999
 20
258.911
 30
0.0
 11
183.55099999999999
 21
-4.0910799999999998
 31
0.0
  0
LINE
  5
14D
  8
_________2
 62
     7
 10
65.549599999999998
 20
9.4089600000000004
 30
0.0
 11
65.549599999999998
 21
35.908799999999999
 31
0.0
  0
LINE
  5
14E
  8
_________2
 62
     7
 10
84.549700000000016
 20
9.4089600000000004
 30
0.0
 11
84.549700000000016
 21
35.908799999999999
 31
0.0
  0
LINE
  5
14F
  8
_________2
 62
     7
 10
103.55
 20
-4.0910799999999998
 30
0.0
 11
103.55
 21
35.908799999999999
 31
0.0
  0
LINE
  5
150
  8
_________2
 62
     7
 10
28.549299999999999
 20
9.4089600000000004
 30
0.0
 11
28.549299999999999
 21
23.409199999999998
 31
0.0
  0
LINE
  5
151
  8
_________2
 62
     7
 10
17.049499999999998
 20
9.4089600000000004
 30
0.0
 11
103.55
 21
9.4089600000000004
 31
0.0
  0
LINE
  5
152
  8
_________2
 62
     7
 10
17.049499999999998
 20
23.409199999999998
 30
0.0
 11
103.55
 21
23.409199999999998
 31
0.0
  0
LINE
  5
153
  8
_________2
 62
     7
 10
103.55
 20
15.9085
 30
0.0
 11
183.55099999999999
 21
15.9085
 31
0.0
  0
LINE
  5
154
  8
_________2
 62
     7
 10
17.049499999999998
 20
35.908799999999999
 30
0.0
 11
183.55099999999999
 21
35.908799999999999
 31
0.0
  0
ENDSEC
  0
EOF
