  0
SECTION
  2
HEADER
  9
$ACADVER
  1
AC1009
  9
$INSBASE
 10
0.0
 20
0.0
 30
0.0
  9
$EXTMIN
 10
-4.70052
 20
-21.071400000000001
 30
0.0
  9
$EXTMAX
 10
205.30099999999999
 20
275.93000000000001
 30
0.0
  9
$LIMMIN
 10
0.0
 20
0.0
  9
$LIMMAX
 10
12.0
 20
9.0
  9
$ORTHOMODE
 70
     0
  9
$REGENMODE
 70
     1
  9
$FILLMODE
 70
     1
  9
$QTEXTMODE
 70
     0
  9
$MIRRTEXT
 70
     1
  9
$DRAGMODE
 70
     2
  9
$LTSCALE
 40
1.0
  9
$OSMODE
 70
    37
  9
$ATTMODE
 70
     1
  9
$TEXTSIZE
 40
0.0
  9
$TRACEWID
 40
0.05
  9
$TEXTSTYLE
  7
STANDARD
  9
$CLAYER
  8
0
  9
$CELTYPE
  6
CONTINUOUS
  9
$CECOLOR
 62
   256
  9
$DIMSCALE
 40
1.0
  9
$DIMASZ
 40
0.18
  9
$DIMEXO
 40
0.0625
  9
$DIMDLI
 40
0.38
  9
$DIMRND
 40
0.0
  9
$DIMDLE
 40
0.0
  9
$DIMEXE
 40
0.18
  9
$DIMTP
 40
0.0
  9
$DIMTM
 40
0.0
  9
$DIMTXT
 40
0.18
  9
$DIMCEN
 40
0.09
  9
$DIMTSZ
 40
0.0
  9
$DIMTOL
 70
     0
  9
$DIMLIM
 70
     0
  9
$DIMTIH
 70
     1
  9
$DIMTOH
 70
     1
  9
$DIMSE1
 70
     0
  9
$DIMSE2
 70
     0
  9
$DIMTAD
 70
     0
  9
$DIMZIN
 70
     0
  9
$DIMBLK
  1

  9
$DIMASO
 70
     1
  9
$DIMSHO
 70
     1
  9
$DIMPOST
  1

  9
$DIMAPOST
  1

  9
$DIMALT
 70
     0
  9
$DIMALTD
 70
     2
  9
$DIMALTF
 40
25.399999999999999
  9
$DIMLFAC
 40
1.0
  9
$DIMTOFL
 70
     0
  9
$DIMTVP
 40
0.0
  9
$DIMTIX
 70
     0
  9
$DIMSOXD
 70
     0
  9
$DIMSAH
 70
     0
  9
$DIMBLK1
  1

  9
$DIMBLK2
  1

  9
$DIMSTYLE
  2
STANDARD
  9
$DIMCLRD
 70
     0
  9
$DIMCLRE
 70
     0
  9
$DIMCLRT
 70
     0
  9
$DIMTFAC
 40
1.0
  9
$DIMGAP
 40
0.09
  9
$LUNITS
 70
     2
  9
$LUPREC
 70
     4
  9
$SKETCHINC
 40
0.1
  9
$FILLETRAD
 40
0.0
  9
$AUNITS
 70
     0
  9
$AUPREC
 70
     0
  9
$MENU
  1
.
  9
$ELEVATION
 40
0.0
  9
$PELEVATION
 40
0.0
  9
$THICKNESS
 40
0.0
  9
$LIMCHECK
 70
     0
  9
$BLIPMODE
 70
     0
  9
$CHAMFERA
 40
0.0
  9
$CHAMFERB
 40
0.0
  9
$SKPOLY
 70
     0
  9
$TDCREATE
 40
2444972.375
  9
$TDUPDATE
 40
2458157.2573117251
  9
$TDINDWG
 40
0.000026875
  9
$TDUSRTIMER
 40
0.000026875
  9
$USRTIMER
 70
     1
  9
$ANGBASE
 50
0.0
  9
$ANGDIR
 70
     0
  9
$PDMODE
 70
     0
  9
$PDSIZE
 40
0.0
  9
$PLINEWID
 40
0.0
  9
$COORDS
 70
     1
  9
$SPLFRAME
 70
     0
  9
$SPLINETYPE
 70
     6
  9
$SPLINESEGS
 70
     8
  9
$ATTDIA
 70
     1
  9
$ATTREQ
 70
     1
  9
$HANDLING
 70
     1
  9
$HANDSEED
  5
27C
  9
$SURFTAB1
 70
     6
  9
$SURFTAB2
 70
     6
  9
$SURFTYPE
 70
     6
  9
$SURFU
 70
     6
  9
$SURFV
 70
     6
  9
$UCSNAME
  2

  9
$UCSORG
 10
0.0
 20
0.0
 30
0.0
  9
$UCSXDIR
 10
1.0
 20
0.0
 30
0.0
  9
$UCSYDIR
 10
0.0
 20
1.0
 30
0.0
  9
$PUCSNAME
  2

  9
$PUCSORG
 10
0.0
 20
0.0
 30
0.0
  9
$PUCSXDIR
 10
1.0
 20
0.0
 30
0.0
  9
$PUCSYDIR
 10
0.0
 20
1.0
 30
0.0
  9
$USERI1
 70
     0
  9
$USERI2
 70
     0
  9
$USERI3
 70
     0
  9
$USERI4
 70
     0
  9
$USERI5
 70
     0
  9
$USERR1
 40
0.0
  9
$USERR2
 40
0.0
  9
$USERR3
 40
0.0
  9
$USERR4
 40
0.0
  9
$USERR5
 40
0.0
  9
$WORLDVIEW
 70
     1
  9
$SHADEDGE
 70
     3
  9
$SHADEDIF
 70
    70
  9
$TILEMODE
 70
     1
  9
$MAXACTVP
 70
    48
  9
$PLIMCHECK
 70
     0
  9
$PEXTMIN
 10
1.0000000000000000E+020
 20
1.0000000000000000E+020
 30
1.0000000000000000E+020
  9
$PEXTMAX
 10
-1.0000000000000000E+020
 20
-1.0000000000000000E+020
 30
-1.0000000000000000E+020
  9
$PLIMMIN
 10
0.0
 20
0.0
  9
$PLIMMAX
 10
12.0
 20
9.0
  9
$UNITMODE
 70
     0
  9
$VISRETAIN
 70
     1
  9
$PLINEGEN
 70
     0
  9
$PSLTSCALE
 70
     1
  0
ENDSEC
  0
SECTION
  2
TABLES
  0
TABLE
  2
VPORT
 70
     1
  0
VPORT
  2
*ACTIVE
 70
     0
 10
0.0
 20
0.0
 11
1.0
 21
1.0
 12
190.8815905717185
 22
127.4293
 13
0.0
 23
0.0
 14
1.0
 24
1.0
 15
0.0
 25
0.0
 16
0.0
 26
0.0
 36
1.0
 17
0.0
 27
0.0
 37
0.0
 40
280.94834154544247
 41
2.298642533936651
 42
50.0
 43
0.0
 44
0.0
 50
0.0
 51
0.0
 71
     0
 72
   100
 73
     1
 74
     1
 75
     0
 76
     0
 77
     0
 78
     0
  0
ENDTAB
  0
TABLE
  2
LTYPE
 70
     2
  0
LTYPE
  2
CONTINUOUS
 70
     0
  3
Solid line
 72
    65
 73
     0
 40
0.0
  0
LTYPE
  2
AIGENLINE001
 70
     0
  3
generate AI->DXF Converter
 72
    65
 73
     4
 40
5.8561449999999988
 49
3.5278
 49
-0.776115
 49
0.776115
 49
-0.776115
  0
ENDTAB
  0
TABLE
  2
LAYER
 70
     2
  0
LAYER
  2
0
 70
     0
 62
     7
  6
CONTINUOUS
  0
LAYER
  2
_________2
 70
     0
 62
     7
  6
CONTINUOUS
  0
ENDTAB
  0
TABLE
  2
STYLE
 70
     1
  0
STYLE
  2
STANDARD
 70
     0
 40
0.0
 41
0.0
 50
0.0
 71
     0
 42
0.0
  3
TXT
  4
EXTFONT.SHX
  0
ENDTAB
  0
TABLE
  2
VIEW
 70
     0
  0
ENDTAB
  0
TABLE
  2
UCS
 70
     0
  0
ENDTAB
  0
TABLE
  2
APPID
 70
     3
  0
APPID
  2
ACAD
 70
     0
  0
APPID
  2
ACAD_NAV_VCDISPLAY
 70
     0
  0
APPID
  2
ACAD_MLEADERVER
 70
     0
  0
ENDTAB
  0
TABLE
  2
DIMSTYLE
 70
     1
  0
DIMSTYLE
  2
STANDARD
 70
     0
  3

  4

  5

  6

  7

 40
1.0
 41
0.18
 42
0.0625
 43
0.38
 44
0.18
 45
0.0
 46
0.0
 47
0.0
 48
0.0
140
0.18
141
0.09
142
0.0
143
25.399999999999999
144
1.0
145
0.0
146
1.0
147
0.09
 71
     0
 72
     0
 73
     1
 74
     1
 75
     0
 76
     0
 77
     0
 78
     0
170
     0
171
     2
172
     0
173
     0
174
     0
175
     0
176
     0
177
     0
178
     0
  0
ENDTAB
  0
ENDSEC
  0
SECTION
  2
BLOCKS
  0
BLOCK
  8
0
  2
$MODEL_SPACE
 70
     0
 10
0.0
 20
0.0
 30
0.0
  3
$MODEL_SPACE
  1

  0
ENDBLK
  5
1A
  8
0
  0
BLOCK
 67
     1
  8
0
  2
$PAPER_SPACE
 70
     0
 10
0.0
 20
0.0
 30
0.0
  3
$PAPER_SPACE
  1

  0
ENDBLK
  5
17
 67
     1
  8
0
  0
ENDSEC
  0
SECTION
  2
ENTITIES
  0
TEXT
  5
22
  8
0
 62
     7
 10
125.343525
 20
144.881
 30
0.0
 40
3.0923400000000001
  1
75
 41
0.5
 72
     1
 11
126.63200000000001
 21
144.881
 31
0.0
  0
TEXT
  5
23
  8
0
 62
     7
 10
141.98006749999999
 20
133.251
 30
0.0
 40
3.0923400000000001
  1
10
 41
0.5
 72
     1
 11
142.88200000000001
 21
133.251
 31
0.0
  0
TEXT
  5
24
  8
0
 62
     7
 10
129.343525
 20
138.81
 30
0.0
 40
3.0923400000000001
  1
59
 41
0.5
 72
     1
 11
130.63200000000001
 21
138.81
 31
0.0
  0
TEXT
  5
25
  8
0
 62
     7
 10
128.61699999999999
 20
102.798525
 30
0.0
 40
3.0923400000000001
  1
34
 50
90.0
 41
0.5
 72
     1
 11
128.61699999999999
 21
104.087
 31
0.0
  0
TEXT
  5
26
  8
0
 62
     7
 10
113.30504999999999
 20
89.683299999999988
 30
0.0
 40
3.0923400000000001
  1
G1/2
 41
0.5
 72
     1
 11
115.88200000000001
 21
89.683299999999988
 31
0.0
  0
TEXT
  5
27
  8
0
 62
     7
 10
165.15199999999999
 20
112.92805
 30
0.0
 40
3.0923400000000001
  1
R1/2
 50
90.0
 41
0.5
 72
     1
 11
165.15199999999999
 21
115.505
 31
0.0
  0
TEXT
  5
28
  8
0
 62
     7
 10
98.316400000000002
 20
113.44344
 30
0.0
 40
3.0923400000000001
  1
%%c32
 50
90.0
 41
0.5
 72
     1
 11
98.316400000000002
 21
115.505
 31
0.0
  0
TEXT
  5
29
  8
0
 62
     7
 10
60.442839999999997
 20
89.683299999999988
 30
0.0
 40
3.0923400000000001
  1
%%c46
 41
0.5
 72
     1
 11
62.504399999999997
 21
89.683299999999988
 31
0.0
  0
TEXT
  5
2A
  8
0
 62
     7
 10
148.15143299999991
 20
89.683299999999988
 30
0.0
 40
3.0923400000000001
  1
9～19
 41
0.5
 72
     1
 11
150.88300000000001
 21
89.683299999999988
 31
0.0
  0
LINE
  5
2B
  8
0
  6
AIGENLINE001
 62
     7
 10
62.504800000000003
 20
96.364099999999993
 30
0.0
 11
62.504800000000003
 21
129.85900000000001
 31
0.0
  0
LINE
  5
2C
  8
0
  6
AIGENLINE001
 62
     7
 10
47.3917
 20
115.505
 30
0.0
 11
77.713899999999995
 21
115.505
 31
0.0
  0
LINE
  5
2D
  8
0
 62
     7
 10
138.17099999999999
 20
131.958
 30
0.0
 11
140.38200000000001
 21
132.55099999999999
 31
0.0
  0
LINE
  5
2E
  8
0
 62
     7
 10
140.38200000000001
 20
132.55099999999999
 30
0.0
 11
138.17099999999999
 21
133.143
 31
0.0
  0
LINE
  5
2F
  8
0
 62
     7
 10
138.17099999999999
 20
133.143
 30
0.0
 11
138.17099999999999
 21
131.958
 31
0.0
  0
LINE
  5
30
  8
0
 62
     7
 10
147.59299999999999
 20
133.143
 30
0.0
 11
145.38200000000001
 21
132.55099999999999
 31
0.0
  0
LINE
  5
31
  8
0
 62
     7
 10
145.38200000000001
 20
132.55099999999999
 30
0.0
 11
147.59299999999999
 21
131.958
 31
0.0
  0
LINE
  5
32
  8
0
 62
     7
 10
147.59299999999999
 20
131.958
 30
0.0
 11
147.59299999999999
 21
133.143
 31
0.0
  0
LINE
  5
33
  8
0
 62
     7
 10
149.74799999999999
 20
132.55099999999999
 30
0.0
 11
136.274
 21
132.55099999999999
 31
0.0
  0
LINE
  5
34
  8
0
 62
     7
 10
143.17099999999999
 20
143.596
 30
0.0
 11
145.3829999999999
 21
144.18799999999999
 31
0.0
  0
LINE
  5
35
  8
0
 62
     7
 10
145.3829999999999
 20
144.18799999999999
 30
0.0
 11
143.17099999999999
 21
144.78100000000001
 31
0.0
  0
LINE
  5
36
  8
0
 62
     7
 10
143.17099999999999
 20
144.78100000000001
 30
0.0
 11
143.17099999999999
 21
143.596
 31
0.0
  0
LINE
  5
37
  8
0
 62
     7
 10
110.093
 20
144.76599999999999
 30
0.0
 11
107.881
 21
144.17400000000001
 31
0.0
  0
LINE
  5
38
  8
0
 62
     7
 10
107.881
 20
144.17400000000001
 30
0.0
 11
110.093
 21
143.58099999999999
 31
0.0
  0
LINE
  5
39
  8
0
 62
     7
 10
110.093
 20
143.58099999999999
 30
0.0
 11
110.093
 21
144.76599999999999
 31
0.0
  0
LINE
  5
3A
  8
0
 62
     7
 10
145.38200000000001
 20
144.18100000000001
 30
0.0
 11
107.88200000000001
 21
144.18100000000001
 31
0.0
  0
LINE
  5
3B
  8
0
 62
     7
 10
143.17099999999999
 20
137.52500000000001
 30
0.0
 11
145.3829999999999
 21
138.11799999999999
 31
0.0
  0
LINE
  5
3C
  8
0
 62
     7
 10
145.3829999999999
 20
138.11799999999999
 30
0.0
 11
143.17099999999999
 21
138.71000000000001
 31
0.0
  0
LINE
  5
3D
  8
0
 62
     7
 10
143.17099999999999
 20
138.71000000000001
 30
0.0
 11
143.17099999999999
 21
137.52500000000001
 31
0.0
  0
LINE
  5
3E
  8
0
 62
     7
 10
118.092
 20
138.696
 30
0.0
 11
115.881
 21
138.10299999999989
 31
0.0
  0
LINE
  5
3F
  8
0
 62
     7
 10
115.881
 20
138.10299999999989
 30
0.0
 11
118.092
 21
137.50999999999999
 31
0.0
  0
LINE
  5
40
  8
0
 62
     7
 10
118.092
 20
137.50999999999999
 30
0.0
 11
118.092
 21
138.696
 31
0.0
  0
LINE
  5
41
  8
0
 62
     7
 10
145.38200000000001
 20
138.11000000000001
 30
0.0
 11
115.88200000000001
 21
138.11000000000001
 31
0.0
  0
LINE
  5
42
  8
0
 62
     7
 10
115.88200000000001
 20
113.432
 30
0.0
 11
115.88200000000001
 21
139.56
 31
0.0
  0
LINE
  5
43
  8
0
 62
     7
 10
107.88200000000001
 20
124.551
 30
0.0
 11
107.88200000000001
 21
144.881
 31
0.0
  0
LINE
  5
44
  8
0
 62
     7
 10
140.38200000000001
 20
127.705
 30
0.0
 11
140.38200000000001
 21
133.251
 31
0.0
  0
LINE
  5
45
  8
0
 62
     7
 10
145.38200000000001
 20
127.705
 30
0.0
 11
145.38200000000001
 21
144.881
 31
0.0
  0
LINE
  5
46
  8
0
 62
     7
 10
128.73099999999999
 20
100.715
 30
0.0
 11
129.32400000000001
 21
98.504199999999983
 31
0.0
  0
LINE
  5
47
  8
0
 62
     7
 10
129.32400000000001
 20
98.504199999999983
 30
0.0
 11
129.916
 21
100.715
 31
0.0
  0
LINE
  5
48
  8
0
 62
     7
 10
129.916
 20
100.715
 30
0.0
 11
128.73099999999999
 21
100.715
 31
0.0
  0
LINE
  5
49
  8
0
 62
     7
 10
129.90199999999999
 20
113.294
 30
0.0
 11
129.309
 21
115.506
 31
0.0
  0
LINE
  5
4A
  8
0
 62
     7
 10
129.309
 20
115.506
 30
0.0
 11
128.71700000000001
 21
113.294
 31
0.0
  0
LINE
  5
4B
  8
0
 62
     7
 10
128.71700000000001
 20
113.294
 30
0.0
 11
129.90199999999999
 21
113.294
 31
0.0
  0
LINE
  5
4C
  8
0
 62
     7
 10
129.31700000000001
 20
98.504900000000006
 30
0.0
 11
129.31700000000001
 21
115.505
 31
0.0
  0
LINE
  5
4D
  8
0
 62
     7
 10
121.489
 20
98.504900000000006
 30
0.0
 11
130.017
 21
98.504900000000006
 31
0.0
  0
LINE
  5
4E
  8
0
 62
     7
 10
118.82899999999999
 20
88.397900000000007
 30
0.0
 11
121.04000000000001
 21
88.990499999999997
 31
0.0
  0
LINE
  5
4F
  8
0
 62
     7
 10
121.04000000000001
 20
88.990499999999997
 30
0.0
 11
118.82899999999999
 21
89.582999999999984
 31
0.0
  0
LINE
  5
50
  8
0
 62
     7
 10
118.82899999999999
 20
89.582999999999984
 30
0.0
 11
118.82899999999999
 21
88.397900000000007
 31
0.0
  0
LINE
  5
51
  8
0
 62
     7
 10
112.93300000000001
 20
89.568600000000004
 30
0.0
 11
110.72199999999999
 21
88.975999999999999
 31
0.0
  0
LINE
  5
52
  8
0
 62
     7
 10
110.72199999999999
 20
88.975999999999999
 30
0.0
 11
112.93300000000001
 21
88.383399999999995
 31
0.0
  0
LINE
  5
53
  8
0
 62
     7
 10
112.93300000000001
 20
88.383399999999995
 30
0.0
 11
112.93300000000001
 21
89.568600000000004
 31
0.0
  0
LINE
  5
54
  8
0
 62
     7
 10
121.039
 20
88.983199999999997
 30
0.0
 11
110.723
 21
88.983199999999997
 31
0.0
  0
LINE
  5
55
  8
0
 62
     7
 10
110.723
 20
98.055300000000003
 30
0.0
 11
110.723
 21
88.283199999999994
 31
0.0
  0
LINE
  5
56
  8
0
 62
     7
 10
121.039
 20
98.055300000000003
 30
0.0
 11
121.039
 21
88.283199999999994
 31
0.0
  0
LINE
  5
57
  8
0
  6
AIGENLINE001
 62
     7
 10
158.315
 20
115.505
 30
0.0
 11
105.56699999999999
 21
115.505
 31
0.0
  0
LINE
  5
58
  8
0
  6
AIGENLINE001
 62
     7
 10
115.88200000000001
 20
97.017899999999997
 30
0.0
 11
115.88200000000001
 21
112.73099999999999
 31
0.0
  0
LINE
  5
59
  8
0
  6
AIGENLINE001
 62
     7
 10
62.504800000000003
 20
215.155
 30
0.0
 11
62.504800000000003
 21
161.45599999999999
 31
0.0
  0
LINE
  5
5A
  8
0
 62
     7
 10
67.224599999999995
 20
206.273
 30
0.0
 11
67.037800000000004
 21
212.27199999999999
 31
0.0
  0
LINE
  5
5B
  8
0
 62
     7
 10
67.838499999999996
 20
205.208
 30
0.0
 11
67.224599999999995
 21
206.273
 31
0.0
  0
LINE
  5
5C
  8
0
 62
     7
 10
67.224599999999995
 20
206.273
 30
0.0
 11
57.784999999999997
 21
206.273
 31
0.0
  0
LINE
  5
5D
  8
0
 62
     7
 10
57.784999999999997
 20
206.273
 30
0.0
 11
57.171000000000006
 21
205.208
 31
0.0
  0
LINE
  5
5E
  8
0
 62
     7
 10
57.971699999999998
 20
212.27199999999999
 30
0.0
 11
57.784999999999997
 21
206.273
 31
0.0
  0
LINE
  5
5F
  8
0
 62
     7
 10
62.761099999999999
 20
168.48599999999999
 30
0.0
 11
62.457900000000002
 21
168.48599999999999
 31
0.0
  0
LINE
  5
60
  8
0
 62
     7
 10
62.457900000000002
 20
168.48599999999999
 30
0.0
 11
62.457900000000002
 21
168.745
 31
0.0
  0
LINE
  5
61
  8
0
 62
     7
 10
62.457900000000002
 20
168.745
 30
0.0
 11
62.761099999999999
 21
168.745
 31
0.0
  0
LINE
  5
62
  8
0
 62
     7
 10
62.761099999999999
 20
168.745
 30
0.0
 11
62.761099999999999
 21
168.48599999999999
 31
0.0
  0
LINE
  5
63
  8
0
 62
     7
 10
62.776899999999991
 20
168.857
 30
0.0
 11
62.347000000000001
 21
168.857
 31
0.0
  0
LINE
  5
64
  8
0
 62
     7
 10
62.347000000000001
 20
168.857
 30
0.0
 11
62.347000000000001
 21
168.374
 31
0.0
  0
LINE
  5
65
  8
0
 62
     7
 10
62.347000000000001
 20
168.374
 30
0.0
 11
62.776899999999991
 21
168.374
 31
0.0
  0
ARC
  5
66
  8
0
 62
     7
 10
62.773961
 20
168.471306
 30
0.0
 40
0.097446
 50
271.74435199999999
 51
357.62488500000001
  0
LINE
  5
67
  8
0
 62
     7
 10
62.871299999999998
 20
168.46700000000001
 30
0.0
 11
62.871299999999998
 21
168.762
 31
0.0
  0
ARC
  5
68
  8
0
 62
     7
 10
62.773293999999993
 20
168.75853699999999
 30
0.0
 40
0.098096
 50
2.1222080000000001
 51
87.877781999999996
  0
LINE
  5
69
  8
0
 62
     7
 10
62.352499999999999
 20
170.874
 30
0.0
 11
61.883999999999993
 21
170.874
 31
0.0
  0
ARC
  5
6A
  8
0
 62
     7
 10
61.907209999999992
 20
170.25232500000001
 30
0.0
 40
0.6224810000000001
 50
92.141227999999998
 51
177.79277099999999
  0
LINE
  5
6B
  8
0
 62
     7
 10
61.285200000000003
 20
170.27600000000001
 30
0.0
 11
61.285200000000003
 21
169.19499999999999
 31
0.0
  0
ARC
  5
6C
  8
0
 62
     7
 10
61.384143000000002
 20
169.19893400000001
 30
0.0
 40
0.099021
 50
182.14893799999999
 51
268.16107699999998
  0
LINE
  5
6D
  8
0
 62
     7
 10
61.381
 20
169.09999999999999
 30
0.0
 11
62.352499999999999
 21
169.09999999999999
 31
0.0
  0
ARC
  5
6E
  8
0
 62
     7
 10
62.349587999999997
 20
169.198655
 30
0.0
 40
0.098735
 50
271.68343300000009
 51
358.00659100000001
  0
LINE
  5
6F
  8
0
 62
     7
 10
62.448300000000003
 20
169.19499999999999
 30
0.0
 11
62.448300000000003
 21
169.30500000000001
 31
0.0
  0
ARC
  5
70
  8
0
 62
     7
 10
62.349311
 20
169.30140700000001
 30
0.0
 40
0.099021
 50
2.1489189999999989
 51
88.161056999999985
  0
LINE
  5
71
  8
0
 62
     7
 10
62.352499999999999
 20
169.40000000000001
 30
0.0
 11
61.578699999999991
 21
169.40000000000001
 31
0.0
  0
LINE
  5
72
  8
0
 62
     7
 10
61.578699999999991
 20
169.40000000000001
 30
0.0
 11
61.578699999999991
 21
169.83699999999999
 31
0.0
  0
LINE
  5
73
  8
0
 62
     7
 10
61.578699999999991
 20
169.83699999999999
 30
0.0
 11
62.258099999999999
 21
169.83699999999999
 31
0.0
  0
ARC
  5
74
  8
0
 62
     7
 10
62.254485999999993
 20
169.93502000000001
 30
0.0
 40
0.09804
 50
272.10779100000002
 51
358.41261300000002
  0
LINE
  5
75
  8
0
 62
     7
 10
62.352499999999999
 20
169.93199999999999
 30
0.0
 11
62.352499999999999
 21
170.042
 31
0.0
  0
ARC
  5
76
  8
0
 62
     7
 10
62.253400999999997
 20
170.03841800000001
 30
0.0
 40
0.099153
 50
2.0879490000000001
 51
87.288137000000006
  0
LINE
  5
77
  8
0
 62
     7
 10
62.258099999999999
 20
170.137
 30
0.0
 11
61.578699999999991
 21
170.137
 31
0.0
  0
LINE
  5
78
  8
0
 62
     7
 10
61.578699999999991
 20
170.137
 30
0.0
 11
61.578699999999991
 21
170.57400000000001
 31
0.0
  0
LINE
  5
79
  8
0
 62
     7
 10
61.578699999999991
 20
170.57400000000001
 30
0.0
 11
62.352499999999999
 21
170.57400000000001
 31
0.0
  0
ARC
  5
7A
  8
0
 62
     7
 10
62.349741000000002
 20
170.67249000000001
 30
0.0
 40
0.098571
 50
271.59741600000001
 51
358.196123
  0
LINE
  5
7B
  8
0
 62
     7
 10
62.448300000000003
 20
170.66900000000001
 30
0.0
 11
62.448300000000003
 21
170.779
 31
0.0
  0
ARC
  5
7C
  8
0
 62
     7
 10
62.350169999999999
 20
170.77554499999999
 30
0.0
 40
0.098164
 50
2.183929
 51
88.646419999999992
  0
LINE
  5
7D
  8
0
 62
     7
 10
61.003399999999999
 20
170.874
 30
0.0
 11
60.533499999999997
 21
170.874
 31
0.0
  0
ARC
  5
7E
  8
0
 62
     7
 10
60.556695999999988
 20
170.25163599999999
 30
0.0
 40
0.6231680000000001
 50
92.136278000000004
 51
177.73182600000001
  0
LINE
  5
7F
  8
0
 62
     7
 10
59.933999999999997
 20
170.27600000000001
 30
0.0
 11
59.933999999999997
 21
169.19499999999999
 31
0.0
  0
ARC
  5
80
  8
0
 62
     7
 10
60.032926000000003
 20
169.198837
 30
0.0
 40
0.098976
 50
182.093616
 51
267.38601999999997
  0
LINE
  5
81
  8
0
 62
     7
 10
60.028399999999991
 20
169.09999999999999
 30
0.0
 11
61.003399999999999
 21
169.09999999999999
 31
0.0
  0
ARC
  5
82
  8
0
 62
     7
 10
60.999963000000001
 20
169.199895
 30
0.0
 40
0.09999
 50
271.95877200000001
 51
357.32054599999998
  0
LINE
  5
83
  8
0
 62
     7
 10
61.099800000000002
 20
169.19499999999999
 30
0.0
 11
61.099800000000002
 21
169.30500000000001
 31
0.0
  0
ARC
  5
84
  8
0
 62
     7
 10
61.000864
 20
169.30135799999999
 30
0.0
 40
0.099052
 50
2.17666
 51
88.544022999999996
  0
LINE
  5
85
  8
0
 62
     7
 10
61.003399999999999
 20
169.40000000000001
 30
0.0
 11
60.228200000000001
 21
169.40000000000001
 31
0.0
  0
LINE
  5
86
  8
0
 62
     7
 10
60.228200000000001
 20
169.40000000000001
 30
0.0
 11
60.228200000000001
 21
170.57400000000001
 31
0.0
  0
LINE
  5
87
  8
0
 62
     7
 10
60.228200000000001
 20
170.57400000000001
 30
0.0
 11
61.003399999999999
 21
170.57400000000001
 31
0.0
  0
ARC
  5
88
  8
0
 62
     7
 10
61.000121999999998
 20
170.67372
 30
0.0
 40
0.099816
 50
271.870745
 51
357.51208199999991
  0
LINE
  5
89
  8
0
 62
     7
 10
61.099800000000002
 20
170.66900000000001
 30
0.0
 11
61.099800000000002
 21
170.779
 31
0.0
  0
ARC
  5
8A
  8
0
 62
     7
 10
61.001716000000002
 20
170.775496
 30
0.0
 40
0.098201
 50
2.211984999999999
 51
89.029019999999988
  0
LINE
  5
8B
  8
0
 62
     7
 10
61.163200000000003
 20
168.65799999999999
 30
0.0
 11
60.863500000000002
 21
168.65799999999999
 31
0.0
  0
LINE
  5
8C
  8
0
 62
     7
 10
60.863500000000002
 20
168.65799999999999
 30
0.0
 11
60.863500000000002
 21
168.745
 31
0.0
  0
LINE
  5
8D
  8
0
 62
     7
 10
60.863500000000002
 20
168.745
 30
0.0
 11
61.163200000000003
 21
168.745
 31
0.0
  0
LINE
  5
8E
  8
0
 62
     7
 10
61.163200000000003
 20
168.745
 30
0.0
 11
61.163200000000003
 21
168.65799999999999
 31
0.0
  0
LINE
  5
8F
  8
0
 62
     7
 10
61.181100000000001
 20
168.857
 30
0.0
 11
60.751199999999997
 21
168.857
 31
0.0
  0
LINE
  5
90
  8
0
 62
     7
 10
60.751199999999997
 20
168.857
 30
0.0
 11
60.751199999999997
 21
168.374
 31
0.0
  0
LINE
  5
91
  8
0
 62
     7
 10
60.751199999999997
 20
168.374
 30
0.0
 11
60.863500000000002
 21
168.374
 31
0.0
  0
LINE
  5
92
  8
0
 62
     7
 10
60.863500000000002
 20
168.374
 30
0.0
 11
60.863500000000002
 21
168.54599999999999
 31
0.0
  0
LINE
  5
93
  8
0
 62
     7
 10
60.863500000000002
 20
168.54599999999999
 30
0.0
 11
61.163200000000003
 21
168.54599999999999
 31
0.0
  0
LINE
  5
94
  8
0
 62
     7
 10
61.163200000000003
 20
168.54599999999999
 30
0.0
 11
61.163200000000003
 21
168.374
 31
0.0
  0
LINE
  5
95
  8
0
 62
     7
 10
61.163200000000003
 20
168.374
 30
0.0
 11
61.2742
 21
168.374
 31
0.0
  0
LINE
  5
96
  8
0
 62
     7
 10
61.2742
 20
168.374
 30
0.0
 11
61.2742
 21
168.536
 31
0.0
  0
ARC
  5
97
  8
0
 62
     7
 10
61.200412999999998
 20
168.53522599999999
 30
0.0
 40
0.07376
 50
0.733444
 51
67.45650400000001
  0
ARC
  5
98
  8
0
 62
     7
 10
61.202192000000011
 20
168.67657199999999
 30
0.0
 40
0.072711
 50
291.373378
 51
8.1609509999999972
  0
LINE
  5
99
  8
0
 62
     7
 10
61.2742
 20
168.68700000000001
 30
0.0
 11
61.2742
 21
168.762
 31
0.0
  0
ARC
  5
9A
  8
0
 62
     7
 10
61.176369999999999
 20
168.75882899999999
 30
0.0
 40
0.097854
 50
1.956412
 51
87.201008999999999
  0
LINE
  5
9B
  8
0
 62
     7
 10
59.963299999999997
 20
168.745
 30
0.0
 11
60.184800000000003
 21
168.745
 31
0.0
  0
LINE
  5
9C
  8
0
 62
     7
 10
60.184800000000003
 20
168.745
 30
0.0
 11
60.184800000000003
 21
168.374
 31
0.0
  0
LINE
  5
9D
  8
0
 62
     7
 10
60.184800000000003
 20
168.374
 30
0.0
 11
60.2958
 21
168.374
 31
0.0
  0
LINE
  5
9E
  8
0
 62
     7
 10
60.2958
 20
168.374
 30
0.0
 11
60.2958
 21
168.745
 31
0.0
  0
LINE
  5
9F
  8
0
 62
     7
 10
60.2958
 20
168.745
 30
0.0
 11
60.5169
 21
168.745
 31
0.0
  0
LINE
  5
A0
  8
0
 62
     7
 10
60.5169
 20
168.745
 30
0.0
 11
60.5169
 21
168.857
 31
0.0
  0
LINE
  5
A1
  8
0
 62
     7
 10
60.5169
 20
168.857
 30
0.0
 11
59.963299999999997
 21
168.857
 31
0.0
  0
LINE
  5
A2
  8
0
 62
     7
 10
59.963299999999997
 20
168.857
 30
0.0
 11
59.963299999999997
 21
168.745
 31
0.0
  0
LINE
  5
A3
  8
0
 62
     7
 10
61.709600000000002
 20
168.58600000000001
 30
0.0
 11
61.806100000000001
 21
168.76599999999999
 31
0.0
  0
LINE
  5
A4
  8
0
 62
     7
 10
61.806100000000001
 20
168.76599999999999
 30
0.0
 11
61.901899999999998
 21
168.58600000000001
 31
0.0
  0
LINE
  5
A5
  8
0
 62
     7
 10
61.901899999999998
 20
168.58600000000001
 30
0.0
 11
61.709600000000002
 21
168.58600000000001
 31
0.0
  0
LINE
  5
A6
  8
0
 62
     7
 10
61.749600000000001
 20
168.857
 30
0.0
 11
61.469799999999999
 21
168.374
 31
0.0
  0
LINE
  5
A7
  8
0
 62
     7
 10
61.469799999999999
 20
168.374
 30
0.0
 11
61.598700000000001
 21
168.374
 31
0.0
  0
LINE
  5
A8
  8
0
 62
     7
 10
61.598700000000001
 20
168.374
 30
0.0
 11
61.651800000000001
 21
168.47499999999999
 31
0.0
  0
LINE
  5
A9
  8
0
 62
     7
 10
61.651800000000001
 20
168.47499999999999
 30
0.0
 11
61.960399999999993
 21
168.47499999999999
 31
0.0
  0
LINE
  5
AA
  8
0
 62
     7
 10
61.960399999999993
 20
168.47499999999999
 30
0.0
 11
62.012799999999999
 21
168.374
 31
0.0
  0
LINE
  5
AB
  8
0
 62
     7
 10
62.012799999999999
 20
168.374
 30
0.0
 11
62.14159999999999
 21
168.374
 31
0.0
  0
LINE
  5
AC
  8
0
 62
     7
 10
62.14159999999999
 20
168.374
 30
0.0
 11
61.862200000000001
 21
168.857
 31
0.0
  0
LINE
  5
AD
  8
0
 62
     7
 10
61.862200000000001
 20
168.857
 30
0.0
 11
61.749600000000001
 21
168.857
 31
0.0
  0
LINE
  5
AE
  8
0
 62
     7
 10
64.899100000000004
 20
170.874
 30
0.0
 11
64.327200000000005
 21
170.874
 31
0.0
  0
ARC
  5
AF
  8
0
 62
     7
 10
64.350536000000005
 20
170.254065
 30
0.0
 40
0.620744
 50
92.151767000000021
 51
177.94730300000001
  0
LINE
  5
B0
  8
0
 62
     7
 10
63.730200000000004
 20
170.27600000000001
 30
0.0
 11
63.730200000000004
 21
169.19499999999999
 31
0.0
  0
ARC
  5
B1
  8
0
 62
     7
 10
63.829101000000001
 20
169.198837
 30
0.0
 40
0.098976
 50
182.093616
 51
267.38601999999997
  0
LINE
  5
B2
  8
0
 62
     7
 10
63.824599999999997
 20
169.09999999999999
 30
0.0
 11
63.9283
 21
169.09999999999999
 31
0.0
  0
ARC
  5
B3
  8
0
 62
     7
 10
63.924678999999998
 20
169.197937
 30
0.0
 40
0.09804
 50
272.10779100000002
 51
358.41261300000002
  0
LINE
  5
B4
  8
0
 62
     7
 10
64.0227
 20
169.19499999999999
 30
0.0
 11
64.0227
 21
169.83699999999999
 31
0.0
  0
LINE
  5
B5
  8
0
 62
     7
 10
64.0227
 20
169.83699999999999
 30
0.0
 11
64.701400000000007
 21
169.83699999999999
 31
0.0
  0
LINE
  5
B6
  8
0
 62
     7
 10
64.701400000000007
 20
169.83699999999999
 30
0.0
 11
64.701400000000007
 21
169.19499999999999
 31
0.0
  0
ARC
  5
B7
  8
0
 62
     7
 10
64.800280000000001
 20
169.198837
 30
0.0
 40
0.098976
 50
182.093616
 51
267.38601999999997
  0
LINE
  5
B8
  8
0
 62
     7
 10
64.7958
 20
169.09999999999999
 30
0.0
 11
64.899100000000004
 21
169.09999999999999
 31
0.0
  0
ARC
  5
B9
  8
0
 62
     7
 10
64.895701000000003
 20
169.199895
 30
0.0
 40
0.09999
 50
271.95877200000001
 51
357.32054599999998
  0
LINE
  5
BA
  8
0
 62
     7
 10
64.995599999999996
 20
169.19499999999999
 30
0.0
 11
64.995599999999996
 21
170.779
 31
0.0
  0
ARC
  5
BB
  8
0
 62
     7
 10
64.897455000000008
 20
170.775496
 30
0.0
 40
0.098201
 50
2.211984999999999
 51
89.029019999999988
  0
LINE
  5
BC
  8
0
 62
     7
 10
63.539700000000003
 20
170.874
 30
0.0
 11
63.259900000000002
 21
170.874
 31
0.0
  0
ARC
  5
BD
  8
0
 62
     7
 10
63.283284000000002
 20
170.25580500000001
 30
0.0
 40
0.619007
 50
92.161920999999978
 51
178.10269500000001
  0
LINE
  5
BE
  8
0
 62
     7
 10
62.6646
 20
170.27600000000001
 30
0.0
 11
62.6646
 21
169.19499999999999
 31
0.0
  0
ARC
  5
BF
  8
0
 62
     7
 10
62.763327000000011
 20
169.19864000000001
 30
0.0
 40
0.098771
 50
181.983679
 51
267.49595699999998
  0
LINE
  5
C0
  8
0
 62
     7
 10
62.759
 20
169.09999999999999
 30
0.0
 11
62.860599999999991
 21
169.09999999999999
 31
0.0
  0
ARC
  5
C1
  8
0
 62
     7
 10
62.857107999999997
 20
169.19965300000001
 30
0.0
 40
0.099753
 50
272.03103800000002
 51
357.453262
  0
LINE
  5
C2
  8
0
 62
     7
 10
62.956800000000001
 20
169.19499999999999
 30
0.0
 11
62.956800000000001
 21
170.57400000000001
 31
0.0
  0
LINE
  5
C3
  8
0
 62
     7
 10
62.956800000000001
 20
170.57400000000001
 30
0.0
 11
63.539700000000003
 21
170.57400000000001
 31
0.0
  0
ARC
  5
C4
  8
0
 62
     7
 10
63.536966999999997
 20
170.67103800000001
 30
0.0
 40
0.097119
 50
271.598206
 51
359.02570900000001
  0
LINE
  5
C5
  8
0
 62
     7
 10
63.634099999999997
 20
170.66900000000001
 30
0.0
 11
63.634099999999997
 21
170.779
 31
0.0
  0
ARC
  5
C6
  8
0
 62
     7
 10
63.536229000000013
 20
170.77583899999999
 30
0.0
 40
0.097904
 50
2.017741
 51
87.982248999999996
  0
LINE
  5
C7
  8
0
 62
     7
 10
64.018500000000003
 20
168.501
 30
0.0
 11
63.666499999999992
 21
168.857
 31
0.0
  0
LINE
  5
C8
  8
0
 62
     7
 10
63.666499999999992
 20
168.857
 30
0.0
 11
63.556199999999997
 21
168.857
 31
0.0
  0
LINE
  5
C9
  8
0
 62
     7
 10
63.556199999999997
 20
168.857
 30
0.0
 11
63.556199999999997
 21
168.374
 31
0.0
  0
LINE
  5
CA
  8
0
 62
     7
 10
63.556199999999997
 20
168.374
 30
0.0
 11
63.666499999999992
 21
168.374
 31
0.0
  0
LINE
  5
CB
  8
0
 62
     7
 10
63.666499999999992
 20
168.374
 30
0.0
 11
63.666499999999992
 21
168.72999999999999
 31
0.0
  0
LINE
  5
CC
  8
0
 62
     7
 10
63.666499999999992
 20
168.72999999999999
 30
0.0
 11
64.018500000000003
 21
168.374
 31
0.0
  0
LINE
  5
CD
  8
0
 62
     7
 10
64.018500000000003
 20
168.374
 30
0.0
 11
64.129499999999993
 21
168.374
 31
0.0
  0
LINE
  5
CE
  8
0
 62
     7
 10
64.129499999999993
 20
168.374
 30
0.0
 11
64.129499999999993
 21
168.857
 31
0.0
  0
LINE
  5
CF
  8
0
 62
     7
 10
64.129499999999993
 20
168.857
 30
0.0
 11
64.018500000000003
 21
168.857
 31
0.0
  0
LINE
  5
D0
  8
0
 62
     7
 10
64.018500000000003
 20
168.857
 30
0.0
 11
64.018500000000003
 21
168.501
 31
0.0
  0
LINE
  5
D1
  8
0
 62
     7
 10
63.154499999999999
 20
168.374
 30
0.0
 11
63.2654
 21
168.374
 31
0.0
  0
LINE
  5
D2
  8
0
 62
     7
 10
63.2654
 20
168.374
 30
0.0
 11
63.2654
 21
168.857
 31
0.0
  0
LINE
  5
D3
  8
0
 62
     7
 10
63.2654
 20
168.857
 30
0.0
 11
63.154499999999999
 21
168.857
 31
0.0
  0
LINE
  5
D4
  8
0
 62
     7
 10
63.154499999999999
 20
168.857
 30
0.0
 11
63.154499999999999
 21
168.374
 31
0.0
  0
LINE
  5
D5
  8
0
 62
     7
 10
64.935599999999994
 20
168.745
 30
0.0
 11
64.935599999999994
 21
168.857
 31
0.0
  0
LINE
  5
D6
  8
0
 62
     7
 10
64.935599999999994
 20
168.857
 30
0.0
 11
64.503600000000006
 21
168.857
 31
0.0
  0
ARC
  5
D7
  8
0
 62
     7
 10
64.507370999999992
 20
168.76054500000001
 30
0.0
 40
0.096095
 50
92.237580000000008
 51
179.03088
  0
LINE
  5
D8
  8
0
 62
     7
 10
64.411299999999997
 20
168.762
 30
0.0
 11
64.411299999999997
 21
168.46700000000001
 31
0.0
  0
ARC
  5
D9
  8
0
 62
     7
 10
64.508257999999998
 20
168.47082700000001
 30
0.0
 40
0.097032
 50
182.101902
 51
267.260334
  0
LINE
  5
DA
  8
0
 62
     7
 10
64.503600000000006
 20
168.374
 30
0.0
 11
64.935599999999994
 21
168.374
 31
0.0
  0
LINE
  5
DB
  8
0
 62
     7
 10
64.935599999999994
 20
168.374
 30
0.0
 11
64.935599999999994
 21
168.61699999999999
 31
0.0
  0
LINE
  5
DC
  8
0
 62
     7
 10
64.935599999999994
 20
168.61699999999999
 30
0.0
 11
64.824700000000007
 21
168.61699999999999
 31
0.0
  0
LINE
  5
DD
  8
0
 62
     7
 10
64.824700000000007
 20
168.61699999999999
 30
0.0
 11
64.824700000000007
 21
168.48599999999999
 31
0.0
  0
LINE
  5
DE
  8
0
 62
     7
 10
64.824700000000007
 20
168.48599999999999
 30
0.0
 11
64.523600000000002
 21
168.48599999999999
 31
0.0
  0
LINE
  5
DF
  8
0
 62
     7
 10
64.523600000000002
 20
168.48599999999999
 30
0.0
 11
64.523600000000002
 21
168.745
 31
0.0
  0
LINE
  5
E0
  8
0
 62
     7
 10
64.523600000000002
 20
168.745
 30
0.0
 11
64.935599999999994
 21
168.745
 31
0.0
  0
LINE
  5
E1
  8
0
 62
     7
 10
64.701400000000007
 20
170.137
 30
0.0
 11
64.0227
 21
170.137
 31
0.0
  0
LINE
  5
E2
  8
0
 62
     7
 10
64.0227
 20
170.137
 30
0.0
 11
64.0227
 21
170.57400000000001
 31
0.0
  0
LINE
  5
E3
  8
0
 62
     7
 10
64.0227
 20
170.57400000000001
 30
0.0
 11
64.701400000000007
 21
170.57400000000001
 31
0.0
  0
LINE
  5
E4
  8
0
 62
     7
 10
64.701400000000007
 20
170.57400000000001
 30
0.0
 11
64.701400000000007
 21
170.137
 31
0.0
  0
ARC
  5
E5
  8
0
 62
     7
 10
66.002360999999993
 20
169.62153599999999
 30
0.0
 40
0.9610749999999999
 50
0.134572
 51
31.495092
  0
ARC
  5
E6
  8
0
 62
     7
 10
65.55925400000001
 20
169.38774000000001
 30
0.0
 40
1.4614
 50
30.23505900000001
 51
46.449056999999989
  0
ARC
  5
E7
  8
0
 62
     7
 10
65.014786000000001
 20
168.864688
 30
0.0
 40
2.2158899999999999
 50
45.564019000000002
 51
54.157117999999997
  0
ARC
  5
E8
  8
0
 62
     7
 10
64.355920999999995
 20
167.97039699999999
 30
0.0
 40
3.326649999999999
 50
53.977509999999988
 51
65.763937999999996
  0
ARC
  5
E9
  8
0
 62
     7
 10
63.500259
 20
166.22080500000001
 30
0.0
 40
5.2736479999999997
 50
65.089850999999996
 51
73.700295999999994
  0
ARC
  5
EA
  8
0
 62
     7
 10
62.76785799999999
 20
163.87698499999999
 30
0.0
 40
7.7289519999999996
 50
73.365636999999992
 51
84.705830000000006
  0
ARC
  5
EB
  8
0
 62
     7
 10
62.476416
 20
161.751316
 30
0.0
 40
9.8728920000000002
 50
84.159930999999986
 51
90.067405999999977
  0
ARC
  5
EC
  8
0
 62
     7
 10
62.463531000000003
 20
161.864136
 30
0.0
 40
9.7600649999999991
 50
89.992546999999988
 51
101.23106300000001
  0
ARC
  5
ED
  8
0
 62
     7
 10
61.973578000000003
 20
164.59763799999999
 30
0.0
 40
6.9836770000000001
 50
101.65624099999999
 51
110.930984
  0
ARC
  5
EE
  8
0
 62
     7
 10
61.115045999999992
 20
166.95015100000001
 30
0.0
 40
4.4798640000000001
 50
111.423912
 51
120.724452
  0
ARC
  5
EF
  8
0
 62
     7
 10
60.234132999999993
 20
168.47551300000001
 30
0.0
 40
2.718631999999999
 50
121.18937699999999
 51
133.519327
  0
ARC
  5
F0
  8
0
 62
     7
 10
59.451447999999999
 20
169.33205899999999
 30
0.0
 40
1.558718
 50
134.337581
 51
153.52848299999999
  0
ARC
  5
F1
  8
0
 62
     7
 10
58.955651000000003
 20
169.61107799999999
 30
0.0
 40
0.9909459999999999
 50
155.19176400000001
 51
179.26476299999999
  0
ARC
  5
F2
  8
0
 62
     7
 10
58.926267000000003
 20
169.626045
 30
0.0
 40
0.961482
 50
180.134207
 51
211.48887500000001
  0
ARC
  5
F3
  8
0
 62
     7
 10
59.369661000000001
 20
169.86013700000001
 30
0.0
 40
1.462207
 50
210.235669
 51
226.44272599999999
  0
ARC
  5
F4
  8
0
 62
     7
 10
59.914695000000002
 20
170.38420199999999
 30
0.0
 40
2.2178189999999991
 50
225.56803500000001
 51
234.15464499999999
  0
ARC
  5
F5
  8
0
 62
     7
 10
60.572957000000002
 20
171.27833799999999
 30
0.0
 40
3.3281000000000001
 50
233.98281800000001
 51
245.7657189999999
  0
ARC
  5
F6
  8
0
 62
     7
 10
61.428044999999997
 20
173.02751599999999
 30
0.0
 40
5.2744790000000004
 50
245.09491700000001
 51
253.70577399999999
  0
ARC
  5
F7
  8
0
 62
     7
 10
62.159392000000011
 20
175.36583899999999
 30
0.0
 40
7.7242100000000002
 50
253.36524700000001
 51
264.716318
  0
ARC
  5
F8
  8
0
 62
     7
 10
62.452388999999997
 20
177.490285
 30
0.0
 40
9.8670789999999986
 50
264.15817399999997
 51
270.07207099999999
  0
ARC
  5
F9
  8
0
 62
     7
 10
62.466055000000011
 20
177.376407
 30
0.0
 40
9.7531940000000006
 50
269.99263300000001
 51
281.23407700000001
  0
ARC
  5
FA
  8
0
 62
     7
 10
62.953116999999999
 20
174.654528
 30
0.0
 40
6.9887750000000004
 50
281.66481700000003
 51
290.93029000000001
  0
ARC
  5
FB
  8
0
 62
     7
 10
63.813764999999997
 20
172.29552799999999
 30
0.0
 40
4.4781500000000003
 50
291.42737399999999
 51
300.72998999999999
  0
ARC
  5
FC
  8
0
 62
     7
 10
64.693558999999993
 20
170.772143
 30
0.0
 40
2.719193999999999
 50
301.19737700000002
 51
313.52409699999998
  0
ARC
  5
FD
  8
0
 62
     7
 10
65.476549000000006
 20
169.91532699999999
 30
0.0
 40
1.558875
 50
314.344492
 51
333.53523300000001
  0
ARC
  5
FE
  8
0
 62
     7
 10
65.972681999999992
 20
169.63637199999999
 30
0.0
 40
0.9908319999999999
 50
335.1905680000001
 51
359.27259600000002
  0
LINE
  5
FF
  8
0
 62
     7
 10
51.503799999999998
 20
196.27199999999999
 30
0.0
 11
73.506100000000004
 21
196.27199999999999
 31
0.0
  0
LINE
  5
100
  8
0
 62
     7
 10
70.005799999999994
 20
163.77099999999999
 30
0.0
 11
55.004100000000001
 21
163.77099999999999
 31
0.0
  0
LINE
  5
101
  8
0
 62
     7
 10
51.004300000000001
 20
201.27199999999999
 30
0.0
 11
74.005300000000005
 21
201.27199999999999
 31
0.0
  0
ARC
  5
102
  8
0
 62
     7
 10
70.763423000000003
 20
196.01340500000001
 30
0.0
 40
0.258552
 50
92.143705000000011
 51
178.093842
  0
LINE
  5
103
  8
0
 62
     7
 10
67.6387
 20
211.672
 30
0.0
 11
57.370800000000003
 21
211.672
 31
0.0
  0
LINE
  5
104
  8
0
 62
     7
 10
67.037800000000004
 20
212.27199999999999
 30
0.0
 11
57.971699999999998
 21
212.27199999999999
 31
0.0
  0
LINE
  5
105
  8
0
 62
     7
 10
67.880200000000002
 20
205.208
 30
0.0
 11
57.1297
 21
205.208
 31
0.0
  0
ARC
  5
106
  8
0
 62
     7
 10
69.986531999999997
 20
164.289365
 30
0.0
 40
0.51884
 50
272.13005199999998
 51
357.869958
  0
ARC
  5
107
  8
0
 62
     7
 10
55.023336999999998
 20
164.289365
 30
0.0
 40
0.51884
 50
182.13006200000001
 51
267.86996799999997
  0
LINE
  5
108
  8
0
 62
     7
 10
70.504999999999995
 20
164.27000000000001
 30
0.0
 11
70.504999999999995
 21
196.02199999999999
 31
0.0
  0
ARC
  5
109
  8
0
 62
     7
 10
54.245466
 20
196.012428
 30
0.0
 40
0.259567
 50
2.1144400000000001
 51
87.647972999999993
  0
LINE
  5
10A
  8
0
 62
     7
 10
54.504899999999999
 20
196.02199999999999
 30
0.0
 11
54.504899999999999
 21
164.27000000000001
 31
0.0
  0
LINE
  5
10B
  8
0
 62
     7
 10
74.005300000000005
 20
196.77199999999999
 30
0.0
 11
74.005300000000005
 21
201.27199999999999
 31
0.0
  0
LINE
  5
10C
  8
0
 62
     7
 10
51.004300000000001
 20
201.27199999999999
 30
0.0
 11
51.004300000000001
 21
196.77199999999999
 31
0.0
  0
ARC
  5
10D
  8
0
 62
     7
 10
73.486722999999998
 20
196.79028
 30
0.0
 40
0.518864
 50
272.135333
 51
357.94370500000002
  0
ARC
  5
10E
  8
0
 62
     7
 10
51.523463
 20
196.790953
 30
0.0
 40
0.519549
 50
182.127871
 51
267.83265799999998
  0
LINE
  5
10F
  8
0
 62
     7
 10
57.971699999999998
 20
212.27199999999999
 30
0.0
 11
57.370800000000003
 21
211.672
 31
0.0
  0
LINE
  5
110
  8
0
 62
     7
 10
67.6387
 20
211.672
 30
0.0
 11
67.037800000000004
 21
212.27199999999999
 31
0.0
  0
LINE
  5
111
  8
0
 62
     7
 10
57.370800000000003
 20
211.672
 30
0.0
 11
57.171000000000006
 21
205.208
 31
0.0
  0
LINE
  5
112
  8
0
 62
     7
 10
67.838499999999996
 20
205.208
 30
0.0
 11
67.6387
 21
211.672
 31
0.0
  0
LINE
  5
113
  8
0
 62
     7
 10
57.1297
 20
205.208
 30
0.0
 11
57.1297
 21
201.27199999999999
 31
0.0
  0
LINE
  5
114
  8
0
 62
     7
 10
67.880200000000002
 20
201.27199999999999
 30
0.0
 11
67.880200000000002
 21
205.208
 31
0.0
  0
LINE
  5
115
  8
0
 62
     7
 10
99.601800000000011
 20
121.295
 30
0.0
 11
99.009200000000007
 21
123.506
 31
0.0
  0
LINE
  5
116
  8
0
 62
     7
 10
99.009200000000007
 20
123.506
 30
0.0
 11
98.416700000000006
 21
121.295
 31
0.0
  0
LINE
  5
117
  8
0
 62
     7
 10
98.416700000000006
 20
121.295
 30
0.0
 11
99.601800000000011
 21
121.295
 31
0.0
  0
LINE
  5
118
  8
0
 62
     7
 10
98.431100000000015
 20
109.71599999999999
 30
0.0
 11
99.023700000000005
 21
107.504
 31
0.0
  0
LINE
  5
119
  8
0
 62
     7
 10
99.023700000000005
 20
107.504
 30
0.0
 11
99.616299999999995
 21
109.71599999999999
 31
0.0
  0
LINE
  5
11A
  8
0
 62
     7
 10
99.616299999999995
 20
109.71599999999999
 30
0.0
 11
98.431100000000015
 21
109.71599999999999
 31
0.0
  0
LINE
  5
11B
  8
0
 62
     7
 10
99.016499999999994
 20
123.505
 30
0.0
 11
99.016499999999994
 21
107.505
 31
0.0
  0
LINE
  5
11C
  8
0
 62
     7
 10
107.432
 20
107.505
 30
0.0
 11
98.316400000000002
 21
107.505
 31
0.0
  0
LINE
  5
11D
  8
0
 62
     7
 10
107.432
 20
123.505
 30
0.0
 11
98.316400000000002
 21
123.505
 31
0.0
  0
LINE
  5
11E
  8
0
 62
     7
 10
166.43700000000001
 20
118.42700000000001
 30
0.0
 11
165.845
 21
120.63800000000001
 31
0.0
  0
LINE
  5
11F
  8
0
 62
     7
 10
165.845
 20
120.63800000000001
 30
0.0
 11
165.25200000000001
 21
118.42700000000001
 31
0.0
  0
LINE
  5
120
  8
0
 62
     7
 10
165.25200000000001
 20
118.42700000000001
 30
0.0
 11
166.43700000000001
 21
118.42700000000001
 31
0.0
  0
LINE
  5
121
  8
0
 62
     7
 10
165.267
 20
112.58199999999999
 30
0.0
 11
165.85900000000001
 21
110.37
 31
0.0
  0
LINE
  5
122
  8
0
 62
     7
 10
165.85900000000001
 20
110.37
 30
0.0
 11
166.452
 21
112.58199999999999
 31
0.0
  0
LINE
  5
123
  8
0
 62
     7
 10
166.452
 20
112.58199999999999
 30
0.0
 11
165.267
 21
112.58199999999999
 31
0.0
  0
LINE
  5
124
  8
0
 62
     7
 10
165.852
 20
120.637
 30
0.0
 11
165.852
 21
110.371
 31
0.0
  0
LINE
  5
125
  8
0
 62
     7
 10
156.733
 20
110.371
 30
0.0
 11
166.55199999999999
 21
110.371
 31
0.0
  0
LINE
  5
126
  8
0
 62
     7
 10
156.733
 20
120.637
 30
0.0
 11
166.55199999999999
 21
120.637
 31
0.0
  0
LINE
  5
127
  8
0
 62
     7
 10
71.793800000000005
 20
88.397900000000007
 30
0.0
 11
74.005600000000001
 21
88.990499999999997
 31
0.0
  0
LINE
  5
128
  8
0
 62
     7
 10
74.005600000000001
 20
88.990499999999997
 30
0.0
 11
71.793800000000005
 21
89.582999999999984
 31
0.0
  0
LINE
  5
129
  8
0
 62
     7
 10
71.793800000000005
 20
89.582999999999984
 30
0.0
 11
71.793800000000005
 21
88.397900000000007
 31
0.0
  0
LINE
  5
12A
  8
0
 62
     7
 10
53.215000000000003
 20
89.568600000000004
 30
0.0
 11
51.003199999999993
 21
88.975999999999999
 31
0.0
  0
LINE
  5
12B
  8
0
 62
     7
 10
51.003199999999993
 20
88.975999999999999
 30
0.0
 11
53.215000000000003
 21
88.383399999999995
 31
0.0
  0
LINE
  5
12C
  8
0
 62
     7
 10
53.215000000000003
 20
88.383399999999995
 30
0.0
 11
53.215000000000003
 21
89.568600000000004
 31
0.0
  0
LINE
  5
12D
  8
0
 62
     7
 10
74.004599999999996
 20
88.983199999999997
 30
0.0
 11
51.004300000000001
 21
88.983199999999997
 31
0.0
  0
LINE
  5
12E
  8
0
 62
     7
 10
51.004300000000001
 20
111.715
 30
0.0
 11
51.004300000000001
 21
88.283199999999994
 31
0.0
  0
LINE
  5
12F
  8
0
 62
     7
 10
74.004599999999996
 20
111.494
 30
0.0
 11
74.004599999999996
 21
88.283199999999994
 31
0.0
  0
LINE
  5
130
  8
0
 62
     7
 10
154.173
 20
88.397900000000007
 30
0.0
 11
156.38399999999999
 21
88.990499999999997
 31
0.0
  0
LINE
  5
131
  8
0
 62
     7
 10
156.38399999999999
 20
88.990499999999997
 30
0.0
 11
154.173
 21
89.582999999999984
 31
0.0
  0
LINE
  5
132
  8
0
 62
     7
 10
154.173
 20
89.582999999999984
 30
0.0
 11
154.173
 21
88.397900000000007
 31
0.0
  0
LINE
  5
133
  8
0
 62
     7
 10
147.59299999999999
 20
89.568600000000004
 30
0.0
 11
145.381
 21
88.975999999999999
 31
0.0
  0
LINE
  5
134
  8
0
 62
     7
 10
145.381
 20
88.975999999999999
 30
0.0
 11
147.59299999999999
 21
88.383399999999995
 31
0.0
  0
LINE
  5
135
  8
0
 62
     7
 10
147.59299999999999
 20
88.383399999999995
 30
0.0
 11
147.59299999999999
 21
89.568600000000004
 31
0.0
  0
LINE
  5
136
  8
0
 62
     7
 10
156.38300000000001
 20
88.983199999999997
 30
0.0
 11
145.38200000000001
 21
88.983199999999997
 31
0.0
  0
LINE
  5
137
  8
0
 62
     7
 10
145.38200000000001
 20
103.054
 30
0.0
 11
145.38200000000001
 21
88.283199999999994
 31
0.0
  0
LINE
  5
138
  8
0
 62
     7
 10
156.38300000000001
 20
110.02200000000001
 30
0.0
 11
156.38300000000001
 21
88.283199999999994
 31
0.0
  0
ARC
  5
139
  8
0
 62
     7
 10
117.891775
 20
104.36815
 30
0.0
 40
4.6930059999999987
 50
41.942532999999997
 51
54.32552900000001
  0
ARC
  5
13A
  8
0
 62
     7
 10
116.664647
 20
102.765103
 30
0.0
 40
6.7111529999999986
 50
53.796325000000003
 51
66.254098999999997
  0
ARC
  5
13B
  8
0
 62
     7
 10
115.674679
 20
100.728314
 30
0.0
 40
8.9745609999999996
 50
65.705162999999999
 51
87.333574999999996
  0
ARC
  5
13C
  8
0
 62
     7
 10
115.88149199999999
 20
103.37094500000001
 30
0.0
 40
6.3257229999999991
 50
88.091280999999995
 51
89.995105000000009
  0
ARC
  5
13D
  8
0
 62
     7
 10
113.871943
 20
104.36815
 30
0.0
 40
4.6930059999999987
 50
125.674451
 51
138.057447
  0
ARC
  5
13E
  8
0
 62
     7
 10
115.099071
 20
102.765103
 30
0.0
 40
6.7111529999999986
 50
113.745881
 51
126.203655
  0
ARC
  5
13F
  8
0
 62
     7
 10
116.08904
 20
100.728314
 30
0.0
 40
8.9745609999999996
 50
92.666405000000026
 51
114.29481699999999
  0
ARC
  5
140
  8
0
 62
     7
 10
115.882226
 20
103.37094500000001
 30
0.0
 40
6.3257229999999991
 50
90.004874999999998
 51
91.908699999999996
  0
ARC
  5
141
  8
0
 62
     7
 10
62.504761000000002
 20
115.50479199999999
 30
0.0
 40
7.9999079999999996
 50
270.00002000000001
 51
359.99999000000003
  0
ARC
  5
142
  8
0
 62
     7
 10
62.504589000000003
 20
115.50496200000001
 30
0.0
 40
8.0000780000000002
 50
180.00124400000001
 51
270.00125400000002
  0
ARC
  5
143
  8
0
 62
     7
 10
62.504764000000002
 20
115.50479
 30
0.0
 40
8.0002530000000007
 50
90.0
 51
179.99996999999999
  0
ARC
  5
144
  8
0
 62
     7
 10
62.504589000000003
 20
115.50496200000001
 30
0.0
 40
8.0000800000000005
 50
359.99877600000002
 51
89.998745999999997
  0
LINE
  5
145
  8
0
 62
     7
 10
150.38399999999999
 20
120.22499999999999
 30
0.0
 11
156.38300000000001
 21
120.036
 31
0.0
  0
LINE
  5
146
  8
0
 62
     7
 10
149.31800000000001
 20
120.839
 30
0.0
 11
150.38399999999999
 21
120.22499999999999
 31
0.0
  0
LINE
  5
147
  8
0
 62
     7
 10
150.38399999999999
 20
120.22499999999999
 30
0.0
 11
150.38399999999999
 21
110.783
 31
0.0
  0
LINE
  5
148
  8
0
 62
     7
 10
150.38399999999999
 20
110.783
 30
0.0
 11
149.31800000000001
 21
110.17
 31
0.0
  0
LINE
  5
149
  8
0
 62
     7
 10
156.38300000000001
 20
110.97199999999999
 30
0.0
 11
150.38399999999999
 21
110.783
 31
0.0
  0
LINE
  5
14A
  8
0
 62
     7
 10
67.162899999999993
 20
103.378
 30
0.0
 11
67.662099999999995
 21
103.378
 31
0.0
  0
LINE
  5
14B
  8
0
 62
     7
 10
67.662099999999995
 20
99.006100000000004
 30
0.0
 11
67.162899999999993
 21
98.504900000000006
 31
0.0
  0
LINE
  5
14C
  8
0
 62
     7
 10
67.662099999999995
 20
103.88
 30
0.0
 11
67.662099999999995
 21
99.006100000000004
 31
0.0
  0
LINE
  5
14D
  8
0
 62
     7
 10
57.3474
 20
99.006100000000004
 30
0.0
 11
57.846299999999992
 21
98.504900000000006
 31
0.0
  0
LINE
  5
14E
  8
0
 62
     7
 10
57.846299999999992
 20
103.378
 30
0.0
 11
57.3474
 21
103.378
 31
0.0
  0
LINE
  5
14F
  8
0
 62
     7
 10
57.3474
 20
103.88
 30
0.0
 11
57.3474
 21
99.006100000000004
 31
0.0
  0
LINE
  5
150
  8
0
 62
     7
 10
67.162899999999993
 20
98.504900000000006
 30
0.0
 11
62.504800000000003
 21
98.504900000000006
 31
0.0
  0
LINE
  5
151
  8
0
 62
     7
 10
62.504800000000003
 20
98.504900000000006
 30
0.0
 11
57.846299999999992
 21
98.504900000000006
 31
0.0
  0
LINE
  5
152
  8
0
 62
     7
 10
67.162899999999993
 20
103.378
 30
0.0
 11
62.504800000000003
 21
103.378
 31
0.0
  0
LINE
  5
153
  8
0
 62
     7
 10
62.504800000000003
 20
103.378
 30
0.0
 11
57.846299999999992
 21
103.378
 31
0.0
  0
LINE
  5
154
  8
0
 62
     7
 10
57.846299999999992
 20
103.378
 30
0.0
 11
57.846299999999992
 21
98.504900000000006
 31
0.0
  0
LINE
  5
155
  8
0
 62
     7
 10
67.162899999999993
 20
98.504900000000006
 30
0.0
 11
67.162899999999993
 21
103.378
 31
0.0
  0
LINE
  5
156
  8
0
 62
     7
 10
111.224
 20
103.378
 30
0.0
 11
110.723
 21
103.378
 31
0.0
  0
LINE
  5
157
  8
0
 62
     7
 10
110.723
 20
99.006100000000004
 30
0.0
 11
111.224
 21
98.504900000000006
 31
0.0
  0
LINE
  5
158
  8
0
 62
     7
 10
110.474
 20
104.128
 30
0.0
 11
111.224
 21
103.378
 31
0.0
  0
LINE
  5
159
  8
0
 62
     7
 10
110.723
 20
103.88
 30
0.0
 11
110.723
 21
99.006100000000004
 31
0.0
  0
LINE
  5
15A
  8
0
 62
     7
 10
121.039
 20
99.006100000000004
 30
0.0
 11
120.54000000000001
 21
98.504900000000006
 31
0.0
  0
LINE
  5
15B
  8
0
 62
     7
 10
120.54000000000001
 20
103.378
 30
0.0
 11
121.039
 21
103.378
 31
0.0
  0
LINE
  5
15C
  8
0
 62
     7
 10
121.039
 20
103.88
 30
0.0
 11
121.039
 21
99.006100000000004
 31
0.0
  0
LINE
  5
15D
  8
0
 62
     7
 10
121.288
 20
104.128
 30
0.0
 11
120.54000000000001
 21
103.378
 31
0.0
  0
LINE
  5
15E
  8
0
 62
     7
 10
156.38300000000001
 20
120.036
 30
0.0
 11
156.38300000000001
 21
110.97199999999999
 31
0.0
  0
LINE
  5
15F
  8
0
 62
     7
 10
149.31800000000001
 20
120.878
 30
0.0
 11
149.31800000000001
 21
110.13
 31
0.0
  0
LINE
  5
160
  8
0
 62
     7
 10
156.38300000000001
 20
110.97199999999999
 30
0.0
 11
155.78399999999999
 21
110.371
 31
0.0
  0
LINE
  5
161
  8
0
 62
     7
 10
155.78399999999999
 20
120.637
 30
0.0
 11
156.38300000000001
 21
120.036
 31
0.0
  0
ARC
  5
162
  8
0
 62
     7
 10
62.063943000000002
 20
115.063971
 30
0.0
 40
11.949444
 50
2.114144
 51
87.885846000000001
  0
ARC
  5
163
  8
0
 62
     7
 10
62.945135999999998
 20
115.06441700000001
 30
0.0
 40
11.948982000000001
 50
92.112075999999988
 51
177.88789399999999
  0
ARC
  5
164
  8
0
 62
     7
 10
62.748513000000003
 20
115.64899800000001
 30
0.0
 40
11.745126000000001
 50
180.70351700000001
 51
240.72033999999999
  0
ARC
  5
165
  8
0
 62
     7
 10
62.257860000000001
 20
115.650871
 30
0.0
 40
11.748301
 50
299.28862199999998
 51
359.28755999999998
  0
LINE
  5
166
  8
0
 62
     7
 10
67.162899999999993
 20
98.504900000000006
 30
0.0
 11
57.846299999999992
 21
98.504900000000006
 31
0.0
  0
LINE
  5
167
  8
0
 62
     7
 10
67.162899999999993
 20
103.378
 30
0.0
 11
57.846299999999992
 21
103.378
 31
0.0
  0
LINE
  5
168
  8
0
 62
     7
 10
68.005200000000002
 20
104.221
 30
0.0
 11
57.004300000000001
 21
104.221
 31
0.0
  0
LINE
  5
169
  8
0
 62
     7
 10
57.846299999999992
 20
103.378
 30
0.0
 11
57.846299999999992
 21
98.504900000000006
 31
0.0
  0
LINE
  5
16A
  8
0
 62
     7
 10
57.004300000000001
 20
109.696
 30
0.0
 11
57.004300000000001
 21
104.221
 31
0.0
  0
LINE
  5
16B
  8
0
 62
     7
 10
68.005200000000002
 20
104.221
 30
0.0
 11
68.005200000000002
 21
109.697
 31
0.0
  0
LINE
  5
16C
  8
0
 62
     7
 10
67.162899999999993
 20
103.378
 30
0.0
 11
68.005200000000002
 21
104.221
 31
0.0
  0
LINE
  5
16D
  8
0
 62
     7
 10
57.004300000000001
 20
104.221
 30
0.0
 11
57.846299999999992
 21
103.378
 31
0.0
  0
LINE
  5
16E
  8
0
 62
     7
 10
107.88200000000001
 20
123.006
 30
0.0
 11
107.88200000000001
 21
108.004
 31
0.0
  0
ARC
  5
16F
  8
0
 62
     7
 10
135.633814
 20
99.512050000000016
 30
0.0
 40
8.0897210000000008
 50
81.123571999999996
 51
98.781020999999996
  0
LINE
  5
170
  8
0
 62
     7
 10
145.38200000000001
 20
104.004
 30
0.0
 11
145.38200000000001
 21
127.005
 31
0.0
  0
LINE
  5
171
  8
0
 62
     7
 10
140.38200000000001
 20
126.504
 30
0.0
 11
140.38200000000001
 21
104.504
 31
0.0
  0
LINE
  5
172
  8
0
 62
     7
 10
111.224
 20
98.504900000000006
 30
0.0
 11
115.88200000000001
 21
98.504900000000006
 31
0.0
  0
LINE
  5
173
  8
0
 62
     7
 10
115.88200000000001
 20
98.504900000000006
 30
0.0
 11
120.54000000000001
 21
98.504900000000006
 31
0.0
  0
LINE
  5
174
  8
0
 62
     7
 10
111.224
 20
103.378
 30
0.0
 11
115.88200000000001
 21
103.378
 31
0.0
  0
LINE
  5
175
  8
0
 62
     7
 10
115.88200000000001
 20
103.378
 30
0.0
 11
120.54000000000001
 21
103.378
 31
0.0
  0
LINE
  5
176
  8
0
 62
     7
 10
110.381
 20
104.221
 30
0.0
 11
115.88200000000001
 21
104.221
 31
0.0
  0
LINE
  5
177
  8
0
 62
     7
 10
115.88200000000001
 20
104.221
 30
0.0
 11
121.383
 21
104.221
 31
0.0
  0
LINE
  5
178
  8
0
 62
     7
 10
155.78399999999999
 20
120.637
 30
0.0
 11
155.78399999999999
 21
110.371
 31
0.0
  0
LINE
  5
179
  8
0
 62
     7
 10
156.38300000000001
 20
120.036
 30
0.0
 11
156.38300000000001
 21
110.97199999999999
 31
0.0
  0
LINE
  5
17A
  8
0
 62
     7
 10
149.31800000000001
 20
120.878
 30
0.0
 11
149.31800000000001
 21
110.13
 31
0.0
  0
ARC
  5
17B
  8
0
 62
     7
 10
108.400262
 20
122.98656099999999
 30
0.0
 40
0.51884
 50
92.130032000000014
 51
177.86993799999999
  0
ARC
  5
17C
  8
0
 62
     7
 10
108.40028599999999
 20
108.023377
 30
0.0
 40
0.5188520000000001
 50
182.09315699999999
 51
267.867345
  0
LINE
  5
17D
  8
0
 62
     7
 10
108.381
 20
123.505
 30
0.0
 11
140.38200000000001
 21
123.505
 31
0.0
  0
LINE
  5
17E
  8
0
 62
     7
 10
140.38200000000001
 20
107.505
 30
0.0
 11
136.88200000000001
 21
107.505
 31
0.0
  0
LINE
  5
17F
  8
0
 62
     7
 10
134.399
 20
107.505
 30
0.0
 11
121.383
 21
107.505
 31
0.0
  0
LINE
  5
180
  8
0
 62
     7
 10
110.381
 20
107.505
 30
0.0
 11
108.381
 21
107.505
 31
0.0
  0
LINE
  5
181
  8
0
 62
     7
 10
140.88399999999999
 20
127.005
 30
0.0
 11
145.38200000000001
 21
127.005
 31
0.0
  0
LINE
  5
182
  8
0
 62
     7
 10
145.38200000000001
 20
104.004
 30
0.0
 11
140.88399999999999
 21
104.004
 31
0.0
  0
ARC
  5
183
  8
0
 62
     7
 10
140.90262999999999
 20
126.484966
 30
0.0
 40
0.5206640000000001
 50
92.095476000000005
 51
177.865103
  0
ARC
  5
184
  8
0
 62
     7
 10
140.90284700000001
 20
104.52489
 30
0.0
 40
0.5209450000000001
 50
182.315484
 51
267.881777
  0
LINE
  5
185
  8
0
 62
     7
 10
120.54000000000001
 20
103.378
 30
0.0
 11
120.54000000000001
 21
98.504900000000006
 31
0.0
  0
LINE
  5
186
  8
0
 62
     7
 10
111.224
 20
98.504900000000006
 30
0.0
 11
111.224
 21
103.378
 31
0.0
  0
LINE
  5
187
  8
0
 62
     7
 10
121.383
 20
107.505
 30
0.0
 11
121.383
 21
104.221
 31
0.0
  0
LINE
  5
188
  8
0
 62
     7
 10
110.381
 20
104.221
 30
0.0
 11
110.381
 21
107.505
 31
0.0
  0
LINE
  5
189
  8
0
 62
     7
 10
111.224
 20
103.378
 30
0.0
 11
110.381
 21
104.221
 31
0.0
  0
LINE
  5
18A
  8
0
 62
     7
 10
121.383
 20
104.221
 30
0.0
 11
120.54000000000001
 21
103.378
 31
0.0
  0
LINE
  5
18B
  8
0
 62
     7
 10
156.38300000000001
 20
110.97199999999999
 30
0.0
 11
155.78399999999999
 21
110.371
 31
0.0
  0
LINE
  5
18C
  8
0
 62
     7
 10
155.78399999999999
 20
120.637
 30
0.0
 11
156.38300000000001
 21
120.036
 31
0.0
  0
LINE
  5
18D
  8
0
 62
     7
 10
155.78399999999999
 20
110.371
 30
0.0
 11
149.31800000000001
 21
110.17
 31
0.0
  0
LINE
  5
18E
  8
0
 62
     7
 10
149.31800000000001
 20
120.839
 30
0.0
 11
155.78399999999999
 21
120.637
 31
0.0
  0
LINE
  5
18F
  8
0
 62
     7
 10
149.31800000000001
 20
110.13
 30
0.0
 11
145.38200000000001
 21
110.13
 31
0.0
  0
LINE
  5
190
  8
0
 62
     7
 10
145.38200000000001
 20
120.878
 30
0.0
 11
149.31800000000001
 21
120.878
 31
0.0
  0
LINE
  5
191
  8
_________2
 62
     7
 10
205.30099999999999
 20
127.411
 30
0.0
 11
183.55000000000001
 21
127.411
 31
0.0
  0
LINE
  5
192
  8
_________2
 62
     7
 10
100.3
 20
-4.0910799999999998
 30
0.0
 11
100.3
 21
-21.071400000000001
 31
0.0
  0
LINE
  5
193
  8
_________2
 62
     7
 10
100.3
 20
275.93000000000001
 30
0.0
 11
100.3
 21
258.911
 31
0.0
  0
LINE
  5
194
  8
_________2
 62
     7
 10
17.049499999999998
 20
127.411
 30
0.0
 11
-4.70052
 21
127.411
 31
0.0
  0
LINE
  5
195
  8
_________2
 62
     7
 10
76.741
 20
29.8047
 30
0.0
 11
74.554699999999997
 21
29.8047
 31
0.0
  0
LINE
  5
196
  8
_________2
 62
     7
 10
77.233699999999999
 20
29.8047
 30
0.0
 11
76.981499999999997
 21
29.8047
 31
0.0
  0
LINE
  5
197
  8
_________2
 62
     7
 10
77.726299999999995
 20
29.8047
 30
0.0
 11
80.651200000000003
 21
29.8047
 31
0.0
  0
LINE
  5
198
  8
_________2
 62
     7
 10
77.233699999999999
 20
29.8047
 30
0.0
 11
77.485500000000002
 21
29.8047
 31
0.0
  0
LINE
  5
199
  8
_________2
 62
     7
 10
70.837100000000007
 20
29.8047
 30
0.0
 11
68.650499999999994
 21
29.8047
 31
0.0
  0
LINE
  5
19A
  8
_________2
 62
     7
 10
71.329400000000007
 20
29.8047
 30
0.0
 11
71.077600000000004
 21
29.8047
 31
0.0
  0
LINE
  5
19B
  8
_________2
 62
     7
 10
71.329400000000007
 20
30.2974
 30
0.0
 11
71.329400000000007
 21
32.484400000000001
 31
0.0
  0
LINE
  5
19C
  8
_________2
 62
     7
 10
71.329400000000007
 20
29.8047
 30
0.0
 11
71.329400000000007
 21
30.056899999999999
 31
0.0
  0
LINE
  5
19D
  8
_________2
 62
     7
 10
71.822100000000006
 20
29.8047
 30
0.0
 11
74.009
 21
29.8047
 31
0.0
  0
LINE
  5
19E
  8
_________2
 62
     7
 10
71.329400000000007
 20
29.8047
 30
0.0
 11
71.581599999999995
 21
29.8047
 31
0.0
  0
LINE
  5
19F
  8
_________2
 62
     7
 10
71.329400000000007
 20
29.312799999999999
 30
0.0
 11
71.329400000000007
 21
27.125800000000002
 31
0.0
  0
LINE
  5
1A0
  8
_________2
 62
     7
 10
71.329400000000007
 20
29.8047
 30
0.0
 11
71.329400000000007
 21
29.5532
 31
0.0
  0
LINE
  5
1A1
  8
_________2
 62
     7
 10
75.040499999999994
 20
28.5852
 30
0.0
 11
80.218500000000006
 21
27.720400000000001
 31
0.0
  0
LINE
  5
1A2
  8
_________2
 62
     7
 10
75.040499999999994
 20
31.0243
 30
0.0
 11
80.218500000000006
 21
31.889700000000001
 31
0.0
  0
LINE
  5
1A3
  8
_________2
 62
     7
 10
80.218500000000006
 20
27.720400000000001
 30
0.0
 11
80.218500000000006
 21
31.889700000000001
 31
0.0
  0
LINE
  5
1A4
  8
_________2
 62
     7
 10
75.040499999999994
 20
28.5852
 30
0.0
 11
75.040499999999994
 21
31.0243
 31
0.0
  0
ARC
  5
1A5
  8
_________2
 62
     7
 10
71.28285600000001
 20
29.757811
 30
0.0
 40
1.2673589999999999
 50
2.122214
 51
87.893958999999995
  0
ARC
  5
1A6
  8
_________2
 62
     7
 10
71.375959999999992
 20
29.758213000000001
 30
0.0
 40
1.2669559999999991
 50
92.104701000000006
 51
177.89526900000001
  0
ARC
  5
1A7
  8
_________2
 62
     7
 10
71.376357999999996
 20
29.851671
 30
0.0
 40
1.2673680000000001
 50
182.12203600000001
 51
267.877993
  0
ARC
  5
1A8
  8
_________2
 62
     7
 10
71.282531999999989
 20
29.851998999999999
 30
0.0
 40
1.267695999999999
 50
272.12015300000002
 51
357.863674
  0
ARC
  5
1A9
  8
_________2
 62
     7
 10
71.329430000000002
 20
29.804742999999998
 30
0.0
 40
2.0849849999999992
 50
0.00001
 51
89.999980000000008
  0
ARC
  5
1AA
  8
_________2
 62
     7
 10
71.329603000000006
 20
29.804915000000001
 30
0.0
 40
2.084813
 50
90.004733999999999
 51
180.00474399999999
  0
ARC
  5
1AB
  8
_________2
 62
     7
 10
71.409106000000008
 20
29.884775999999999
 30
0.0
 40
2.1657950000000001
 50
182.11776599999999
 51
267.89173399999999
  0
ARC
  5
1AC
  8
_________2
 62
     7
 10
71.249459000000002
 20
29.885429999999999
 30
0.0
 40
2.1664590000000001
 50
272.11546800000002
 51
357.86560400000002
  0
TEXT
  5
1AD
  8
_________2
 62
     7
 10
104.605
 20
1.6794899999999999
 30
0.0
 40
3.0923400000000001
  1
図番
 41
0.5
  0
LINE
  5
1AE
  8
_________2
 62
     7
 10
103.55
 20
5.9087199999999989
 30
0.0
 11
183.55099999999999
 21
5.9087199999999989
 31
0.0
  0
TEXT
  5
1AF
  8
_________2
 62
     7
 10
104.605
 20
11.6793
 30
0.0
 40
3.0923400000000001
  1
品番
 41
0.5
  0
TEXT
  5
1B0
  8
_________2
 62
     7
 10
104.605
 20
31.818100000000001
 30
0.0
 40
3.0923400000000001
  1
名称
 41
0.5
  0
TEXT
  5
1B1
  8
_________2
 62
     7
 10
91.845058333333341
 20
26.821999999999999
 30
0.0
 40
3.6545800000000002
  1
mm
 41
0.5
 72
     1
 11
93.367800000000003
 21
26.821999999999999
 31
0.0
  0
TEXT
  5
1B2
  8
_________2
 62
     7
 10
85.643199999999993
 20
31.818100000000001
 30
0.0
 40
3.0923400000000001
  1
単位
 41
0.5
  0
TEXT
  5
1B3
  8
_________2
 62
     7
 10
85.643199999999993
 20
19.410799999999998
 30
0.0
 40
3.0923400000000001
  1
尺度
 41
0.5
  0
TEXT
  5
1B4
  8
_________2
 62
     7
 10
90.548758666666686
 20
13.2179
 30
0.0
 40
3.6545800000000002
  1
1 ： 2
 41
0.5
 72
     1
 11
93.959699999999998
 21
13.2179
 31
0.0
  0
TEXT
  5
1B5
  8
_________2
 62
     7
 10
136.33455000000001
 20
9.1078600000000005
 30
0.0
 40
3.9357000000000002
  1
CET8060R
 41
0.5
 72
     1
 11
143.55000000000001
 21
9.1078600000000005
 31
0.0
  0
TEXT
  5
1B6
  8
_________2
 62
     7
 10
136.33455000000001
 20
-0.8926299999999999
 30
0.0
 40
3.9357000000000002
  1
CET8060R
 41
0.5
 72
     1
 11
143.55000000000001
 21
-0.8926299999999999
 31
0.0
  0
TEXT
  5
1B7
  8
_________2
 62
     7
 10
109.179
 20
24.2257
 30
0.0
 40
3.9357000000000002
  1
C1 取出金具（逆止弁付）
 41
0.5
  0
TEXT
  5
1B8
  8
_________2
 62
     7
 10
39.303480999999998
 20
13.603
 30
0.0
 40
3.6545800000000002
  1
中村
 41
0.5
 72
     1
 11
41.313499999999998
 21
13.603
 31
0.0
  0
TEXT
  5
1B9
  8
_________2
 62
     7
 10
20.851000333333339
 20
13.603
 30
0.0
 40
3.6545800000000002
  1
福田
 41
0.5
 72
     1
 11
22.7392
 21
13.603
 31
0.0
  0
TEXT
  5
1BA
  8
_________2
 62
     7
 10
67.785399999999996
 20
13.2179
 30
0.0
 40
3.6545800000000002
  1
15.01.13
 41
0.5
  0
TEXT
  5
1BB
  8
_________2
 62
     7
 10
66.593100000000007
 20
19.410799999999998
 30
0.0
 40
3.0923400000000001
  1
日付
 41
0.5
  0
TEXT
  5
1BC
  8
_________2
 62
     7
 10
29.639399999999998
 20
19.410799999999998
 30
0.0
 40
3.0923400000000001
  1
検図
 41
0.5
  0
TEXT
  5
1BD
  8
_________2
 62
     7
 10
18.021100000000001
 20
5.21143
 30
0.0
 40
3.0923400000000001
  1
備考
 41
0.5
  0
TEXT
  5
1BE
  8
_________2
 62
     7
 10
18.021100000000001
 20
19.410799999999998
 30
0.0
 40
3.0923400000000001
  1
製図
 41
0.5
  0
TEXT
  5
1BF
  8
_________2
 62
     7
 10
23.788465333333338
 20
27.936800000000002
 30
0.0
 40
4.4979399999999989
  1
セラトレーディング株式会社
 41
0.5
 72
     1
 11
41.180500000000002
 21
27.936800000000002
 31
0.0
  0
LINE
  5
1C0
  8
_________2
 62
     7
 10
183.55099999999999
 20
-4.0910799999999998
 30
0.0
 11
17.049499999999998
 21
-4.0910799999999998
 31
0.0
  0
LINE
  5
1C1
  8
_________2
 62
     7
 10
17.049499999999998
 20
-4.0910799999999998
 30
0.0
 11
17.049499999999998
 21
258.911
 31
0.0
  0
LINE
  5
1C2
  8
_________2
 62
     7
 10
17.049499999999998
 20
258.911
 30
0.0
 11
183.55099999999999
 21
258.911
 31
0.0
  0
LINE
  5
1C3
  8
_________2
 62
     7
 10
183.55099999999999
 20
258.911
 30
0.0
 11
183.55099999999999
 21
-4.0910799999999998
 31
0.0
  0
LINE
  5
1C4
  8
_________2
 62
     7
 10
65.549599999999998
 20
9.4089600000000004
 30
0.0
 11
65.549599999999998
 21
35.908799999999999
 31
0.0
  0
LINE
  5
1C5
  8
_________2
 62
     7
 10
84.549700000000016
 20
9.4089600000000004
 30
0.0
 11
84.549700000000016
 21
35.908799999999999
 31
0.0
  0
LINE
  5
1C6
  8
_________2
 62
     7
 10
103.55
 20
-4.0910799999999998
 30
0.0
 11
103.55
 21
35.908799999999999
 31
0.0
  0
LINE
  5
1C7
  8
_________2
 62
     7
 10
28.549299999999999
 20
9.4089600000000004
 30
0.0
 11
28.549299999999999
 21
23.409199999999998
 31
0.0
  0
LINE
  5
1C8
  8
_________2
 62
     7
 10
17.049499999999998
 20
9.4089600000000004
 30
0.0
 11
103.55
 21
9.4089600000000004
 31
0.0
  0
LINE
  5
1C9
  8
_________2
 62
     7
 10
17.049499999999998
 20
23.409199999999998
 30
0.0
 11
103.55
 21
23.409199999999998
 31
0.0
  0
LINE
  5
1CA
  8
_________2
 62
     7
 10
103.55
 20
15.9085
 30
0.0
 11
183.55099999999999
 21
15.9085
 31
0.0
  0
LINE
  5
1CB
  8
_________2
 62
     7
 10
17.049499999999998
 20
35.908799999999999
 30
0.0
 11
183.55099999999999
 21
35.908799999999999
 31
0.0
  0
ENDSEC
  0
EOF
