  0
SECTION
  2
HEADER
  9
$ACADVER
  1
AC1009
  9
$INSBASE
 10
0.0
 20
0.0
 30
0.0
  9
$EXTMIN
 10
-4.70052
 20
-21.071400000000001
 30
0.0
  9
$EXTMAX
 10
205.30099999999999
 20
275.93000000000001
 30
0.0
  9
$LIMMIN
 10
0.0
 20
0.0
  9
$LIMMAX
 10
12.0
 20
9.0
  9
$ORTHOMODE
 70
     0
  9
$REGENMODE
 70
     1
  9
$FILLMODE
 70
     1
  9
$QTEXTMODE
 70
     0
  9
$MIRRTEXT
 70
     1
  9
$DRAGMODE
 70
     2
  9
$LTSCALE
 40
1.0
  9
$OSMODE
 70
    37
  9
$ATTMODE
 70
     1
  9
$TEXTSIZE
 40
0.0
  9
$TRACEWID
 40
0.05
  9
$TEXTSTYLE
  7
STANDARD
  9
$CLAYER
  8
0
  9
$CELTYPE
  6
CONTINUOUS
  9
$CECOLOR
 62
   256
  9
$DIMSCALE
 40
1.0
  9
$DIMASZ
 40
0.18
  9
$DIMEXO
 40
0.0625
  9
$DIMDLI
 40
0.38
  9
$DIMRND
 40
0.0
  9
$DIMDLE
 40
0.0
  9
$DIMEXE
 40
0.18
  9
$DIMTP
 40
0.0
  9
$DIMTM
 40
0.0
  9
$DIMTXT
 40
0.18
  9
$DIMCEN
 40
0.09
  9
$DIMTSZ
 40
0.0
  9
$DIMTOL
 70
     0
  9
$DIMLIM
 70
     0
  9
$DIMTIH
 70
     1
  9
$DIMTOH
 70
     1
  9
$DIMSE1
 70
     0
  9
$DIMSE2
 70
     0
  9
$DIMTAD
 70
     0
  9
$DIMZIN
 70
     0
  9
$DIMBLK
  1

  9
$DIMASO
 70
     1
  9
$DIMSHO
 70
     1
  9
$DIMPOST
  1

  9
$DIMAPOST
  1

  9
$DIMALT
 70
     0
  9
$DIMALTD
 70
     2
  9
$DIMALTF
 40
25.399999999999999
  9
$DIMLFAC
 40
1.0
  9
$DIMTOFL
 70
     0
  9
$DIMTVP
 40
0.0
  9
$DIMTIX
 70
     0
  9
$DIMSOXD
 70
     0
  9
$DIMSAH
 70
     0
  9
$DIMBLK1
  1

  9
$DIMBLK2
  1

  9
$DIMSTYLE
  2
STANDARD
  9
$DIMCLRD
 70
     0
  9
$DIMCLRE
 70
     0
  9
$DIMCLRT
 70
     0
  9
$DIMTFAC
 40
1.0
  9
$DIMGAP
 40
0.09
  9
$LUNITS
 70
     2
  9
$LUPREC
 70
     4
  9
$SKETCHINC
 40
0.1
  9
$FILLETRAD
 40
0.0
  9
$AUNITS
 70
     0
  9
$AUPREC
 70
     0
  9
$MENU
  1
.
  9
$ELEVATION
 40
0.0
  9
$PELEVATION
 40
0.0
  9
$THICKNESS
 40
0.0
  9
$LIMCHECK
 70
     0
  9
$BLIPMODE
 70
     0
  9
$CHAMFERA
 40
0.0
  9
$CHAMFERB
 40
0.0
  9
$SKPOLY
 70
     0
  9
$TDCREATE
 40
2444972.375
  9
$TDUPDATE
 40
2457046.2483003121
  9
$TDINDWG
 40
0.0000086343
  9
$TDUSRTIMER
 40
0.0000086343
  9
$USRTIMER
 70
     1
  9
$ANGBASE
 50
0.0
  9
$ANGDIR
 70
     0
  9
$PDMODE
 70
     0
  9
$PDSIZE
 40
0.0
  9
$PLINEWID
 40
0.0
  9
$COORDS
 70
     1
  9
$SPLFRAME
 70
     0
  9
$SPLINETYPE
 70
     6
  9
$SPLINESEGS
 70
     8
  9
$ATTDIA
 70
     0
  9
$ATTREQ
 70
     1
  9
$HANDLING
 70
     1
  9
$HANDSEED
  5
4D5
  9
$SURFTAB1
 70
     6
  9
$SURFTAB2
 70
     6
  9
$SURFTYPE
 70
     6
  9
$SURFU
 70
     6
  9
$SURFV
 70
     6
  9
$UCSNAME
  2

  9
$UCSORG
 10
0.0
 20
0.0
 30
0.0
  9
$UCSXDIR
 10
1.0
 20
0.0
 30
0.0
  9
$UCSYDIR
 10
0.0
 20
1.0
 30
0.0
  9
$PUCSNAME
  2

  9
$PUCSORG
 10
0.0
 20
0.0
 30
0.0
  9
$PUCSXDIR
 10
1.0
 20
0.0
 30
0.0
  9
$PUCSYDIR
 10
0.0
 20
1.0
 30
0.0
  9
$USERI1
 70
     0
  9
$USERI2
 70
     0
  9
$USERI3
 70
     0
  9
$USERI4
 70
     0
  9
$USERI5
 70
     0
  9
$USERR1
 40
0.0
  9
$USERR2
 40
0.0
  9
$USERR3
 40
0.0
  9
$USERR4
 40
0.0
  9
$USERR5
 40
0.0
  9
$WORLDVIEW
 70
     1
  9
$SHADEDGE
 70
     3
  9
$SHADEDIF
 70
    70
  9
$TILEMODE
 70
     1
  9
$MAXACTVP
 70
    48
  9
$PLIMCHECK
 70
     0
  9
$PEXTMIN
 10
1.0000000000000000E+020
 20
1.0000000000000000E+020
 30
1.0000000000000000E+020
  9
$PEXTMAX
 10
-1.0000000000000000E+020
 20
-1.0000000000000000E+020
 30
-1.0000000000000000E+020
  9
$PLIMMIN
 10
0.0
 20
0.0
  9
$PLIMMAX
 10
12.0
 20
9.0
  9
$UNITMODE
 70
     0
  9
$VISRETAIN
 70
     1
  9
$PLINEGEN
 70
     0
  9
$PSLTSCALE
 70
     1
  0
ENDSEC
  0
SECTION
  2
TABLES
  0
TABLE
  2
VPORT
 70
     2
  0
VPORT
  2
*ACTIVE
 70
     0
 10
0.0
 20
0.0
 11
1.0
 21
1.0
 12
200.34021037553941
 22
127.4293
 13
0.0
 23
0.0
 14
1.0
 24
1.0
 15
0.0
 25
0.0
 16
0.0
 26
0.0
 36
1.0
 17
0.0
 27
0.0
 37
0.0
 40
299.4695556786703
 41
2.2894736842105261
 42
50.0
 43
0.0
 44
0.0
 50
0.0
 51
0.0
 71
     0
 72
   100
 73
     1
 74
     1
 75
     0
 76
     0
 77
     0
 78
     0
  0
ENDTAB
  0
TABLE
  2
LTYPE
 70
     3
  0
LTYPE
  2
CONTINUOUS
 70
     0
  3
Solid line
 72
    65
 73
     0
 40
0.0
  0
LTYPE
  2
AIGENLINE001
 70
     0
  3
generate AI->DXF Converter
 72
    65
 73
     4
 40
5.8561449999999988
 49
3.5278
 49
-0.776115
 49
0.776115
 49
-0.776115
  0
LTYPE
  2
AIGENLINE002
 70
     0
  3
generate AI->DXF Converter
 72
    65
 73
     6
 40
7.4083750000000004
 49
3.5278
 49
-0.776115
 49
0.776115
 49
-0.776115
 49
0.776115
 49
-0.776115
  0
ENDTAB
  0
TABLE
  2
LAYER
 70
     2
  0
LAYER
  2
0
 70
     0
 62
     7
  6
CONTINUOUS
  0
LAYER
  2
_________2
 70
     0
 62
     7
  6
CONTINUOUS
  0
ENDTAB
  0
TABLE
  2
STYLE
 70
     1
  0
STYLE
  2
STANDARD
 70
     0
 40
0.0
 41
0.0
 50
0.0
 71
     0
 42
0.0
  3
TXT
  4
EXTFONT.SHX
  0
ENDTAB
  0
TABLE
  2
VIEW
 70
     0
  0
ENDTAB
  0
TABLE
  2
UCS
 70
     0
  0
ENDTAB
  0
TABLE
  2
APPID
 70
     1
  0
APPID
  2
ACAD
 70
     0
  0
ENDTAB
  0
TABLE
  2
DIMSTYLE
 70
     1
  0
DIMSTYLE
  2
STANDARD
 70
     0
  3

  4

  5

  6

  7

 40
1.0
 41
0.18
 42
0.0625
 43
0.38
 44
0.18
 45
0.0
 46
0.0
 47
0.0
 48
0.0
140
0.18
141
0.09
142
0.0
143
25.399999999999999
144
1.0
145
0.0
146
1.0
147
0.09
 71
     0
 72
     0
 73
     1
 74
     1
 75
     0
 76
     0
 77
     0
 78
     0
170
     0
171
     2
172
     0
173
     0
174
     0
175
     0
176
     0
177
     0
178
     0
  0
ENDTAB
  0
ENDSEC
  0
SECTION
  2
BLOCKS
  0
BLOCK
  8
0
  2
$MODEL_SPACE
 70
     0
 10
0.0
 20
0.0
 30
0.0
  3
$MODEL_SPACE
  1

  0
ENDBLK
  5
1A
  8
0
  0
BLOCK
 67
     1
  8
0
  2
$PAPER_SPACE
 70
     0
 10
0.0
 20
0.0
 30
0.0
  3
$PAPER_SPACE
  1

  0
ENDBLK
  5
17
 67
     1
  8
0
  0
ENDSEC
  0
SECTION
  2
ENTITIES
  0
TEXT
  5
23
  8
0
 62
     7
 10
108.4369318333333
 20
209.92399999999989
 30
0.0
 40
3.660169999999999
  1
%%c6×30 樹脂プラグ付
 41
0.5
 72
     2
 11
131.435
 21
209.92399999999989
 31
0.0
  0
TEXT
  5
24
  8
0
 62
     7
 10
104.71575900000001
 20
215.76400000000001
 30
0.0
 40
3.660169999999999
  1
%%c4.5×38 SUS皿木ネジ
 41
0.5
 72
     2
 11
131.435
 21
215.76400000000001
 31
0.0
  0
TEXT
  5
25
  8
0
 62
     7
 10
153.38043624999989
 20
86.242000000000004
 30
0.0
 40
3.660169999999999
  1
50
 41
0.5
 72
     1
 11
154.7529999999999
 21
86.242000000000004
 31
0.0
  0
TEXT
  5
26
  8
0
 62
     7
 10
47.79805833333333
 20
214.447
 30
0.0
 40
3.660169999999999
  1
R1/2
 41
0.5
 72
     1
 11
50.848199999999999
 21
214.447
 31
0.0
  0
TEXT
  5
27
  8
0
 62
     7
 10
163.274
 20
131.67980733333329
 30
0.0
 40
3.660169999999999
  1
壁仕上面
 50
90.0
 41
0.5
 72
     1
 11
163.274
 21
135.828
 31
0.0
  0
TEXT
  5
28
  8
0
 62
     7
 10
124.767
 20
109.81143625
 30
0.0
 40
3.660169999999999
  1
60
 50
90.0
 41
0.5
 72
     1
 11
124.767
 21
111.1839999999999
 31
0.0
  0
TEXT
  5
29
  8
0
 62
     7
 10
117.834
 20
109.4089291666666
 30
0.0
 40
3.660169999999999
  1
33
 50
90.0
 41
0.5
 72
     1
 11
117.834
 21
110.9339999999999
 31
0.0
  0
TEXT
  5
2A
  8
0
 62
     7
 10
148.4779291666666
 20
74.999899999999997
 30
0.0
 40
3.660169999999999
  1
69
 41
0.5
 72
     1
 11
150.0029999999999
 21
74.999899999999997
 31
0.0
  0
TEXT
  5
2B
  8
0
 62
     7
 10
150.89292916666659
 20
80.617500000000007
 30
0.0
 40
3.660169999999999
  1
59
 41
0.5
 72
     1
 11
152.41800000000001
 21
80.617500000000007
 31
0.0
  0
TEXT
  5
2C
  8
0
 62
     7
 10
117.834
 20
121.4639433333333
 30
0.0
 40
3.660169999999999
  1
14
 50
90.0
 41
0.5
 72
     1
 11
117.834
 21
122.6839999999999
 31
0.0
  0
TEXT
  5
2D
  8
0
 62
     7
 10
30.142700000000001
 20
197.5359716666666
 30
0.0
 40
3.660169999999999
  1
8
 50
90.0
 41
0.5
 72
     1
 11
30.142700000000001
 21
198.14599999999999
 31
0.0
  0
TEXT
  5
2E
  8
0
 62
     7
 10
29.057700000000001
 20
109.81143625
 30
0.0
 40
3.660169999999999
  1
40
 50
90.0
 41
0.5
 72
     1
 11
29.057700000000001
 21
111.1839999999999
 31
0.0
  0
TEXT
  5
2F
  8
0
 62
     7
 10
47.79805833333333
 20
85.884
 30
0.0
 40
3.660169999999999
  1
G1/2
 41
0.5
 72
     1
 11
50.848199999999999
 21
85.884
 31
0.0
  0
TEXT
  5
30
  8
0
 62
     7
 10
29.057700000000001
 20
96.213743333333355
 30
0.0
 40
3.660169999999999
  1
15
 50
90.0
 41
0.5
 72
     1
 11
29.057700000000001
 21
97.433800000000005
 31
0.0
  0
TEXT
  5
31
  8
0
 62
     7
 10
28.687000000000001
 20
122.61645041666659
 30
0.0
 40
3.660169999999999
  1
10
 50
90.0
 41
0.5
 72
     1
 11
28.687000000000001
 21
123.6839999999999
 31
0.0
  0
TEXT
  5
32
  8
0
 62
     7
 10
101.97543625
 20
136.1629999999999
 30
0.0
 40
3.660169999999999
  1
30
 41
0.5
 72
     1
 11
103.3479999999999
 21
136.1629999999999
 31
0.0
  0
TEXT
  5
33
  8
0
 62
     7
 10
83.072929166666654
 20
136.1629999999999
 30
0.0
 40
3.660169999999999
  1
45
 41
0.5
 72
     1
 11
84.597999999999985
 21
136.1629999999999
 31
0.0
  0
TEXT
  5
34
  8
0
 62
     7
 10
41.975636249999987
 20
136.1629999999999
 30
0.0
 40
3.660169999999999
  1
30
 41
0.5
 72
     1
 11
43.348199999999991
 21
136.1629999999999
 31
0.0
  0
TEXT
  5
35
  8
0
 62
     7
 10
60.573129166666668
 20
136.1629999999999
 30
0.0
 40
3.660169999999999
  1
45
 41
0.5
 72
     1
 11
62.098199999999999
 21
136.1629999999999
 31
0.0
  0
TEXT
  5
36
  8
0
 62
     7
 10
71.366007916666675
 20
143.1999999999999
 30
0.0
 40
3.660169999999999
  1
150
 41
0.5
 72
     1
 11
73.348600000000005
 21
143.1999999999999
 31
0.0
  0
LINE
  5
37
  8
0
 62
     7
 10
164.2529999999999
 20
137.56
 30
0.0
 11
167.2529999999999
 21
135.828
 31
0.0
  0
LINE
  5
38
  8
0
 62
     7
 10
167.2529999999999
 20
135.828
 30
0.0
 11
164.2529999999999
 21
134.096
 31
0.0
  0
LINE
  5
39
  8
0
 62
     7
 10
164.2529999999999
 20
134.096
 30
0.0
 11
164.2529999999999
 21
137.56
 31
0.0
  0
LINE
  5
3A
  8
0
 62
     7
 10
131.435
 20
214.09599999999989
 30
0.0
 11
104.32299999999989
 21
214.09599999999989
 31
0.0
  0
LINE
  5
3B
  8
0
 62
     7
 10
98.3369
 20
208.75399999999999
 30
0.0
 11
97.224999999999994
 21
206.75399999999999
 31
0.0
  0
LINE
  5
3C
  8
0
 62
     7
 10
97.224999999999994
 20
206.75399999999999
 30
0.0
 11
99.187900000000013
 21
207.92999999999989
 31
0.0
  0
LINE
  5
3D
  8
0
 62
     7
 10
99.187900000000013
 20
207.92999999999989
 30
0.0
 11
98.3369
 21
208.75399999999999
 31
0.0
  0
LINE
  5
3E
  8
0
 62
     7
 10
97.220299999999995
 20
206.75899999999999
 30
0.0
 11
104.32299999999989
 21
214.09599999999989
 31
0.0
  0
LINE
  5
3F
  8
0
 62
     7
 10
55.693399999999997
 20
202.1459999999999
 30
0.0
 11
55.506
 21
205.14599999999999
 31
0.0
  0
LINE
  5
40
  8
0
 62
     7
 10
56.2746
 20
202.1459999999999
 30
0.0
 11
56.087200000000003
 21
204.565
 31
0.0
  0
LINE
  5
41
  8
0
 62
     7
 10
55.256199999999993
 20
205.14599999999999
 30
0.0
 11
50.848199999999999
 21
205.14599999999999
 31
0.0
  0
LINE
  5
42
  8
0
 62
     7
 10
46.002699999999997
 20
202.1459999999999
 30
0.0
 11
46.190100000000001
 21
205.14599999999999
 31
0.0
  0
LINE
  5
43
  8
0
 62
     7
 10
45.421799999999998
 20
202.1459999999999
 30
0.0
 11
45.609200000000001
 21
204.565
 31
0.0
  0
LINE
  5
44
  8
0
 62
     7
 10
55.506
 20
205.14599999999999
 30
0.0
 11
54.098300000000002
 21
205.14599999999999
 31
0.0
  0
LINE
  5
45
  8
0
 62
     7
 10
54.098300000000002
 20
205.14599999999999
 30
0.0
 11
55.506
 21
205.14599999999999
 31
0.0
  0
LINE
  5
46
  8
0
 62
     7
 10
55.506
 20
205.14599999999999
 30
0.0
 11
56.087200000000003
 21
204.565
 31
0.0
  0
LINE
  5
47
  8
0
 62
     7
 10
73.616600000000005
 20
100.224
 30
0.0
 11
73.3142
 21
100.224
 31
0.0
  0
LINE
  5
48
  8
0
 62
     7
 10
73.3142
 20
100.224
 30
0.0
 11
73.3142
 21
100.4839999999999
 31
0.0
  0
LINE
  5
49
  8
0
 62
     7
 10
73.3142
 20
100.4839999999999
 30
0.0
 11
73.616600000000005
 21
100.4839999999999
 31
0.0
  0
LINE
  5
4A
  8
0
 62
     7
 10
73.616600000000005
 20
100.4839999999999
 30
0.0
 11
73.616600000000005
 21
100.224
 31
0.0
  0
LINE
  5
4B
  8
0
 62
     7
 10
73.633899999999997
 20
100.5949999999999
 30
0.0
 11
73.203199999999995
 21
100.5949999999999
 31
0.0
  0
LINE
  5
4C
  8
0
 62
     7
 10
73.203199999999995
 20
100.5949999999999
 30
0.0
 11
73.203199999999995
 21
100.113
 31
0.0
  0
LINE
  5
4D
  8
0
 62
     7
 10
73.203199999999995
 20
100.113
 30
0.0
 11
73.633899999999997
 21
100.113
 31
0.0
  0
ARC
  5
4E
  8
0
 62
     7
 10
73.630803
 20
100.21019799999991
 30
0.0
 40
0.097206
 50
271.80756200000002
 51
357.55935199999988
  0
LINE
  5
4F
  8
0
 62
     7
 10
73.727900000000005
 20
100.2059999999999
 30
0.0
 11
73.727900000000005
 21
100.50099999999991
 31
0.0
  0
ARC
  5
50
  8
0
 62
     7
 10
73.629881999999995
 20
100.4973319999999
 30
0.0
 40
0.098106
 50
2.1197939999999988
 51
87.670704999999998
  0
LINE
  5
51
  8
0
 62
     7
 10
73.208699999999993
 20
102.61199999999999
 30
0.0
 11
72.739900000000006
 21
102.61199999999999
 31
0.0
  0
ARC
  5
52
  8
0
 62
     7
 10
72.763047999999998
 20
101.991173
 30
0.0
 40
0.6213890000000001
 50
92.138460000000009
 51
177.76235399999999
  0
LINE
  5
53
  8
0
 62
     7
 10
72.142099999999999
 20
102.015
 30
0.0
 11
72.142099999999999
 21
100.9339999999999
 31
0.0
  0
ARC
  5
54
  8
0
 62
     7
 10
72.240876
 20
100.937325
 30
0.0
 40
0.09881
 50
182.12127599999991
 51
267.87875400000001
  0
LINE
  5
55
  8
0
 62
     7
 10
72.237200000000001
 20
100.8389999999999
 30
0.0
 11
73.208699999999993
 21
100.8389999999999
 31
0.0
  0
ARC
  5
56
  8
0
 62
     7
 10
73.205356000000009
 20
100.9377689999999
 30
0.0
 40
0.099245
 50
271.95489700000002
 51
357.63142699999992
  0
LINE
  5
57
  8
0
 62
     7
 10
73.304500000000004
 20
100.9339999999999
 30
0.0
 11
73.304500000000004
 21
101.044
 31
0.0
  0
ARC
  5
58
  8
0
 62
     7
 10
73.205718000000005
 20
101.04017399999999
 30
0.0
 40
0.098869
 50
2.166204
 51
88.247472999999999
  0
LINE
  5
59
  8
0
 62
     7
 10
73.208699999999993
 20
101.139
 30
0.0
 11
72.435000000000002
 21
101.139
 31
0.0
  0
LINE
  5
5A
  8
0
 62
     7
 10
72.435000000000002
 20
101.139
 30
0.0
 11
72.435000000000002
 21
101.575
 31
0.0
  0
LINE
  5
5B
  8
0
 62
     7
 10
72.435000000000002
 20
101.575
 30
0.0
 11
73.1143
 21
101.575
 31
0.0
  0
ARC
  5
5C
  8
0
 62
     7
 10
73.110513999999995
 20
101.6740659999999
 30
0.0
 40
0.098991
 50
272.21847000000002
 51
357.78153999999989
  0
LINE
  5
5D
  8
0
 62
     7
 10
73.209400000000002
 20
101.6699999999999
 30
0.0
 11
73.209400000000002
 21
101.78
 31
0.0
  0
ARC
  5
5E
  8
0
 62
     7
 10
73.110687999999996
 20
101.77682
 30
0.0
 40
0.09881
 50
2.1212559999999998
 51
87.878733999999994
  0
LINE
  5
5F
  8
0
 62
     7
 10
73.1143
 20
101.876
 30
0.0
 11
72.435000000000002
 21
101.876
 31
0.0
  0
LINE
  5
60
  8
0
 62
     7
 10
72.435000000000002
 20
101.876
 30
0.0
 11
72.435000000000002
 21
102.312
 31
0.0
  0
LINE
  5
61
  8
0
 62
     7
 10
72.435000000000002
 20
102.312
 30
0.0
 11
73.208699999999993
 21
102.312
 31
0.0
  0
ARC
  5
62
  8
0
 62
     7
 10
73.205185
 20
102.411074
 30
0.0
 40
0.099423
 50
272.05022500000001
 51
357.53609799999992
  0
LINE
  5
63
  8
0
 62
     7
 10
73.304500000000004
 20
102.407
 30
0.0
 11
73.304500000000004
 21
102.517
 31
0.0
  0
ARC
  5
64
  8
0
 62
     7
 10
73.205748999999997
 20
102.51333700000001
 30
0.0
 40
0.098837
 50
2.149017999999999
 51
88.264657999999983
  0
LINE
  5
65
  8
0
 62
     7
 10
71.8596
 20
102.61199999999999
 30
0.0
 11
71.388300000000001
 21
102.61199999999999
 31
0.0
  0
ARC
  5
66
  8
0
 62
     7
 10
71.411524999999997
 20
101.990818
 30
0.0
 40
0.6217430000000001
 50
92.136915999999999
 51
177.730884
  0
LINE
  5
67
  8
0
 62
     7
 10
70.790300000000002
 20
102.015
 30
0.0
 11
70.790300000000002
 21
100.9339999999999
 31
0.0
  0
ARC
  5
68
  8
0
 62
     7
 10
70.889037000000002
 20
100.93737400000001
 30
0.0
 40
0.098837
 50
182.14903799999999
 51
268.264678
  0
LINE
  5
69
  8
0
 62
     7
 10
70.88600000000001
 20
100.8389999999999
 30
0.0
 11
71.8596
 21
100.8389999999999
 31
0.0
  0
ARC
  5
6A
  8
0
 62
     7
 10
71.856272000000004
 20
100.93702999999999
 30
0.0
 40
0.098505
 50
271.95616799999988
 51
358.04384199999998
  0
LINE
  5
6B
  8
0
 62
     7
 10
71.954700000000003
 20
100.9339999999999
 30
0.0
 11
71.954700000000003
 21
101.044
 31
0.0
  0
ARC
  5
6C
  8
0
 62
     7
 10
71.855946000000003
 20
101.0402229999999
 30
0.0
 40
0.098842
 50
2.1384650000000001
 51
87.861525
  0
LINE
  5
6D
  8
0
 62
     7
 10
71.8596
 20
101.139
 30
0.0
 11
71.084100000000007
 21
101.139
 31
0.0
  0
LINE
  5
6E
  8
0
 62
     7
 10
71.084100000000007
 20
101.139
 30
0.0
 11
71.084100000000007
 21
102.312
 31
0.0
  0
LINE
  5
6F
  8
0
 62
     7
 10
71.084100000000007
 20
102.312
 30
0.0
 11
71.8596
 21
102.312
 31
0.0
  0
ARC
  5
70
  8
0
 62
     7
 10
71.856100999999995
 20
102.410332
 30
0.0
 40
0.098681
 50
272.05149299999988
 51
357.94851699999992
  0
LINE
  5
71
  8
0
 62
     7
 10
71.954700000000003
 20
102.407
 30
0.0
 11
71.954700000000003
 21
102.517
 31
0.0
  0
ARC
  5
72
  8
0
 62
     7
 10
71.855976999999996
 20
102.5133859999999
 30
0.0
 40
0.09881
 50
2.1212559999999998
 51
87.878733999999994
  0
LINE
  5
73
  8
0
 62
     7
 10
72.019499999999994
 20
100.3959999999999
 30
0.0
 11
71.719800000000006
 21
100.3959999999999
 31
0.0
  0
LINE
  5
74
  8
0
 62
     7
 10
71.719800000000006
 20
100.3959999999999
 30
0.0
 11
71.719800000000006
 21
100.4839999999999
 31
0.0
  0
LINE
  5
75
  8
0
 62
     7
 10
71.719800000000006
 20
100.4839999999999
 30
0.0
 11
72.019499999999994
 21
100.4839999999999
 31
0.0
  0
LINE
  5
76
  8
0
 62
     7
 10
72.019499999999994
 20
100.4839999999999
 30
0.0
 11
72.019499999999994
 21
100.3959999999999
 31
0.0
  0
LINE
  5
77
  8
0
 62
     7
 10
72.037700000000001
 20
100.5949999999999
 30
0.0
 11
71.608099999999993
 21
100.5949999999999
 31
0.0
  0
LINE
  5
78
  8
0
 62
     7
 10
71.608099999999993
 20
100.5949999999999
 30
0.0
 11
71.608099999999993
 21
100.113
 31
0.0
  0
LINE
  5
79
  8
0
 62
     7
 10
71.608099999999993
 20
100.113
 30
0.0
 11
71.719800000000006
 21
100.113
 31
0.0
  0
LINE
  5
7A
  8
0
 62
     7
 10
71.719800000000006
 20
100.113
 30
0.0
 11
71.719800000000006
 21
100.285
 31
0.0
  0
LINE
  5
7B
  8
0
 62
     7
 10
71.719800000000006
 20
100.285
 30
0.0
 11
72.019499999999994
 21
100.285
 31
0.0
  0
LINE
  5
7C
  8
0
 62
     7
 10
72.019499999999994
 20
100.285
 30
0.0
 11
72.019499999999994
 21
100.113
 31
0.0
  0
LINE
  5
7D
  8
0
 62
     7
 10
72.019499999999994
 20
100.113
 30
0.0
 11
72.131100000000004
 21
100.113
 31
0.0
  0
LINE
  5
7E
  8
0
 62
     7
 10
72.131100000000004
 20
100.113
 30
0.0
 11
72.131100000000004
 21
100.2739999999999
 31
0.0
  0
ARC
  5
7F
  8
0
 62
     7
 10
72.057283999999996
 20
100.273343
 30
0.0
 40
0.073831
 50
0.721035
 51
67.997718000000006
  0
ARC
  5
80
  8
0
 62
     7
 10
72.087543999999994
 20
100.3449199999999
 30
0.0
 40
0.004064
 50
144.01000599999989
 51
230.240025
  0
ARC
  5
81
  8
0
 62
     7
 10
72.059460000000001
 20
100.415257
 30
0.0
 40
0.072331
 50
290.0478169999999
 51
7.8756630000000003
  0
LINE
  5
82
  8
0
 62
     7
 10
72.131100000000004
 20
100.425
 30
0.0
 11
72.131100000000004
 21
100.50099999999991
 31
0.0
  0
ARC
  5
83
  8
0
 62
     7
 10
72.033086999999995
 20
100.49738000000001
 30
0.0
 40
0.098087
 50
2.091931999999999
 51
87.277286000000004
  0
LINE
  5
84
  8
0
 62
     7
 10
70.8185
 20
100.4839999999999
 30
0.0
 11
71.039699999999996
 21
100.4839999999999
 31
0.0
  0
LINE
  5
85
  8
0
 62
     7
 10
71.039699999999996
 20
100.4839999999999
 30
0.0
 11
71.039699999999996
 21
100.113
 31
0.0
  0
LINE
  5
86
  8
0
 62
     7
 10
71.039699999999996
 20
100.113
 30
0.0
 11
71.152000000000001
 21
100.113
 31
0.0
  0
LINE
  5
87
  8
0
 62
     7
 10
71.152000000000001
 20
100.113
 30
0.0
 11
71.152000000000001
 21
100.4839999999999
 31
0.0
  0
LINE
  5
88
  8
0
 62
     7
 10
71.152000000000001
 20
100.4839999999999
 30
0.0
 11
71.373199999999997
 21
100.4839999999999
 31
0.0
  0
LINE
  5
89
  8
0
 62
     7
 10
71.373199999999997
 20
100.4839999999999
 30
0.0
 11
71.373199999999997
 21
100.5949999999999
 31
0.0
  0
LINE
  5
8A
  8
0
 62
     7
 10
71.373199999999997
 20
100.5949999999999
 30
0.0
 11
70.8185
 21
100.5949999999999
 31
0.0
  0
LINE
  5
8B
  8
0
 62
     7
 10
70.8185
 20
100.5949999999999
 30
0.0
 11
70.8185
 21
100.4839999999999
 31
0.0
  0
LINE
  5
8C
  8
0
 62
     7
 10
72.567300000000003
 20
100.3239999999999
 30
0.0
 11
72.662300000000002
 21
100.50399999999991
 31
0.0
  0
LINE
  5
8D
  8
0
 62
     7
 10
72.662300000000002
 20
100.50399999999991
 30
0.0
 11
72.756699999999995
 21
100.3239999999999
 31
0.0
  0
LINE
  5
8E
  8
0
 62
     7
 10
72.756699999999995
 20
100.3239999999999
 30
0.0
 11
72.567300000000003
 21
100.3239999999999
 31
0.0
  0
LINE
  5
8F
  8
0
 62
     7
 10
72.605199999999996
 20
100.5949999999999
 30
0.0
 11
72.325400000000002
 21
100.113
 31
0.0
  0
LINE
  5
90
  8
0
 62
     7
 10
72.325400000000002
 20
100.113
 30
0.0
 11
72.455600000000004
 21
100.113
 31
0.0
  0
LINE
  5
91
  8
0
 62
     7
 10
72.455600000000004
 20
100.113
 30
0.0
 11
72.508700000000005
 21
100.21299999999989
 31
0.0
  0
LINE
  5
92
  8
0
 62
     7
 10
72.508700000000005
 20
100.21299999999989
 30
0.0
 11
72.815299999999993
 21
100.21299999999989
 31
0.0
  0
LINE
  5
93
  8
0
 62
     7
 10
72.815299999999993
 20
100.21299999999989
 30
0.0
 11
72.868399999999994
 21
100.113
 31
0.0
  0
LINE
  5
94
  8
0
 62
     7
 10
72.868399999999994
 20
100.113
 30
0.0
 11
72.998599999999996
 21
100.113
 31
0.0
  0
LINE
  5
95
  8
0
 62
     7
 10
72.998599999999996
 20
100.113
 30
0.0
 11
72.719200000000001
 21
100.5949999999999
 31
0.0
  0
LINE
  5
96
  8
0
 62
     7
 10
72.719200000000001
 20
100.5949999999999
 30
0.0
 11
72.605199999999996
 21
100.5949999999999
 31
0.0
  0
LINE
  5
97
  8
0
 62
     7
 10
75.754999999999995
 20
102.61199999999999
 30
0.0
 11
75.183099999999996
 21
102.61199999999999
 31
0.0
  0
ARC
  5
98
  8
0
 62
     7
 10
75.206333999999998
 20
101.991522
 30
0.0
 40
0.6210399999999999
 50
92.140473999999998
 51
177.79337299999989
  0
LINE
  5
99
  8
0
 62
     7
 10
74.585800000000006
 20
102.015
 30
0.0
 11
74.585800000000006
 21
100.9339999999999
 31
0.0
  0
ARC
  5
9A
  8
0
 62
     7
 10
74.684510000000003
 20
100.9373489999999
 30
0.0
 40
0.098823
 50
182.13515000000001
 51
268.07209699999999
  0
LINE
  5
9B
  8
0
 62
     7
 10
74.681200000000004
 20
100.8389999999999
 30
0.0
 11
74.783799999999999
 21
100.8389999999999
 31
0.0
  0
ARC
  5
9C
  8
0
 62
     7
 10
74.780486999999994
 20
100.93702999999999
 30
0.0
 40
0.098505
 50
271.95616799999988
 51
358.04384199999998
  0
LINE
  5
9D
  8
0
 62
     7
 10
74.878900000000002
 20
100.9339999999999
 30
0.0
 11
74.878900000000002
 21
101.575
 31
0.0
  0
LINE
  5
9E
  8
0
 62
     7
 10
74.878900000000002
 20
101.575
 30
0.0
 11
75.556899999999999
 21
101.575
 31
0.0
  0
LINE
  5
9F
  8
0
 62
     7
 10
75.556899999999999
 20
101.575
 30
0.0
 11
75.556899999999999
 21
100.9339999999999
 31
0.0
  0
ARC
  5
A0
  8
0
 62
     7
 10
75.655676
 20
100.937325
 30
0.0
 40
0.09881
 50
182.12127599999991
 51
267.87875400000001
  0
LINE
  5
A1
  8
0
 62
     7
 10
75.652000000000001
 20
100.8389999999999
 30
0.0
 11
75.754999999999995
 21
100.8389999999999
 31
0.0
  0
ARC
  5
A2
  8
0
 62
     7
 10
75.751666
 20
100.93702999999999
 30
0.0
 40
0.098505
 50
271.95616799999988
 51
358.04384199999998
  0
LINE
  5
A3
  8
0
 62
     7
 10
75.850099999999998
 20
100.9339999999999
 30
0.0
 11
75.850099999999998
 21
102.517
 31
0.0
  0
ARC
  5
A4
  8
0
 62
     7
 10
75.751370999999992
 20
102.5133859999999
 30
0.0
 40
0.09881
 50
2.1212559999999998
 51
87.878733999999994
  0
LINE
  5
A5
  8
0
 62
     7
 10
74.395899999999983
 20
102.61199999999999
 30
0.0
 11
74.116900000000001
 21
102.61199999999999
 31
0.0
  0
ARC
  5
A6
  8
0
 62
     7
 10
74.140076000000008
 20
101.9915169999999
 30
0.0
 40
0.621045
 50
92.14094200000001
 51
177.79290499999999
  0
LINE
  5
A7
  8
0
 62
     7
 10
73.519499999999994
 20
102.015
 30
0.0
 11
73.519499999999994
 21
100.9339999999999
 31
0.0
  0
ARC
  5
A8
  8
0
 62
     7
 10
73.618234000000001
 20
100.937325
 30
0.0
 40
0.09881
 50
182.12127599999991
 51
267.87875400000001
  0
LINE
  5
A9
  8
0
 62
     7
 10
73.614599999999996
 20
100.8389999999999
 30
0.0
 11
73.7179
 21
100.8389999999999
 31
0.0
  0
ARC
  5
AA
  8
0
 62
     7
 10
73.714209999999994
 20
100.9366739999999
 30
0.0
 40
0.098162
 50
272.17172599999992
 51
358.244979
  0
LINE
  5
AB
  8
0
 62
     7
 10
73.812299999999993
 20
100.9339999999999
 30
0.0
 11
73.812299999999993
 21
102.312
 31
0.0
  0
LINE
  5
AC
  8
0
 62
     7
 10
73.812299999999993
 20
102.312
 30
0.0
 11
74.395899999999983
 21
102.312
 31
0.0
  0
ARC
  5
AD
  8
0
 62
     7
 10
74.392522999999997
 20
102.410206
 30
0.0
 40
0.09855
 50
271.98057999999992
 51
358.01943
  0
LINE
  5
AE
  8
0
 62
     7
 10
74.491
 20
102.407
 30
0.0
 11
74.491
 21
102.517
 31
0.0
  0
ARC
  5
AF
  8
0
 62
     7
 10
74.392271999999991
 20
102.5133859999999
 30
0.0
 40
0.09881
 50
2.1212559999999998
 51
87.878733999999994
  0
LINE
  5
B0
  8
0
 62
     7
 10
74.873400000000004
 20
100.2389999999999
 30
0.0
 11
74.523399999999995
 21
100.5949999999999
 31
0.0
  0
LINE
  5
B1
  8
0
 62
     7
 10
74.523399999999995
 20
100.5949999999999
 30
0.0
 11
74.411799999999999
 21
100.5949999999999
 31
0.0
  0
LINE
  5
B2
  8
0
 62
     7
 10
74.411799999999999
 20
100.5949999999999
 30
0.0
 11
74.411799999999999
 21
100.113
 31
0.0
  0
LINE
  5
B3
  8
0
 62
     7
 10
74.411799999999999
 20
100.113
 30
0.0
 11
74.523399999999995
 21
100.113
 31
0.0
  0
LINE
  5
B4
  8
0
 62
     7
 10
74.523399999999995
 20
100.113
 30
0.0
 11
74.523399999999995
 21
100.46899999999989
 31
0.0
  0
LINE
  5
B5
  8
0
 62
     7
 10
74.523399999999995
 20
100.46899999999989
 30
0.0
 11
74.873400000000004
 21
100.113
 31
0.0
  0
LINE
  5
B6
  8
0
 62
     7
 10
74.873400000000004
 20
100.113
 30
0.0
 11
74.985699999999994
 21
100.113
 31
0.0
  0
LINE
  5
B7
  8
0
 62
     7
 10
74.985699999999994
 20
100.113
 30
0.0
 11
74.985699999999994
 21
100.5949999999999
 31
0.0
  0
LINE
  5
B8
  8
0
 62
     7
 10
74.985699999999994
 20
100.5949999999999
 30
0.0
 11
74.873400000000004
 21
100.5949999999999
 31
0.0
  0
LINE
  5
B9
  8
0
 62
     7
 10
74.873400000000004
 20
100.5949999999999
 30
0.0
 11
74.873400000000004
 21
100.2389999999999
 31
0.0
  0
LINE
  5
BA
  8
0
 62
     7
 10
74.009399999999999
 20
100.113
 30
0.0
 11
74.121700000000004
 21
100.113
 31
0.0
  0
LINE
  5
BB
  8
0
 62
     7
 10
74.121700000000004
 20
100.113
 30
0.0
 11
74.121700000000004
 21
100.5949999999999
 31
0.0
  0
LINE
  5
BC
  8
0
 62
     7
 10
74.121700000000004
 20
100.5949999999999
 30
0.0
 11
74.009399999999999
 21
100.5949999999999
 31
0.0
  0
LINE
  5
BD
  8
0
 62
     7
 10
74.009399999999999
 20
100.5949999999999
 30
0.0
 11
74.009399999999999
 21
100.113
 31
0.0
  0
LINE
  5
BE
  8
0
 62
     7
 10
75.791200000000003
 20
100.4839999999999
 30
0.0
 11
75.791200000000003
 21
100.5949999999999
 31
0.0
  0
LINE
  5
BF
  8
0
 62
     7
 10
75.791200000000003
 20
100.5949999999999
 30
0.0
 11
75.359899999999996
 21
100.5949999999999
 31
0.0
  0
ARC
  5
C0
  8
0
 62
     7
 10
75.363594999999989
 20
100.498661
 30
0.0
 40
0.096768
 50
92.204377000000008
 51
178.63816299999991
  0
LINE
  5
C1
  8
0
 62
     7
 10
75.266900000000007
 20
100.50099999999991
 30
0.0
 11
75.266900000000007
 21
100.2059999999999
 31
0.0
  0
ARC
  5
C2
  8
0
 62
     7
 10
75.363487000000006
 20
100.2096729999999
 30
0.0
 40
0.0967
 50
182.14175399999991
 51
267.85827599999988
  0
LINE
  5
C3
  8
0
 62
     7
 10
75.359899999999996
 20
100.113
 30
0.0
 11
75.791200000000003
 21
100.113
 31
0.0
  0
LINE
  5
C4
  8
0
 62
     7
 10
75.791200000000003
 20
100.113
 30
0.0
 11
75.791200000000003
 21
100.35599999999999
 31
0.0
  0
LINE
  5
C5
  8
0
 62
     7
 10
75.791200000000003
 20
100.35599999999999
 30
0.0
 11
75.679900000000004
 21
100.35599999999999
 31
0.0
  0
LINE
  5
C6
  8
0
 62
     7
 10
75.679900000000004
 20
100.35599999999999
 30
0.0
 11
75.679900000000004
 21
100.224
 31
0.0
  0
LINE
  5
C7
  8
0
 62
     7
 10
75.679900000000004
 20
100.224
 30
0.0
 11
75.378500000000003
 21
100.224
 31
0.0
  0
LINE
  5
C8
  8
0
 62
     7
 10
75.378500000000003
 20
100.224
 30
0.0
 11
75.378500000000003
 21
100.4839999999999
 31
0.0
  0
LINE
  5
C9
  8
0
 62
     7
 10
75.378500000000003
 20
100.4839999999999
 30
0.0
 11
75.791200000000003
 21
100.4839999999999
 31
0.0
  0
LINE
  5
CA
  8
0
 62
     7
 10
75.556899999999999
 20
101.876
 30
0.0
 11
74.878900000000002
 21
101.876
 31
0.0
  0
LINE
  5
CB
  8
0
 62
     7
 10
74.878900000000002
 20
101.876
 30
0.0
 11
74.878900000000002
 21
102.312
 31
0.0
  0
LINE
  5
CC
  8
0
 62
     7
 10
74.878900000000002
 20
102.312
 30
0.0
 11
75.556899999999999
 21
102.312
 31
0.0
  0
LINE
  5
CD
  8
0
 62
     7
 10
75.556899999999999
 20
102.312
 30
0.0
 11
75.556899999999999
 21
101.876
 31
0.0
  0
ARC
  5
CE
  8
0
 62
     7
 10
76.860053000000008
 20
101.36068
 30
0.0
 40
0.9603249999999999
 50
0.134183
 51
31.518139999999999
  0
ARC
  5
CF
  8
0
 62
     7
 10
76.416099000000003
 20
101.126047
 30
0.0
 40
1.461795999999999
 50
30.261188000000001
 51
46.471330000000002
  0
ARC
  5
D0
  8
0
 62
     7
 10
75.870431999999994
 20
100.600842
 30
0.0
 40
2.218653999999999
 50
45.595641999999991
 51
54.179349000000002
  0
ARC
  5
D1
  8
0
 62
     7
 10
75.211501999999996
 20
99.704956999999993
 30
0.0
 40
3.330738999999999
 50
54.007699000000002
 51
65.782297999999983
  0
ARC
  5
D2
  8
0
 62
     7
 10
74.356084999999993
 20
97.953462000000002
 30
0.0
 40
5.2793469999999996
 50
65.113061000000002
 51
73.716399999999993
  0
ARC
  5
D3
  8
0
 62
     7
 10
73.624173999999996
 20
95.610278000000008
 30
0.0
 40
7.7338919999999991
 50
73.379011000000006
 51
84.714252999999985
  0
ARC
  5
D4
  8
0
 62
     7
 10
73.332082999999983
 20
93.481878000000009
 30
0.0
 40
9.8806039999999982
 50
84.164662000000007
 51
90.067945999999992
  0
ARC
  5
D5
  8
0
 62
     7
 10
73.319130999999999
 20
93.60051
 30
0.0
 40
9.761965
 50
89.992756000000014
 51
101.225098
  0
ARC
  5
D6
  8
0
 62
     7
 10
72.830055999999999
 20
96.331116000000009
 30
0.0
 40
6.9885830000000002
 50
101.6500479999999
 51
110.917429
  0
ARC
  5
D7
  8
0
 62
     7
 10
71.970584000000002
 20
98.687472000000014
 30
0.0
 40
4.4808339999999989
 50
111.40898900000001
 51
120.7074699999999
  0
ARC
  5
D8
  8
0
 62
     7
 10
71.089120999999992
 20
100.2144499999999
 30
0.0
 40
2.717925999999999
 50
121.168933
 51
133.50215700000001
  0
ARC
  5
D9
  8
0
 62
     7
 10
70.307131999999996
 20
101.07075
 30
0.0
 40
1.5586610000000001
 50
134.320008
 51
153.51052999999999
  0
ARC
  5
DA
  8
0
 62
     7
 10
69.811140000000009
 20
101.35017999999999
 30
0.0
 40
0.990526
 50
155.18042
 51
179.26248200000001
  0
ARC
  5
DB
  8
0
 62
     7
 10
69.781468000000004
 20
101.365184
 30
0.0
 40
0.9607750000000001
 50
180.13447099999999
 51
211.50814199999999
  0
ARC
  5
DC
  8
0
 62
     7
 10
70.225791999999998
 20
101.599744
 30
0.0
 40
1.4625319999999991
 50
210.24523600000001
 51
226.45125200000001
  0
ARC
  5
DD
  8
0
 62
     7
 10
70.772790000000001
 20
102.12610699999991
 30
0.0
 40
2.2211569999999989
 50
225.57911399999989
 51
234.15464800000001
  0
ARC
  5
DE
  8
0
 62
     7
 10
71.430623999999995
 20
103.019718
 30
0.0
 40
3.3307599999999988
 50
233.98363199999989
 51
245.75945899999991
  0
ARC
  5
DF
  8
0
 62
     7
 10
72.287940000000006
 20
104.77437999999999
 30
0.0
 40
5.2830560000000002
 50
245.0944409999999
 51
253.69212899999991
  0
ARC
  5
E0
  8
0
 62
     7
 10
73.017203000000009
 20
107.1077999999999
 30
0.0
 40
7.7275
 50
253.360694
 51
264.70521600000001
  0
ARC
  5
E1
  8
0
 62
     7
 10
73.307974999999999
 20
109.21445
 30
0.0
 40
9.8524530000000006
 50
264.151993
 51
270.07205699999992
  0
ARC
  5
E2
  8
0
 62
     7
 10
73.321629000000001
 20
109.11161899999991
 30
0.0
 40
9.7496139999999993
 50
269.99257699999993
 51
281.23971699999998
  0
ARC
  5
E3
  8
0
 62
     7
 10
73.808806000000004
 20
106.39357099999989
 30
0.0
 40
6.9889330000000003
 50
281.66562699999997
 51
290.93404299999997
  0
ARC
  5
E4
  8
0
 62
     7
 10
74.667889000000002
 20
104.03952199999991
 30
0.0
 40
4.483492
 50
291.42871700000001
 51
300.72411799999998
  0
ARC
  5
E5
  8
0
 62
     7
 10
75.549306000000001
 20
102.5132509999999
 30
0.0
 40
2.721222
 50
301.18901599999998
 51
313.51137199999999
  0
ARC
  5
E6
  8
0
 62
     7
 10
76.332079000000007
 20
101.6559949999999
 30
0.0
 40
1.5607319999999989
 50
314.33823799999988
 51
333.50982900000002
  0
ARC
  5
E7
  8
0
 62
     7
 10
76.830220999999995
 20
101.37559400000001
 30
0.0
 40
0.9902359999999999
 50
335.17467399999998
 51
359.267202
  0
ARC
  5
E8
  8
0
 62
     7
 10
133.29552899999999
 20
116.005522
 30
0.0
 40
43.882142000000002
 50
353.69137699999987
 51
354.65267399999999
  0
ARC
  5
E9
  8
0
 62
     7
 10
172.45495399999999
 20
112.38318700000001
 30
0.0
 40
4.5557610000000004
 50
354.11420099999992
 51
356.340574
  0
ARC
  5
EA
  8
0
 62
     7
 10
175.928956
 20
112.143534
 30
0.0
 40
1.0736879999999991
 50
357.27100499999989
 51
10.306305999999999
  0
ARC
  5
EB
  8
0
 62
     7
 10
176.317475
 20
112.2084179999999
 30
0.0
 40
0.679853
 50
10.784425000000001
 51
23.863261999999992
  0
ARC
  5
EC
  8
0
 62
     7
 10
176.752306
 20
112.39336
 30
0.0
 40
0.207486
 50
25.736111000000001
 51
41.228012
  0
ARC
  5
ED
  8
0
 62
     7
 10
176.84120100000001
 20
112.472528
 30
0.0
 40
0.088456
 50
40.609320000000011
 51
88.141102000000004
  0
ARC
  5
EE
  8
0
 62
     7
 10
176.84706600000001
 20
112.468937
 30
0.0
 40
0.09205
 50
91.864659999999986
 51
108.8907699999999
  0
ARC
  5
EF
  8
0
 62
     7
 10
176.87228200000001
 20
112.392477
 30
0.0
 40
0.172558
 50
108.5930899999999
 51
123.93829100000001
  0
ARC
  5
F0
  8
0
 62
     7
 10
176.93543500000001
 20
112.2964539999999
 30
0.0
 40
0.287484
 50
123.695909
 51
145.0772179999999
  0
ARC
  5
F1
  8
0
 62
     7
 10
176.95197799999991
 20
112.2866439999999
 30
0.0
 40
0.306667
 50
145.34385399999999
 51
167.11930299999989
  0
ARC
  5
F2
  8
0
 62
     7
 10
177.3362709999999
 20
112.16011
 30
0.0
 40
0.7104970000000001
 50
164.079092
 51
167.92371199999999
  0
ARC
  5
F3
  8
0
 62
     7
 10
215.86302499999991
 20
106.85279800000001
 30
0.0
 40
39.191105999999991
 50
173.655598
 51
174.73090899999991
  0
ARC
  5
F4
  8
0
 62
     7
 10
181.056172
 20
110.002382
 30
0.0
 40
4.2425220000000001
 50
173.918612
 51
176.26578499999999
  0
ARC
  5
F5
  8
0
 62
     7
 10
177.888668
 20
110.2242549999999
 30
0.0
 40
1.067399999999999
 50
177.07683299999991
 51
190.326739
  0
ARC
  5
F6
  8
0
 62
     7
 10
177.54173399999999
 20
110.1711149999999
 30
0.0
 40
0.716629
 50
191.11930499999991
 51
203.78064000000001
  0
ARC
  5
F7
  8
0
 62
     7
 10
177.06717499999991
 20
109.97115599999999
 30
0.0
 40
0.201905
 50
206.15869900000001
 51
221.40668500000001
  0
ARC
  5
F8
  8
0
 62
     7
 10
176.982865
 20
109.8955459999999
 30
0.0
 40
0.088666
 50
220.794567
 51
268.4697109999999
  0
ARC
  5
F9
  8
0
 62
     7
 10
176.974253
 20
109.91461700000001
 30
0.0
 40
0.107887
 50
273.31796700000001
 51
294.52087699999993
  0
ARC
  5
FA
  8
0
 62
     7
 10
176.91244
 20
110.046556
 30
0.0
 40
0.253584
 50
294.85538199999991
 51
326.74768899999998
  0
ARC
  5
FB
  8
0
 62
     7
 10
176.88854900000001
 20
110.0730999999999
 30
0.0
 40
0.288262
 50
324.93903699999993
 51
346.98714299999989
  0
ARC
  5
FC
  8
0
 62
     7
 10
176.52489
 20
110.19511199999999
 30
0.0
 40
0.671075
 50
343.82704100000001
 51
348.30586699999992
  0
ARC
  5
FD
  8
0
 62
     7
 10
123.80171
 20
116.87032600000001
 30
0.0
 40
52.638680999999998
 50
353.79802799999999
 51
354.59937000000002
  0
ARC
  5
FE
  8
0
 62
     7
 10
171.67498000000001
 20
112.38318700000001
 30
0.0
 40
4.5557610000000004
 50
354.11420099999992
 51
356.340574
  0
ARC
  5
FF
  8
0
 62
     7
 10
175.14898099999991
 20
112.143534
 30
0.0
 40
1.0736879999999991
 50
357.27100499999989
 51
10.306305999999999
  0
ARC
  5
100
  8
0
 62
     7
 10
175.5333169999999
 20
112.20761399999989
 30
0.0
 40
0.6841120000000001
 50
10.784962999999999
 51
23.779044999999989
  0
ARC
  5
101
  8
0
 62
     7
 10
175.97359800000001
 20
112.3942259999999
 30
0.0
 40
0.206075
 50
25.657667
 51
41.251246000000002
  0
ARC
  5
102
  8
0
 62
     7
 10
176.06134900000001
 20
112.472455
 30
0.0
 40
0.088526
 50
40.633246
 51
88.221744999999999
  0
ARC
  5
103
  8
0
 62
     7
 10
176.0671199999999
 20
112.469562
 30
0.0
 40
0.091426
 50
91.895567
 51
108.958174
  0
ARC
  5
104
  8
0
 62
     7
 10
176.0926959999999
 20
112.392157
 30
0.0
 40
0.172945
 50
108.64050899999999
 51
123.938306
  0
ARC
  5
105
  8
0
 62
     7
 10
176.154009
 20
112.298653
 30
0.0
 40
0.284753
 50
123.66955299999999
 51
145.23317599999999
  0
ARC
  5
106
  8
0
 62
     7
 10
176.172348
 20
112.2866439999999
 30
0.0
 40
0.306667
 50
145.34385399999999
 51
167.11930299999989
  0
ARC
  5
107
  8
0
 62
     7
 10
176.5566409999999
 20
112.16011
 30
0.0
 40
0.7104970000000001
 50
164.079092
 51
167.92371199999999
  0
ARC
  5
108
  8
0
 62
     7
 10
197.6231699999999
 20
108.75234499999991
 30
0.0
 40
21.62794499999999
 50
173.54561799999991
 51
174.58682899999991
  0
ARC
  5
109
  8
0
 62
     7
 10
254.532938
 20
102.845083
 30
0.0
 40
78.842850999999996
 50
174.21458499999989
 51
174.4634749999999
  0
ARC
  5
10A
  8
0
 62
     7
 10
180.4241649999999
 20
109.986709
 30
0.0
 40
4.3909750000000001
 50
173.91933
 51
176.1872699999999
  0
ARC
  5
10B
  8
0
 62
     7
 10
177.096675
 20
110.223962
 30
0.0
 40
1.0551859999999991
 50
177.02708200000001
 51
190.43147399999989
  0
ARC
  5
10C
  8
0
 62
     7
 10
176.74860699999991
 20
110.16553
 30
0.0
 40
0.702314
 50
190.88457600000001
 51
203.61221
  0
ARC
  5
10D
  8
0
 62
     7
 10
176.28947500000001
 20
109.97270399999999
 30
0.0
 40
0.204514
 50
205.63557499999999
 51
221.34047799999999
  0
ARC
  5
10E
  8
0
 62
     7
 10
176.203023
 20
109.895472
 30
0.0
 40
0.088595
 50
220.770466
 51
268.38296200000002
  0
ARC
  5
10F
  8
0
 62
     7
 10
176.19429099999991
 20
109.915526
 30
0.0
 40
0.108793
 50
273.28340099999991
 51
294.414107
  0
ARC
  5
110
  8
0
 62
     7
 10
176.13390999999999
 20
110.044646
 30
0.0
 40
0.25133
 50
294.781882
 51
326.93123700000001
  0
ARC
  5
111
  8
0
 62
     7
 10
176.1138629999999
 20
110.071656
 30
0.0
 40
0.283109
 50
324.56352500000003
 51
347.046221
  0
ARC
  5
112
  8
0
 62
     7
 10
174.95447699999991
 20
110.391606
 30
0.0
 40
1.4856189999999989
 50
345.04361899999998
 51
347.06645800000001
  0
ARC
  5
113
  8
0
 62
     7
 10
224.04144500000001
 20
105.86248999999989
 30
0.0
 40
48.979011
 50
173.76304500000001
 51
174.62346299999999
  0
ARC
  5
114
  8
0
 62
     7
 10
179.87300400000001
 20
109.978155
 30
0.0
 40
4.619434
 50
174.11445599999999
 51
176.34912299999991
  0
ARC
  5
115
  8
0
 62
     7
 10
176.31259
 20
110.223753
 30
0.0
 40
1.050767
 50
177.35167799999999
 51
190.46423100000001
  0
ARC
  5
116
  8
0
 62
     7
 10
175.968977
 20
110.16553
 30
0.0
 40
0.702314
 50
190.88457600000001
 51
203.61221
  0
ARC
  5
117
  8
0
 62
     7
 10
175.50984500000001
 20
109.97270399999999
 30
0.0
 40
0.204514
 50
205.63557499999999
 51
221.34047799999999
  0
ARC
  5
118
  8
0
 62
     7
 10
175.423393
 20
109.895472
 30
0.0
 40
0.088595
 50
220.770466
 51
268.38296200000002
  0
ARC
  5
119
  8
0
 62
     7
 10
175.41462699999991
 20
109.91475299999991
 30
0.0
 40
0.108023
 50
273.324952
 51
294.506418
  0
ARC
  5
11A
  8
0
 62
     7
 10
175.35198700000001
 20
110.048332
 30
0.0
 40
0.255557
 50
294.86276400000003
 51
326.5612779999999
  0
ARC
  5
11B
  8
0
 62
     7
 10
175.32526399999989
 20
110.074726
 30
0.0
 40
0.292492
 50
325.13123699999989
 51
347.338506
  0
ARC
  5
11C
  8
0
 62
     7
 10
174.97438199999999
 20
110.191008
 30
0.0
 40
0.661339
 50
344.1708549999999
 51
348.494326
  0
ARC
  5
11D
  8
0
 62
     7
 10
131.73592400000001
 20
116.005522
 30
0.0
 40
43.882142000000002
 50
353.69137699999987
 51
354.65267399999999
  0
ARC
  5
11E
  8
0
 62
     7
 10
171.238382
 20
112.3622899999999
 30
0.0
 40
4.2124189999999997
 50
353.91847999999999
 51
356.2831339999999
  0
ARC
  5
11F
  8
0
 62
     7
 10
174.37520399999991
 20
112.142719
 30
0.0
 40
1.0680769999999991
 50
357.12865299999999
 51
10.40545
  0
ARC
  5
120
  8
0
 62
     7
 10
174.75673499999999
 20
112.20820000000001
 30
0.0
 40
0.681008
 50
10.784571
 51
23.84029799999999
  0
ARC
  5
121
  8
0
 62
     7
 10
175.19296800000001
 20
112.3937669999999
 30
0.0
 40
0.207097
 50
25.662869000000001
 51
41.172376
  0
ARC
  5
122
  8
0
 62
     7
 10
175.2818399999999
 20
112.472835
 30
0.0
 40
0.088154
 50
40.515948000000002
 51
88.069342999999989
  0
ARC
  5
123
  8
0
 62
     7
 10
175.28781399999991
 20
112.467975
 30
0.0
 40
0.093012
 50
91.850451000000007
 51
108.791436
  0
ARC
  5
124
  8
0
 62
     7
 10
175.312669
 20
112.392228
 30
0.0
 40
0.17273
 50
108.502932
 51
123.874835
  0
ARC
  5
125
  8
0
 62
     7
 10
175.3753419999999
 20
112.29683799999989
 30
0.0
 40
0.286863
 50
123.648368
 51
145.08431999999991
  0
ARC
  5
126
  8
0
 62
     7
 10
175.38794899999991
 20
112.28967
 30
0.0
 40
0.301307
 50
145.33872999999991
 51
167.00391499999989
  0
ARC
  5
127
  8
0
 62
     7
 10
175.77443500000001
 20
112.16220300000001
 30
0.0
 40
0.7075420000000001
 50
163.98307500000001
 51
168.04580999999999
  0
ARC
  5
128
  8
0
 62
     7
 10
197.5266169999999
 20
108.587067
 30
0.0
 40
23.09996099999999
 50
173.54610400000001
 51
174.549643
  0
ARC
  5
129
  8
0
 62
     7
 10
255.587672
 20
102.541009
 30
0.0
 40
81.474345999999997
 50
174.19526999999991
 51
174.42801399999991
  0
ARC
  5
12A
  8
0
 62
     7
 10
178.71693699999989
 20
110.002382
 30
0.0
 40
4.2425220000000001
 50
173.918612
 51
176.26578499999999
  0
ARC
  5
12B
  8
0
 62
     7
 10
175.54943299999991
 20
110.2242549999999
 30
0.0
 40
1.067399999999999
 50
177.07683299999991
 51
190.326739
  0
ARC
  5
12C
  8
0
 62
     7
 10
175.19336799999999
 20
110.16930600000001
 30
0.0
 40
0.707319
 50
191.118201
 51
203.95294299999989
  0
ARC
  5
12D
  8
0
 62
     7
 10
174.72577699999999
 20
109.9698919999999
 30
0.0
 40
0.199183
 50
206.1382899999999
 51
222.16603199999989
  0
ARC
  5
12E
  8
0
 62
     7
 10
174.64336900000001
 20
109.8941449999999
 30
0.0
 40
0.087259
 50
221.62388100000001
 51
268.61657600000001
  0
ARC
  5
12F
  8
0
 62
     7
 10
174.635099
 20
109.9149989999999
 30
0.0
 40
0.108263
 50
273.263758
 51
294.47080799999998
  0
ARC
  5
130
  8
0
 62
     7
 10
174.573812
 20
110.045677
 30
0.0
 40
0.2525949999999999
 50
294.84526499999993
 51
326.83886999999999
  0
ARC
  5
131
  8
0
 62
     7
 10
174.556196
 20
110.07052899999999
 30
0.0
 40
0.281158
 50
324.56229999999999
 51
347.19025499999992
  0
ARC
  5
132
  8
0
 62
     7
 10
174.15900699999989
 20
110.20394
 30
0.0
 40
0.6993050000000001
 50
343.74477300000001
 51
348.04591799999997
  0
ARC
  5
133
  8
0
 62
     7
 10
122.24244899999989
 20
116.87032600000001
 30
0.0
 40
52.638680999999998
 50
353.79802799999999
 51
354.59937000000002
  0
ARC
  5
134
  8
0
 62
     7
 10
170.1157199999999
 20
112.38318700000001
 30
0.0
 40
4.5557610000000004
 50
354.11420099999992
 51
356.340574
  0
ARC
  5
135
  8
0
 62
     7
 10
173.589721
 20
112.143534
 30
0.0
 40
1.0736879999999991
 50
357.27100499999989
 51
10.306305999999999
  0
ARC
  5
136
  8
0
 62
     7
 10
173.97405699999999
 20
112.20761399999989
 30
0.0
 40
0.6841120000000001
 50
10.784962999999999
 51
23.779044999999989
  0
ARC
  5
137
  8
0
 62
     7
 10
174.4143379999999
 20
112.3942259999999
 30
0.0
 40
0.206075
 50
25.657667
 51
41.251246000000002
  0
ARC
  5
138
  8
0
 62
     7
 10
174.5020889999999
 20
112.472455
 30
0.0
 40
0.088526
 50
40.633246
 51
88.221744999999999
  0
ARC
  5
139
  8
0
 62
     7
 10
174.50785999999999
 20
112.469562
 30
0.0
 40
0.091426
 50
91.895567
 51
108.958174
  0
ARC
  5
13A
  8
0
 62
     7
 10
174.53343599999999
 20
112.392157
 30
0.0
 40
0.172945
 50
108.64050899999999
 51
123.938306
  0
ARC
  5
13B
  8
0
 62
     7
 10
174.59474800000001
 20
112.298653
 30
0.0
 40
0.284753
 50
123.66955299999999
 51
145.23317599999999
  0
ARC
  5
13C
  8
0
 62
     7
 10
174.61619999999991
 20
112.28450599999999
 30
0.0
 40
0.310442
 50
145.34592799999999
 51
166.87381199999999
  0
ARC
  5
13D
  8
0
 62
     7
 10
174.983315
 20
112.1624399999999
 30
0.0
 40
0.696591
 50
163.952089
 51
167.87498999999991
  0
ARC
  5
13E
  8
0
 62
     7
 10
212.74416099999991
 20
106.85279800000001
 30
0.0
 40
39.191105999999991
 50
173.655598
 51
174.73090899999991
  0
ARC
  5
13F
  8
0
 62
     7
 10
178.41465700000001
 20
109.967787
 30
0.0
 40
4.720877999999999
 50
174.11487700000001
 51
176.34048100000001
  0
ARC
  5
140
  8
0
 62
     7
 10
174.74341200000001
 20
110.22216999999991
 30
0.0
 40
1.041066
 50
177.41593700000001
 51
190.474255
  0
ARC
  5
141
  8
0
 62
     7
 10
174.40500800000001
 20
110.16468399999999
 30
0.0
 40
0.6978680000000002
 50
190.88403
 51
203.69598099999999
  0
ARC
  5
142
  8
0
 62
     7
 10
173.95148999999989
 20
109.97356000000001
 30
0.0
 40
0.205904
 50
205.71402999999989
 51
221.317241
  0
ARC
  5
143
  8
0
 62
     7
 10
173.86390900000001
 20
109.8953969999999
 30
0.0
 40
0.088525
 50
220.7464839999999
 51
268.30307499999992
  0
ARC
  5
144
  8
0
 62
     7
 10
173.85505699999999
 20
109.915526
 30
0.0
 40
0.108793
 50
273.28340099999991
 51
294.414107
  0
ARC
  5
145
  8
0
 62
     7
 10
173.7939519999999
 20
110.04628200000001
 30
0.0
 40
0.253119
 50
294.77522900000002
 51
326.75268499999987
  0
ARC
  5
146
  8
0
 62
     7
 10
173.76656199999999
 20
110.0752699999999
 30
0.0
 40
0.292064
 50
324.942455
 51
346.96755000000002
  0
ARC
  5
147
  8
0
 62
     7
 10
173.34421999999989
 20
110.21739699999991
 30
0.0
 40
0.7368470000000001
 50
343.60441999999989
 51
347.59396700000002
  0
ARC
  5
148
  8
0
 62
     7
 10
139.67741499999991
 20
115.019702
 30
0.0
 40
34.330658
 50
353.58434899999997
 51
354.81304899999998
  0
ARC
  5
149
  8
0
 62
     7
 10
169.678777
 20
112.3622899999999
 30
0.0
 40
4.2124189999999997
 50
353.91847999999999
 51
356.2831339999999
  0
ARC
  5
14A
  8
0
 62
     7
 10
172.81559899999991
 20
112.142719
 30
0.0
 40
1.0680769999999991
 50
357.12865299999999
 51
10.40545
  0
ARC
  5
14B
  8
0
 62
     7
 10
173.20573899999999
 20
112.2126729999999
 30
0.0
 40
0.671721
 50
10.547134
 51
23.773226999999999
  0
ARC
  5
14C
  8
0
 62
     7
 10
173.634277
 20
112.393978
 30
0.0
 40
0.206571
 50
25.668115
 51
41.222386999999991
  0
ARC
  5
14D
  8
0
 62
     7
 10
173.72259999999989
 20
112.472758
 30
0.0
 40
0.08823
 50
40.539281000000003
 51
88.083627000000007
  0
ARC
  5
14E
  8
0
 62
     7
 10
173.728567
 20
112.467702
 30
0.0
 40
0.093285
 50
91.853459999999998
 51
108.76425499999991
  0
ARC
  5
14F
  8
0
 62
     7
 10
173.753443
 20
112.39173599999999
 30
0.0
 40
0.173218
 50
108.4722519999999
 51
123.82314599999999
  0
ARC
  5
150
  8
0
 62
     7
 10
173.8135879999999
 20
112.29961399999991
 30
0.0
 40
0.28323
 50
123.557631
 51
145.25596400000001
  0
ARC
  5
151
  8
0
 62
     7
 10
173.8317649999999
 20
112.28757
 30
0.0
 40
0.305032
 50
145.34294700000001
 51
167.22745800000001
  0
ARC
  5
152
  8
0
 62
     7
 10
174.19035500000001
 20
112.170147
 30
0.0
 40
0.681619
 50
164.26388700000001
 51
168.26689500000001
  0
ARC
  5
153
  8
0
 62
     7
 10
214.01852400000001
 20
106.624576
 30
0.0
 40
41.257739000000001
 50
173.65580800000001
 51
174.67730299999991
  0
ARC
  5
154
  8
0
 62
     7
 10
177.40480099999999
 20
109.9914049999999
 30
0.0
 40
4.4897869999999998
 50
174.113891
 51
176.37210400000001
  0
ARC
  5
155
  8
0
 62
     7
 10
173.97673
 20
110.226277
 30
0.0
 40
1.0538689999999991
 50
177.32280199999991
 51
190.572631
  0
ARC
  5
156
  8
0
 62
     7
 10
173.62275399999999
 20
110.16116599999989
 30
0.0
 40
0.6939560000000001
 50
190.650442
 51
203.52064999999999
  0
ARC
  5
157
  8
0
 62
     7
 10
173.170557
 20
109.9723419999999
 30
0.0
 40
0.204106
 50
205.57793399999991
 51
221.3060099999999
  0
ARC
  5
158
  8
0
 62
     7
 10
173.08426399999991
 20
109.895319
 30
0.0
 40
0.088446
 50
220.7234629999999
 51
268.31122599999992
  0
ARC
  5
159
  8
0
 62
     7
 10
173.07549399999991
 20
109.9149989999999
 30
0.0
 40
0.108263
 50
273.263758
 51
294.47080799999998
  0
ARC
  5
15A
  8
0
 62
     7
 10
173.01347799999999
 20
110.047325
 30
0.0
 40
0.254397
 50
294.83848099999989
 51
326.66055799999992
  0
ARC
  5
15B
  8
0
 62
     7
 10
172.99005399999999
 20
110.0730999999999
 30
0.0
 40
0.288262
 50
324.93903699999993
 51
346.98714299999989
  0
ARC
  5
15C
  8
0
 62
     7
 10
172.62639599999989
 20
110.19511199999999
 30
0.0
 40
0.671075
 50
343.82704100000001
 51
348.30586699999992
  0
ARC
  5
15D
  8
0
 62
     7
 10
193.72467499999991
 20
108.75234499999991
 30
0.0
 40
21.62794499999999
 50
173.54561799999991
 51
174.58682899999991
  0
ARC
  5
15E
  8
0
 62
     7
 10
250.63444299999989
 20
102.845083
 30
0.0
 40
78.842850999999996
 50
174.21458499999989
 51
174.4634749999999
  0
ARC
  5
15F
  8
0
 62
     7
 10
176.47776799999991
 20
109.991795
 30
0.0
 40
4.3428040000000001
 50
173.919104
 51
176.25429700000001
  0
ARC
  5
160
  8
0
 62
     7
 10
173.2025669999999
 20
110.222825
 30
0.0
 40
1.059636
 50
177.15055000000001
 51
190.32468299999999
  0
ARC
  5
161
  8
0
 62
     7
 10
172.85413299999999
 20
110.16930600000001
 30
0.0
 40
0.707319
 50
191.118201
 51
203.95294299999989
  0
ARC
  5
162
  8
0
 62
     7
 10
172.38654199999991
 20
109.9698919999999
 30
0.0
 40
0.199183
 50
206.1382899999999
 51
222.16603199999989
  0
ARC
  5
163
  8
0
 62
     7
 10
172.30413399999989
 20
109.8941449999999
 30
0.0
 40
0.087259
 50
221.62388100000001
 51
268.61657600000001
  0
ARC
  5
164
  8
0
 62
     7
 10
172.29579699999991
 20
109.915526
 30
0.0
 40
0.108793
 50
273.28340099999991
 51
294.414107
  0
ARC
  5
165
  8
0
 62
     7
 10
172.2354149999999
 20
110.044646
 30
0.0
 40
0.25133
 50
294.781882
 51
326.93123700000001
  0
ARC
  5
166
  8
0
 62
     7
 10
172.215023
 20
110.07302299999991
 30
0.0
 40
0.2841849999999999
 50
324.37929200000002
 51
346.81314600000002
  0
ARC
  5
167
  8
0
 62
     7
 10
171.846675
 20
110.198581
 30
0.0
 40
0.6725500000000001
 50
343.5556259999999
 51
348.02997999999991
  0
ARC
  5
168
  8
0
 62
     7
 10
130.92970999999989
 20
115.75004300000001
 30
0.0
 40
41.555765000000001
 50
353.69116600000001
 51
354.706232
  0
ARC
  5
169
  8
0
 62
     7
 10
167.77648500000001
 20
112.38318700000001
 30
0.0
 40
4.5557610000000004
 50
354.11420099999992
 51
356.340574
  0
ARC
  5
16A
  8
0
 62
     7
 10
171.250486
 20
112.143534
 30
0.0
 40
1.0736879999999991
 50
357.27100499999989
 51
10.306305999999999
  0
ARC
  5
16B
  8
0
 62
     7
 10
171.628635
 20
112.20642599999999
 30
0.0
 40
0.6904130000000001
 50
10.78575
 51
23.656475
  0
ARC
  5
16C
  8
0
 62
     7
 10
172.0748449999999
 20
112.393978
 30
0.0
 40
0.206571
 50
25.668115
 51
41.222386999999991
  0
ARC
  5
16D
  8
0
 62
     7
 10
172.1630649999999
 20
112.472528
 30
0.0
 40
0.088457
 50
40.609248999999991
 51
88.133688000000006
  0
ARC
  5
16E
  8
0
 62
     7
 10
172.16895
 20
112.468757
 30
0.0
 40
0.092231
 50
91.866686000000001
 51
108.87244799999991
  0
ARC
  5
16F
  8
0
 62
     7
 10
172.19418899999999
 20
112.391912
 30
0.0
 40
0.173111
 50
108.55002
 51
123.874923
  0
ARC
  5
170
  8
0
 62
     7
 10
172.25503399999991
 20
112.29902800000001
 30
0.0
 40
0.284145
 50
123.62200300000001
 51
145.240193
  0
ARC
  5
171
  8
0
 62
     7
 10
172.275588
 20
112.28545200000001
 30
0.0
 40
0.308771
 50
145.34501299999999
 51
166.981774
  0
ARC
  5
172
  8
0
 62
     7
 10
172.6180929999999
 20
112.1721919999999
 30
0.0
 40
0.6688109999999999
 50
164.13670899999991
 51
168.21794800000001
  0
ARC
  5
173
  8
0
 62
     7
 10
210.40492599999999
 20
106.85279800000001
 30
0.0
 40
39.191105999999991
 50
173.655598
 51
174.73090899999991
  0
ARC
  5
174
  8
0
 62
     7
 10
175.90408500000001
 20
109.98539099999989
 30
0.0
 40
4.5486389999999988
 50
174.11415199999999
 51
176.38354799999999
  0
ARC
  5
175
  8
0
 62
     7
 10
172.39975200000001
 20
110.2254719999999
 30
0.0
 40
1.0363059999999991
 50
177.4098459999999
 51
190.70864800000001
  0
ARC
  5
176
  8
0
 62
     7
 10
172.054711
 20
110.15665799999999
 30
0.0
 40
0.684497
 50
190.41548399999991
 51
203.262338
  0
ARC
  5
177
  8
0
 62
     7
 10
171.615252
 20
109.975054
 30
0.0
 40
0.209148
 50
205.10360099999991
 51
220.54756499999991
  0
ARC
  5
178
  8
0
 62
     7
 10
171.525158
 20
109.89646499999991
 30
0.0
 40
0.089607
 50
219.812748
 51
268.014658
  0
ARC
  5
179
  8
0
 62
     7
 10
171.515839
 20
109.91551
 30
0.0
 40
0.108776
 50
273.27524199999999
 51
294.41486700000002
  0
ARC
  5
17A
  8
0
 62
     7
 10
171.45387500000001
 20
110.048052
 30
0.0
 40
0.255083
 50
294.78268700000001
 51
326.56646999999998
  0
ARC
  5
17B
  8
0
 62
     7
 10
171.42676899999989
 20
110.074726
 30
0.0
 40
0.292492
 50
325.13123699999989
 51
347.338506
  0
ARC
  5
17C
  8
0
 62
     7
 10
171.07588799999999
 20
110.191008
 30
0.0
 40
0.661339
 50
344.1708549999999
 51
348.494326
  0
ARC
  5
17D
  8
0
 62
     7
 10
137.33817999999991
 20
115.019702
 30
0.0
 40
34.330658
 50
353.58434899999997
 51
354.81304899999998
  0
ARC
  5
17E
  8
0
 62
     7
 10
167.33954199999999
 20
112.3622899999999
 30
0.0
 40
4.2124189999999997
 50
353.91847999999999
 51
356.2831339999999
  0
ARC
  5
17F
  8
0
 62
     7
 10
170.4763649999999
 20
112.142719
 30
0.0
 40
1.0680769999999991
 50
357.12865299999999
 51
10.40545
  0
ARC
  5
180
  8
0
 62
     7
 10
170.86650499999999
 20
112.2126729999999
 30
0.0
 40
0.671721
 50
10.547134
 51
23.773226999999999
  0
ARC
  5
181
  8
0
 62
     7
 10
171.29504299999999
 20
112.393978
 30
0.0
 40
0.206571
 50
25.668115
 51
41.222386999999991
  0
ARC
  5
182
  8
0
 62
     7
 10
171.38336499999991
 20
112.472758
 30
0.0
 40
0.08823
 50
40.539281000000003
 51
88.083627000000007
  0
ARC
  5
183
  8
0
 62
     7
 10
171.38932800000001
 20
112.467793
 30
0.0
 40
0.093194
 50
91.852458000000027
 51
108.773308
  0
ARC
  5
184
  8
0
 62
     7
 10
171.414005
 20
112.392273
 30
0.0
 40
0.17264
 50
108.461411
 51
123.857496
  0
ARC
  5
185
  8
0
 62
     7
 10
171.47287600000001
 20
112.302121
 30
0.0
 40
0.280307
 50
123.5839159999999
 51
145.4649719999999
  0
ARC
  5
186
  8
0
 62
     7
 10
171.48824899999991
 20
112.2895639999999
 30
0.0
 40
0.300094
 50
145.153921
 51
166.69547600000001
  0
ARC
  5
187
  8
0
 62
     7
 10
171.852621
 20
112.168029
 30
0.0
 40
0.6835220000000001
 50
163.80882700000001
 51
168.11864899999989
  0
ARC
  5
188
  8
0
 62
     7
 10
209.62529599999999
 20
106.85279800000001
 30
0.0
 40
39.191105999999991
 50
173.655598
 51
174.73090899999991
  0
ARC
  5
189
  8
0
 62
     7
 10
174.818442
 20
110.002382
 30
0.0
 40
4.2425220000000001
 50
173.918612
 51
176.26578499999999
  0
ARC
  5
18A
  8
0
 62
     7
 10
171.65093899999991
 20
110.2242549999999
 30
0.0
 40
1.067399999999999
 50
177.07683299999991
 51
190.326739
  0
ARC
  5
18B
  8
0
 62
     7
 10
171.29960500000001
 20
110.170243
 30
0.0
 40
0.7121430000000001
 50
191.118775
 51
203.86306699999989
  0
ARC
  5
18C
  8
0
 62
     7
 10
170.83079900000001
 20
109.9720919999999
 30
0.0
 40
0.203426
 50
206.24219500000001
 51
221.38058899999999
  0
ARC
  5
18D
  8
0
 62
     7
 10
170.74525600000001
 20
109.895471
 30
0.0
 40
0.088595
 50
220.77054999999999
 51
268.3902819999999
  0
ARC
  5
18E
  8
0
 62
     7
 10
170.736524
 20
109.91461700000001
 30
0.0
 40
0.107887
 50
273.31796700000001
 51
294.52087699999993
  0
ARC
  5
18F
  8
0
 62
     7
 10
170.67471
 20
110.046556
 30
0.0
 40
0.253584
 50
294.85538199999991
 51
326.74768899999998
  0
ARC
  5
190
  8
0
 62
     7
 10
170.65215599999999
 20
110.07445
 30
0.0
 40
0.287949
 50
324.5665259999999
 51
346.69706300000001
  0
ARC
  5
191
  8
0
 62
     7
 10
170.28903600000001
 20
110.199123
 30
0.0
 40
0.6710770000000002
 50
343.47022900000002
 51
347.95599499999997
  0
ARC
  5
192
  8
0
 62
     7
 10
127.0577999999999
 20
116.005522
 30
0.0
 40
43.882142000000002
 50
353.69137699999987
 51
354.65267399999999
  0
ARC
  5
193
  8
0
 62
     7
 10
166.21722500000001
 20
112.38318700000001
 30
0.0
 40
4.5557610000000004
 50
354.11420099999992
 51
356.340574
  0
ARC
  5
194
  8
0
 62
     7
 10
169.69122599999989
 20
112.143534
 30
0.0
 40
1.0736879999999991
 50
357.27100499999989
 51
10.306305999999999
  0
ARC
  5
195
  8
0
 62
     7
 10
170.07974599999989
 20
112.2084179999999
 30
0.0
 40
0.679853
 50
10.784425000000001
 51
23.863261999999992
  0
ARC
  5
196
  8
0
 62
     7
 10
170.51457600000001
 20
112.39336
 30
0.0
 40
0.207486
 50
25.736111000000001
 51
41.228012
  0
ARC
  5
197
  8
0
 62
     7
 10
170.60347200000001
 20
112.472528
 30
0.0
 40
0.088456
 50
40.609320000000011
 51
88.141102000000004
  0
ARC
  5
198
  8
0
 62
     7
 10
170.60933199999991
 20
112.46902799999999
 30
0.0
 40
0.091959
 50
91.863645000000005
 51
108.89994299999989
  0
ARC
  5
199
  8
0
 62
     7
 10
170.63411999999991
 20
112.393478
 30
0.0
 40
0.171468
 50
108.55913
 51
123.995957
  0
ARC
  5
19A
  8
0
 62
     7
 10
170.695843
 20
112.2993669999999
 30
0.0
 40
0.284008
 50
123.70397199999999
 51
145.30427800000001
  0
ARC
  5
19B
  8
0
 62
     7
 10
170.71237999999991
 20
112.28697
 30
0.0
 40
0.304662
 50
145.157612
 51
166.6282239999999
  0
ARC
  5
19C
  8
0
 62
     7
 10
171.06954500000001
 20
112.167627
 30
0.0
 40
0.68057
 50
163.806229
 51
168.03180699999999
  0
ARC
  5
19D
  8
0
 62
     7
 10
190.35285400000001
 20
108.869021
 30
0.0
 40
20.588788000000001
 50
173.54523399999999
 51
174.6068379999999
  0
ARC
  5
19E
  8
0
 62
     7
 10
258.178899
 20
101.84084199999999
 30
0.0
 40
88.777333999999996
 50
174.20530500000001
 51
174.4338009999999
  0
ARC
  5
19F
  8
0
 62
     7
 10
173.974952
 20
110.00916099999991
 30
0.0
 40
4.1783019999999986
 50
173.91828599999999
 51
176.30147700000001
  0
ARC
  5
1A0
  8
0
 62
     7
 10
170.85896199999999
 20
110.226133
 30
0.0
 40
1.0549200000000001
 50
177.14439299999989
 51
190.55404899999991
  0
ARC
  5
1A1
  8
0
 62
     7
 10
170.5038889999999
 20
110.16116599999989
 30
0.0
 40
0.6939560000000001
 50
190.650442
 51
203.52064999999999
  0
ARC
  5
1A2
  8
0
 62
     7
 10
170.051693
 20
109.9723419999999
 30
0.0
 40
0.204106
 50
205.57793399999991
 51
221.3060099999999
  0
ARC
  5
1A3
  8
0
 62
     7
 10
169.9653999999999
 20
109.895319
 30
0.0
 40
0.088446
 50
220.7234629999999
 51
268.31122599999992
  0
ARC
  5
1A4
  8
0
 62
     7
 10
169.956579
 20
109.91551
 30
0.0
 40
0.108776
 50
273.27524199999999
 51
294.41486700000002
  0
ARC
  5
1A5
  8
0
 62
     7
 10
169.8946149999999
 20
110.048052
 30
0.0
 40
0.255083
 50
294.78268700000001
 51
326.56646999999998
  0
ARC
  5
1A6
  8
0
 62
     7
 10
169.86595700000001
 20
110.0757939999999
 30
0.0
 40
0.294375
 50
325.133443
 51
347.44845299999992
  0
ARC
  5
1A7
  8
0
 62
     7
 10
169.412406
 20
110.22614399999991
 30
0.0
 40
0.7712680000000001
 50
343.86604299999999
 51
347.49112599999989
  0
ARC
  5
1A8
  8
0
 62
     7
 10
128.59047599999991
 20
115.75004300000001
 30
0.0
 40
41.555765000000001
 50
353.69116600000001
 51
354.706232
  0
ARC
  5
1A9
  8
0
 62
     7
 10
165.47621100000001
 20
112.379184
 30
0.0
 40
4.5165949999999988
 50
354.11403200000001
 51
356.40018900000001
  0
ARC
  5
1AA
  8
0
 62
     7
 10
168.90767199999991
 20
112.1447
 30
0.0
 40
1.077342
 50
357.38781899999998
 51
10.207921000000001
  0
ARC
  5
1AB
  8
0
 62
     7
 10
169.300116
 20
112.2084179999999
 30
0.0
 40
0.679853
 50
10.784425000000001
 51
23.863261999999992
  0
ARC
  5
1AC
  8
0
 62
     7
 10
169.73494600000001
 20
112.39336
 30
0.0
 40
0.207486
 50
25.736111000000001
 51
41.228012
  0
ARC
  5
1AD
  8
0
 62
     7
 10
169.8238419999999
 20
112.472528
 30
0.0
 40
0.088456
 50
40.609320000000011
 51
88.141102000000004
  0
ARC
  5
1AE
  8
0
 62
     7
 10
169.82971499999991
 20
112.468757
 30
0.0
 40
0.092231
 50
91.866686000000001
 51
108.87244799999991
  0
ARC
  5
1AF
  8
0
 62
     7
 10
169.85495499999999
 20
112.391912
 30
0.0
 40
0.173111
 50
108.55002
 51
123.874923
  0
ARC
  5
1B0
  8
0
 62
     7
 10
169.9157999999999
 20
112.29902800000001
 30
0.0
 40
0.284145
 50
123.62200300000001
 51
145.240193
  0
ARC
  5
1B1
  8
0
 62
     7
 10
169.93327099999999
 20
112.28757
 30
0.0
 40
0.305032
 50
145.34294700000001
 51
167.22745800000001
  0
ARC
  5
1B2
  8
0
 62
     7
 10
170.29186000000001
 20
112.170147
 30
0.0
 40
0.681619
 50
164.26388700000001
 51
168.26689500000001
  0
LINE
  5
1B3
  8
0
 62
     7
 10
177.405
 20
112.3089999999999
 30
0.0
 11
169.2529999999999
 21
112.3089999999999
 31
0.0
  0
LINE
  5
1B4
  8
0
 62
     7
 10
169.2529999999999
 20
110.0589999999999
 30
0.0
 11
177.405
 21
110.0589999999999
 31
0.0
  0
ARC
  5
1B5
  8
0
 62
     7
 10
131.70934
 20
115.75004300000001
 30
0.0
 40
41.555765000000001
 50
353.69116600000001
 51
354.706232
  0
ARC
  5
1B6
  8
0
 62
     7
 10
168.89914699999991
 20
112.3622899999999
 30
0.0
 40
4.2124189999999997
 50
353.91847999999999
 51
356.2831339999999
  0
ARC
  5
1B7
  8
0
 62
     7
 10
172.03596899999991
 20
112.142719
 30
0.0
 40
1.0680769999999991
 50
357.12865299999999
 51
10.40545
  0
ARC
  5
1B8
  8
0
 62
     7
 10
172.40826499999989
 20
112.20642599999999
 30
0.0
 40
0.6904130000000001
 50
10.78575
 51
23.656475
  0
ARC
  5
1B9
  8
0
 62
     7
 10
172.85447500000001
 20
112.393978
 30
0.0
 40
0.206571
 50
25.668115
 51
41.222386999999991
  0
ARC
  5
1BA
  8
0
 62
     7
 10
172.9426949999999
 20
112.472528
 30
0.0
 40
0.088457
 50
40.609248999999991
 51
88.133688000000006
  0
ARC
  5
1BB
  8
0
 62
     7
 10
172.94857999999991
 20
112.468757
 30
0.0
 40
0.092231
 50
91.866686000000001
 51
108.87244799999991
  0
ARC
  5
1BC
  8
0
 62
     7
 10
172.973725
 20
112.392256
 30
0.0
 40
0.172755
 50
108.55669399999989
 51
123.903684
  0
ARC
  5
1BD
  8
0
 62
     7
 10
173.03317699999999
 20
112.30154899999999
 30
0.0
 40
0.281205
 50
123.64845800000001
 51
145.44923499999999
  0
ARC
  5
1BE
  8
0
 62
     7
 10
173.05161399999989
 20
112.28697
 30
0.0
 40
0.304662
 50
145.157612
 51
166.6282239999999
  0
ARC
  5
1BF
  8
0
 62
     7
 10
173.40877900000001
 20
112.167627
 30
0.0
 40
0.68057
 50
163.806229
 51
168.03180699999999
  0
ARC
  5
1C0
  8
0
 62
     7
 10
90.526894999999996
 20
154.09876
 30
0.0
 40
48.979011
 50
83.763054999999994
 51
84.623473000000004
  0
ARC
  5
1C1
  8
0
 62
     7
 10
94.641368999999983
 20
198.25561099999999
 30
0.0
 40
4.6310849999999988
 50
84.114514999999997
 51
86.343969000000001
  0
ARC
  5
1C2
  8
0
 62
     7
 10
94.888235999999992
 20
201.82304099999999
 30
0.0
 40
1.055342
 50
87.369190000000003
 51
100.44167400000001
  0
ARC
  5
1C3
  8
0
 62
     7
 10
94.832389000000006
 20
202.15979200000001
 30
0.0
 40
0.714073
 50
100.9317609999999
 51
113.418505
  0
ARC
  5
1C4
  8
0
 62
     7
 10
94.637597
 20
202.629785
 30
0.0
 40
0.205534
 50
115.6633189999999
 51
131.27553599999999
  0
ARC
  5
1C5
  8
0
 62
     7
 10
94.559943000000004
 20
202.71713500000001
 30
0.0
 40
0.088663
 50
130.79902699999991
 51
178.36992099999989
  0
ARC
  5
1C6
  8
0
 62
     7
 10
94.562632999999991
 20
202.72326299999989
 30
0.0
 40
0.091388
 50
182.261055
 51
199.3521999999999
  0
ARC
  5
1C7
  8
0
 62
     7
 10
94.641436999999996
 20
202.74956900000001
 30
0.0
 40
0.174461
 50
198.927335
 51
214.13108399999999
  0
ARC
  5
1C8
  8
0
 62
     7
 10
94.740108000000006
 20
202.81437199999999
 30
0.0
 40
0.292503
 50
213.79384799999991
 51
234.81656799999999
  0
ARC
  5
1C9
  8
0
 62
     7
 10
94.742891999999983
 20
202.82118199999999
 30
0.0
 40
0.299676
 50
235.131654
 51
257.33415500000001
  0
ARC
  5
1CA
  8
0
 62
     7
 10
94.870549999999994
 20
203.20758699999999
 30
0.0
 40
0.705794
 50
254.09938199999999
 51
257.91724099999988
  0
ARC
  5
1CB
  8
0
 62
     7
 10
98.478915999999998
 20
226.13354699999999
 30
0.0
 40
23.49345499999999
 50
263.57021600000002
 51
264.68614300000002
  0
ARC
  5
1CC
  8
0
 62
     7
 10
114.53727600000001
 20
382.46742399999999
 30
0.0
 40
180.64896699999991
 50
264.20689299999998
 51
264.29538799999989
  0
ARC
  5
1CD
  8
0
 62
     7
 10
97.041197999999994
 20
207.164016
 30
0.0
 40
4.4746569999999988
 50
264.09390500000001
 51
266.35621600000002
  0
ARC
  5
1CE
  8
0
 62
     7
 10
96.806735000000003
 20
203.763882
 30
0.0
 40
1.0666459999999991
 50
267.31771499999991
 51
280.42204099999998
  0
ARC
  5
1CF
  8
0
 62
     7
 10
96.828777000000002
 20
203.59464399999999
 30
0.0
 40
0.8962569999999999
 50
280.99330800000001
 51
286.00185199999999
  0
ARC
  5
1D0
  8
0
 62
     7
 10
96.953700999999995
 20
203.15930399999991
 30
0.0
 40
0.4433470000000001
 50
285.99227599999989
 51
296.25915600000002
  0
ARC
  5
1D1
  8
0
 62
     7
 10
97.061053999999999
 20
202.94326699999991
 30
0.0
 40
0.20211
 50
296.06281999999999
 51
311.27896600000003
  0
ARC
  5
1D2
  8
0
 62
     7
 10
97.137129000000002
 20
202.85807
 30
0.0
 40
0.0879
 50
310.65020800000002
 51
358.48041499999999
  0
ARC
  5
1D3
  8
0
 62
     7
 10
97.13493299999999
 20
202.85335799999999
 30
0.0
 40
0.090097
 50
1.5145580000000001
 51
18.830722000000002
  0
ARC
  5
1D4
  8
0
 62
     7
 10
97.057533999999976
 20
202.82817600000001
 30
0.0
 40
0.171486
 50
18.447048999999989
 51
33.918159000000003
  0
ARC
  5
1D5
  8
0
 62
     7
 10
96.959671999999998
 20
202.7641769999999
 30
0.0
 40
0.288411
 50
33.62042499999999
 51
55.001759999999997
  0
ARC
  5
1D6
  8
0
 62
     7
 10
96.949805999999995
 20
202.74455399999991
 30
0.0
 40
0.31016
 50
55.58788100000001
 51
76.604492000000008
  0
ARC
  5
1D7
  8
0
 62
     7
 10
96.83629599999999
 20
202.40307899999991
 30
0.0
 40
0.6693750000000001
 50
73.923345999999995
 51
78.20174200000001
  0
ARC
  5
1D8
  8
0
 62
     7
 10
93.361463999999998
 20
181.58735899999999
 30
0.0
 40
22.120339000000001
 50
83.545799000000002
 51
84.683704000000006
  0
ARC
  5
1D9
  8
0
 62
     7
 10
84.206947
 20
92.663315999999995
 30
0.0
 40
111.513507
 50
84.23360799999999
 51
84.385801000000015
  0
ARC
  5
1DA
  8
0
 62
     7
 10
94.641368999999983
 20
199.0352409999999
 30
0.0
 40
4.6310849999999988
 50
84.114514999999997
 51
86.343969000000001
  0
ARC
  5
1DB
  8
0
 62
     7
 10
94.888235999999992
 20
202.60267099999999
 30
0.0
 40
1.055342
 50
87.369190000000003
 51
100.44167400000001
  0
ARC
  5
1DC
  8
0
 62
     7
 10
94.832389000000006
 20
202.93942199999989
 30
0.0
 40
0.714073
 50
100.9317609999999
 51
113.418505
  0
ARC
  5
1DD
  8
0
 62
     7
 10
94.637597
 20
203.409415
 30
0.0
 40
0.205534
 50
115.6633189999999
 51
131.27553599999999
  0
ARC
  5
1DE
  8
0
 62
     7
 10
94.559943000000004
 20
203.49676500000001
 30
0.0
 40
0.088663
 50
130.79902699999991
 51
178.36992099999989
  0
ARC
  5
1DF
  8
0
 62
     7
 10
94.562632999999991
 20
203.502893
 30
0.0
 40
0.091388
 50
182.261055
 51
199.3521999999999
  0
ARC
  5
1E0
  8
0
 62
     7
 10
94.641436999999996
 20
203.52919900000001
 30
0.0
 40
0.174461
 50
198.927335
 51
214.13108399999999
  0
ARC
  5
1E1
  8
0
 62
     7
 10
94.740108000000006
 20
203.5940019999999
 30
0.0
 40
0.292503
 50
213.79384799999991
 51
234.81656799999999
  0
ARC
  5
1E2
  8
0
 62
     7
 10
94.742891999999983
 20
203.60081199999999
 30
0.0
 40
0.299676
 50
235.131654
 51
257.33415500000001
  0
ARC
  5
1E3
  8
0
 62
     7
 10
94.870549999999994
 20
203.9872169999999
 30
0.0
 40
0.705794
 50
254.09938199999999
 51
257.91724099999988
  0
ARC
  5
1E4
  8
0
 62
     7
 10
101.7319279999999
 20
257.61232799999999
 30
0.0
 40
54.364181000000002
 50
263.78660400000001
 51
264.56290999999987
  0
ARC
  5
1E5
  8
0
 62
     7
 10
97.041197999999994
 20
207.943646
 30
0.0
 40
4.4746569999999988
 50
264.09390500000001
 51
266.35621600000002
  0
ARC
  5
1E6
  8
0
 62
     7
 10
96.806735000000003
 20
204.54351199999999
 30
0.0
 40
1.0666459999999991
 50
267.31771499999991
 51
280.42204099999998
  0
ARC
  5
1E7
  8
0
 62
     7
 10
96.829845999999989
 20
204.36881099999999
 30
0.0
 40
0.89069
 50
280.99279999999987
 51
286.03299099999998
  0
ARC
  5
1E8
  8
0
 62
     7
 10
96.954487
 20
203.93662399999999
 30
0.0
 40
0.4408890000000001
 50
285.97757399999989
 51
296.302864
  0
ARC
  5
1E9
  8
0
 62
     7
 10
97.060310000000015
 20
203.72372499999989
 30
0.0
 40
0.203142
 50
296.15411999999998
 51
311.30269900000002
  0
ARC
  5
1EA
  8
0
 62
     7
 10
97.136821999999995
 20
203.637946
 30
0.0
 40
0.088205
 50
310.743605
 51
358.550093
  0
ARC
  5
1EB
  8
0
 62
     7
 10
97.135877000000008
 20
203.6333379999999
 30
0.0
 40
0.089153
 50
1.5269269999999999
 51
18.931425000000001
  0
ARC
  5
1EC
  8
0
 62
     7
 10
97.057974000000016
 20
203.6079179999999
 30
0.0
 40
0.171094
 50
18.519738
 51
33.987324000000001
  0
ARC
  5
1ED
  8
0
 62
     7
 10
96.959063
 20
203.54307700000001
 30
0.0
 40
0.289358
 50
33.684663
 51
54.985866999999999
  0
ARC
  5
1EE
  8
0
 62
     7
 10
96.953654
 20
203.53327899999999
 30
0.0
 40
0.300489
 50
55.213203
 51
76.919367000000008
  0
ARC
  5
1EF
  8
0
 62
     7
 10
96.836382999999998
 20
203.17959099999999
 30
0.0
 40
0.6724100000000001
 50
74.005572999999998
 51
78.263326000000021
  0
ARC
  5
1F0
  8
0
 62
     7
 10
93.361463999999998
 20
182.3669889999999
 30
0.0
 40
22.120339000000001
 50
83.545799000000002
 51
84.683704000000006
  0
ARC
  5
1F1
  8
0
 62
     7
 10
84.206947
 20
93.442945999999992
 30
0.0
 40
111.513507
 50
84.23360799999999
 51
84.385801000000015
  0
ARC
  5
1F2
  8
0
 62
     7
 10
94.591727000000006
 20
199.3316889999999
 30
0.0
 40
5.1168110000000002
 50
84.116359000000003
 51
86.062807999999976
  0
ARC
  5
1F3
  8
0
 62
     7
 10
94.888718000000011
 20
203.365959
 30
0.0
 40
1.0718430000000001
 50
87.093838000000034
 51
100.3053399999999
  0
ARC
  5
1F4
  8
0
 62
     7
 10
94.830162999999999
 20
203.73082600000001
 30
0.0
 40
0.702429
 50
100.93035999999989
 51
113.632277
  0
ARC
  5
1F5
  8
0
 62
     7
 10
94.637675000000016
 20
204.18918600000001
 30
0.0
 40
0.20548
 50
115.69475799999999
 51
131.3177949999999
  0
ARC
  5
1F6
  8
0
 62
     7
 10
94.559943000000004
 20
204.27639500000001
 30
0.0
 40
0.088663
 50
130.79902699999991
 51
178.36992099999989
  0
ARC
  5
1F7
  8
0
 62
     7
 10
94.562632999999991
 20
204.282523
 30
0.0
 40
0.091388
 50
182.261055
 51
199.3521999999999
  0
ARC
  5
1F8
  8
0
 62
     7
 10
94.641844999999989
 20
204.30908299999999
 30
0.0
 40
0.174929
 50
198.96292399999999
 51
214.119381
  0
ARC
  5
1F9
  8
0
 62
     7
 10
94.737220999999991
 20
204.371838
 30
0.0
 40
0.289093
 50
213.813096
 51
235.04007300000001
  0
ARC
  5
1FA
  8
0
 62
     7
 10
94.741282999999996
 20
204.376732
 30
0.0
 40
0.295432
 50
234.93817000000001
 51
257.46895000000001
  0
ARC
  5
1FB
  8
0
 62
     7
 10
94.870121999999995
 20
204.76934199999991
 30
0.0
 40
0.707808
 50
254.18184699999989
 51
257.98757799999998
  0
ARC
  5
1FC
  8
0
 62
     7
 10
101.7319279999999
 20
258.39195799999987
 30
0.0
 40
54.364181000000002
 50
263.78660400000001
 51
264.56290999999987
  0
ARC
  5
1FD
  8
0
 62
     7
 10
97.033878999999999
 20
208.65228899999991
 30
0.0
 40
4.4032929999999988
 50
264.09357799999992
 51
266.35080899999991
  0
ARC
  5
1FE
  8
0
 62
     7
 10
96.806493000000003
 20
205.33365900000001
 30
0.0
 40
1.077034
 50
267.18619100000001
 51
280.33348999999993
  0
ARC
  5
1FF
  8
0
 62
     7
 10
96.866593999999992
 20
204.96031099999999
 30
0.0
 40
0.699005
 50
280.97642300000001
 51
293.90557799999988
  0
ARC
  5
200
  8
0
 62
     7
 10
97.062783999999994
 20
204.49978400000001
 30
0.0
 40
0.198615
 50
296.00025799999997
 51
312.058266
  0
ARC
  5
201
  8
0
 62
     7
 10
97.138593999999998
 20
204.417069
 30
0.0
 40
0.086422
 50
311.47780599999987
 51
358.85652799999991
  0
ARC
  5
202
  8
0
 62
     7
 10
97.135107000000005
 20
204.41297
 30
0.0
 40
0.089923
 50
1.512537
 51
18.848821000000001
  0
ARC
  5
203
  8
0
 62
     7
 10
97.058886000000015
 20
204.38812699999991
 30
0.0
 40
0.170087
 50
18.473672000000001
 51
34.033389999999997
  0
ARC
  5
204
  8
0
 62
     7
 10
96.960009000000014
 20
204.32336100000001
 30
0.0
 40
0.288279
 50
33.702078
 51
55.065264999999997
  0
ARC
  5
205
  8
0
 62
     7
 10
96.953654
 20
204.31290899999999
 30
0.0
 40
0.300489
 50
55.213203
 51
76.919367000000008
  0
ARC
  5
206
  8
0
 62
     7
 10
96.836382999999998
 20
203.9592209999999
 30
0.0
 40
0.6724100000000001
 50
74.005572999999998
 51
78.263326000000021
  0
ARC
  5
207
  8
0
 62
     7
 10
93.361463999999998
 20
183.14661899999999
 30
0.0
 40
22.120339000000001
 50
83.545799000000002
 51
84.683704000000006
  0
ARC
  5
208
  8
0
 62
     7
 10
84.206947
 20
94.222576000000004
 30
0.0
 40
111.513507
 50
84.23360799999999
 51
84.385801000000015
  0
ARC
  5
209
  8
0
 62
     7
 10
94.591727000000006
 20
200.1113189999999
 30
0.0
 40
5.1168110000000002
 50
84.116359000000003
 51
86.062807999999976
  0
ARC
  5
20A
  8
0
 62
     7
 10
94.888718000000011
 20
204.14558899999989
 30
0.0
 40
1.0718430000000001
 50
87.093838000000034
 51
100.3053399999999
  0
ARC
  5
20B
  8
0
 62
     7
 10
94.830162999999999
 20
204.51045599999989
 30
0.0
 40
0.702429
 50
100.93035999999989
 51
113.632277
  0
ARC
  5
20C
  8
0
 62
     7
 10
94.637675000000016
 20
204.968816
 30
0.0
 40
0.20548
 50
115.69475799999999
 51
131.3177949999999
  0
ARC
  5
20D
  8
0
 62
     7
 10
94.559943000000004
 20
205.05602500000001
 30
0.0
 40
0.088663
 50
130.79902699999991
 51
178.36992099999989
  0
ARC
  5
20E
  8
0
 62
     7
 10
94.562449999999998
 20
205.06214199999999
 30
0.0
 40
0.091205
 50
182.258984
 51
199.371317
  0
ARC
  5
20F
  8
0
 62
     7
 10
94.641555000000025
 20
205.08879499999989
 30
0.0
 40
0.174675
 50
199.0124439999999
 51
214.16560399999989
  0
ARC
  5
210
  8
0
 62
     7
 10
94.740104000000002
 20
205.15406299999989
 30
0.0
 40
0.292872
 50
213.9034529999999
 51
234.86868199999989
  0
ARC
  5
211
  8
0
 62
     7
 10
94.741282999999996
 20
205.156362
 30
0.0
 40
0.295432
 50
234.93817000000001
 51
257.46895000000001
  0
ARC
  5
212
  8
0
 62
     7
 10
94.870121999999995
 20
205.54897199999991
 30
0.0
 40
0.707808
 50
254.18184699999989
 51
257.98757799999998
  0
ARC
  5
213
  8
0
 62
     7
 10
101.3508929999999
 20
255.669997
 30
0.0
 40
50.841918999999997
 50
263.78639299999998
 51
264.61644200000001
  0
ARC
  5
214
  8
0
 62
     7
 10
97.089481000000006
 20
209.9715939999999
 30
0.0
 40
4.9454820000000002
 50
264.09581200000002
 51
266.06890399999997
  0
ARC
  5
215
  8
0
 62
     7
 10
96.806245000000004
 20
206.11933999999999
 30
0.0
 40
1.083032
 50
267.04612099999991
 51
280.28896800000001
  0
ARC
  5
216
  8
0
 62
     7
 10
96.866593999999992
 20
205.7399409999999
 30
0.0
 40
0.699005
 50
280.97642300000001
 51
293.90557799999988
  0
ARC
  5
217
  8
0
 62
     7
 10
97.062783999999994
 20
205.279414
 30
0.0
 40
0.198615
 50
296.00025799999997
 51
312.058266
  0
ARC
  5
218
  8
0
 62
     7
 10
97.138593999999998
 20
205.19669899999991
 30
0.0
 40
0.086422
 50
311.47780599999987
 51
358.85652799999991
  0
ARC
  5
219
  8
0
 62
     7
 10
97.135107000000005
 20
205.19259999999991
 30
0.0
 40
0.089923
 50
1.512537
 51
18.848821000000001
  0
ARC
  5
21A
  8
0
 62
     7
 10
97.058886000000015
 20
205.16775699999991
 30
0.0
 40
0.170087
 50
18.473672000000001
 51
34.033389999999997
  0
ARC
  5
21B
  8
0
 62
     7
 10
96.960009000000014
 20
205.102991
 30
0.0
 40
0.288279
 50
33.702078
 51
55.065264999999997
  0
ARC
  5
21C
  8
0
 62
     7
 10
96.953654
 20
205.0925389999999
 30
0.0
 40
0.300489
 50
55.213203
 51
76.919367000000008
  0
ARC
  5
21D
  8
0
 62
     7
 10
96.836382999999998
 20
204.73885100000001
 30
0.0
 40
0.6724100000000001
 50
74.005572999999998
 51
78.263326000000021
  0
ARC
  5
21E
  8
0
 62
     7
 10
92.017569999999978
 20
172.03275099999991
 30
0.0
 40
34.089523
 50
83.548416000000003
 51
84.784715000000006
  0
ARC
  5
21F
  8
0
 62
     7
 10
94.648782999999995
 20
201.44663700000001
 30
0.0
 40
4.5585440000000004
 50
84.114203000000003
 51
86.338812000000004
  0
ARC
  5
220
  8
0
 62
     7
 10
94.888975000000002
 20
204.92379099999991
 30
0.0
 40
1.0732939999999991
 50
87.281816000000006
 51
100.30518599999991
  0
ARC
  5
221
  8
0
 62
     7
 10
94.831424999999996
 20
205.28360499999991
 30
0.0
 40
0.7090320000000001
 50
100.9311579999999
 51
113.510153
  0
ARC
  5
222
  8
0
 62
     7
 10
94.636618999999996
 20
205.75021399999989
 30
0.0
 40
0.203583
 50
115.62153600000001
 51
131.39101699999989
  0
ARC
  5
223
  8
0
 62
     7
 10
94.559791000000004
 20
205.83589299999991
 30
0.0
 40
0.088513
 50
130.75203999999999
 51
178.29819499999991
  0
ARC
  5
224
  8
0
 62
     7
 10
94.562632999999991
 20
205.842127
 30
0.0
 40
0.091388
 50
182.261055
 51
199.3521999999999
  0
ARC
  5
225
  8
0
 62
     7
 10
94.641436999999996
 20
205.86843300000001
 30
0.0
 40
0.174461
 50
198.927335
 51
214.13108399999999
  0
ARC
  5
226
  8
0
 62
     7
 10
94.740108000000006
 20
205.93323699999999
 30
0.0
 40
0.292503
 50
213.79384799999991
 51
234.81656799999999
  0
ARC
  5
227
  8
0
 62
     7
 10
94.742891999999983
 20
205.94004599999991
 30
0.0
 40
0.299676
 50
235.131654
 51
257.33415500000001
  0
ARC
  5
228
  8
0
 62
     7
 10
94.870549999999994
 20
206.3264519999999
 30
0.0
 40
0.705794
 50
254.09938199999999
 51
257.91724099999988
  0
ARC
  5
229
  8
0
 62
     7
 10
101.3508929999999
 20
256.44962700000002
 30
0.0
 40
50.841918999999997
 50
263.78639299999998
 51
264.61644200000001
  0
ARC
  5
22A
  8
0
 62
     7
 10
97.082021999999995
 20
210.67886799999999
 30
0.0
 40
4.8727429999999989
 50
264.09554100000003
 51
266.09804600000001
  0
ARC
  5
22B
  8
0
 62
     7
 10
96.805599000000001
 20
206.88917199999989
 30
0.0
 40
1.07317
 50
267.05348099999998
 51
280.41961700000002
  0
ARC
  5
22C
  8
0
 62
     7
 10
96.828777000000002
 20
206.71350899999999
 30
0.0
 40
0.8962569999999999
 50
280.99330800000001
 51
286.00185199999999
  0
ARC
  5
22D
  8
0
 62
     7
 10
96.953700999999995
 20
206.27816899999999
 30
0.0
 40
0.4433470000000001
 50
285.99227599999989
 51
296.25915600000002
  0
ARC
  5
22E
  8
0
 62
     7
 10
97.061053999999999
 20
206.06213199999999
 30
0.0
 40
0.20211
 50
296.06281999999999
 51
311.27896600000003
  0
ARC
  5
22F
  8
0
 62
     7
 10
97.137129000000002
 20
205.97693499999991
 30
0.0
 40
0.0879
 50
310.65020800000002
 51
358.48041499999999
  0
ARC
  5
230
  8
0
 62
     7
 10
97.135107000000005
 20
205.97222999999991
 30
0.0
 40
0.089923
 50
1.512537
 51
18.848821000000001
  0
ARC
  5
231
  8
0
 62
     7
 10
97.057828000000015
 20
205.94696499999989
 30
0.0
 40
0.171224
 50
18.495453000000001
 51
33.964244999999998
  0
ARC
  5
232
  8
0
 62
     7
 10
96.956816000000003
 20
205.880481
 30
0.0
 40
0.292148
 50
33.710825999999997
 51
54.830879000000003
  0
ARC
  5
233
  8
0
 62
     7
 10
96.950710999999984
 20
205.8647389999999
 30
0.0
 40
0.308559
 50
55.587957999999993
 51
76.936353000000011
  0
ARC
  5
234
  8
0
 62
     7
 10
96.822078000000005
 20
205.47470100000001
 30
0.0
 40
0.718539
 50
73.973294999999993
 51
77.862155000000001
  0
ARC
  5
235
  8
0
 62
     7
 10
93.253381999999988
 20
183.74935499999989
 30
0.0
 40
23.08295
 50
83.54610799999999
 51
84.550736000000001
  0
ARC
  5
236
  8
0
 62
     7
 10
87.170082999999991
 20
125.32528499999999
 30
0.0
 40
81.822254000000001
 50
84.195277000000004
 51
84.426933000000005
  0
ARC
  5
237
  8
0
 62
     7
 10
94.648782999999995
 20
202.22626699999989
 30
0.0
 40
4.5585440000000004
 50
84.114203000000003
 51
86.338812000000004
  0
ARC
  5
238
  8
0
 62
     7
 10
94.888975000000002
 20
205.70342099999991
 30
0.0
 40
1.0732939999999991
 50
87.281816000000006
 51
100.30518599999991
  0
ARC
  5
239
  8
0
 62
     7
 10
94.832389000000006
 20
206.05828600000001
 30
0.0
 40
0.714073
 50
100.9317609999999
 51
113.418505
  0
ARC
  5
23A
  8
0
 62
     7
 10
94.637597
 20
206.52827999999991
 30
0.0
 40
0.205534
 50
115.6633189999999
 51
131.27553599999999
  0
ARC
  5
23B
  8
0
 62
     7
 10
94.559943000000004
 20
206.61563000000001
 30
0.0
 40
0.088663
 50
130.79902699999991
 51
178.36992099999989
  0
ARC
  5
23C
  8
0
 62
     7
 10
94.562632999999991
 20
206.621757
 30
0.0
 40
0.091388
 50
182.261055
 51
199.3521999999999
  0
ARC
  5
23D
  8
0
 62
     7
 10
94.641436999999996
 20
206.64806300000001
 30
0.0
 40
0.174461
 50
198.927335
 51
214.13108399999999
  0
ARC
  5
23E
  8
0
 62
     7
 10
94.740108000000006
 20
206.7128669999999
 30
0.0
 40
0.292503
 50
213.79384799999991
 51
234.81656799999999
  0
ARC
  5
23F
  8
0
 62
     7
 10
94.741282999999996
 20
206.715622
 30
0.0
 40
0.295432
 50
234.93817000000001
 51
257.46895000000001
  0
ARC
  5
240
  8
0
 62
     7
 10
94.870121999999995
 20
207.10823199999999
 30
0.0
 40
0.707808
 50
254.18184699999989
 51
257.98757799999998
  0
ARC
  5
241
  8
0
 62
     7
 10
98.277818999999994
 20
228.24528299999989
 30
0.0
 40
21.695757
 50
263.56963300000001
 51
264.71705700000001
  0
ARC
  5
242
  8
0
 62
     7
 10
111.99372199999991
 20
362.13652400000001
 30
0.0
 40
156.28678600000001
 50
264.22957700000001
 51
264.34031699999991
  0
ARC
  5
243
  8
0
 62
     7
 10
97.033878999999999
 20
210.99152299999989
 30
0.0
 40
4.4032929999999988
 50
264.09357799999992
 51
266.35080899999991
  0
ARC
  5
244
  8
0
 62
     7
 10
96.806493000000003
 20
207.6728929999999
 30
0.0
 40
1.077034
 50
267.18619100000001
 51
280.33348999999993
  0
ARC
  5
245
  8
0
 62
     7
 10
96.828777000000002
 20
207.4931389999999
 30
0.0
 40
0.8962569999999999
 50
280.99330800000001
 51
286.00185199999999
  0
ARC
  5
246
  8
0
 62
     7
 10
96.953700999999995
 20
207.0577989999999
 30
0.0
 40
0.4433470000000001
 50
285.99227599999989
 51
296.25915600000002
  0
ARC
  5
247
  8
0
 62
     7
 10
97.061053999999999
 20
206.84176199999999
 30
0.0
 40
0.20211
 50
296.06281999999999
 51
311.27896600000003
  0
ARC
  5
248
  8
0
 62
     7
 10
97.137129000000002
 20
206.75656499999999
 30
0.0
 40
0.0879
 50
310.65020800000002
 51
358.48041499999999
  0
ARC
  5
249
  8
0
 62
     7
 10
97.135107000000005
 20
206.75185999999999
 30
0.0
 40
0.089923
 50
1.512537
 51
18.848821000000001
  0
ARC
  5
24A
  8
0
 62
     7
 10
97.058886000000015
 20
206.72701699999999
 30
0.0
 40
0.170087
 50
18.473672000000001
 51
34.033389999999997
  0
ARC
  5
24B
  8
0
 62
     7
 10
96.960009000000014
 20
206.662252
 30
0.0
 40
0.288279
 50
33.702078
 51
55.065264999999997
  0
ARC
  5
24C
  8
0
 62
     7
 10
96.955605000000006
 20
206.6579439999999
 30
0.0
 40
0.294335
 50
54.842522999999993
 51
76.789818999999994
  0
ARC
  5
24D
  8
0
 62
     7
 10
96.841132000000002
 20
206.3175
 30
0.0
 40
0.652798
 50
73.835624999999993
 51
78.331430999999995
  0
ARC
  5
24E
  8
0
 62
     7
 10
93.361463999999998
 20
185.48585399999999
 30
0.0
 40
22.120339000000001
 50
83.545799000000002
 51
84.683704000000006
  0
ARC
  5
24F
  8
0
 62
     7
 10
84.206947
 20
96.561810999999992
 30
0.0
 40
111.513507
 50
84.23360799999999
 51
84.385801000000015
  0
ARC
  5
250
  8
0
 62
     7
 10
94.591727000000006
 20
202.45055300000001
 30
0.0
 40
5.1168110000000002
 50
84.116359000000003
 51
86.062807999999976
  0
ARC
  5
251
  8
0
 62
     7
 10
94.888718000000011
 20
206.48482399999989
 30
0.0
 40
1.0718430000000001
 50
87.093838000000034
 51
100.3053399999999
  0
ARC
  5
252
  8
0
 62
     7
 10
94.830162999999999
 20
206.84969099999989
 30
0.0
 40
0.702429
 50
100.93035999999989
 51
113.632277
  0
ARC
  5
253
  8
0
 62
     7
 10
94.637675000000016
 20
207.30805000000001
 30
0.0
 40
0.20548
 50
115.69475799999999
 51
131.3177949999999
  0
ARC
  5
254
  8
0
 62
     7
 10
94.559943000000004
 20
207.39526000000001
 30
0.0
 40
0.088663
 50
130.79902699999991
 51
178.36992099999989
  0
ARC
  5
255
  8
0
 62
     7
 10
94.562632999999991
 20
207.40138699999989
 30
0.0
 40
0.091388
 50
182.261055
 51
199.3521999999999
  0
ARC
  5
256
  8
0
 62
     7
 10
94.641844999999989
 20
207.4279479999999
 30
0.0
 40
0.174929
 50
198.96292399999999
 51
214.119381
  0
ARC
  5
257
  8
0
 62
     7
 10
94.737220999999991
 20
207.49070299999991
 30
0.0
 40
0.289093
 50
213.813096
 51
235.04007300000001
  0
ARC
  5
258
  8
0
 62
     7
 10
94.741282999999996
 20
207.49559699999989
 30
0.0
 40
0.295432
 50
234.93817000000001
 51
257.46895000000001
  0
ARC
  5
259
  8
0
 62
     7
 10
94.870121999999995
 20
207.88820699999999
 30
0.0
 40
0.707808
 50
254.18184699999989
 51
257.98757799999998
  0
ARC
  5
25A
  8
0
 62
     7
 10
98.478915999999998
 20
230.81167199999999
 30
0.0
 40
23.49345499999999
 50
263.57021600000002
 51
264.68614300000002
  0
ARC
  5
25B
  8
0
 62
     7
 10
114.53727600000001
 20
387.14554900000002
 30
0.0
 40
180.64896699999991
 50
264.20689299999998
 51
264.29538799999989
  0
ARC
  5
25C
  8
0
 62
     7
 10
97.033878999999999
 20
211.771154
 30
0.0
 40
4.4032929999999988
 50
264.09357799999992
 51
266.35080899999991
  0
ARC
  5
25D
  8
0
 62
     7
 10
96.806493000000003
 20
208.4525229999999
 30
0.0
 40
1.077034
 50
267.18619100000001
 51
280.33348999999993
  0
ARC
  5
25E
  8
0
 62
     7
 10
96.866593999999992
 20
208.07917499999991
 30
0.0
 40
0.699005
 50
280.97642300000001
 51
293.90557799999988
  0
ARC
  5
25F
  8
0
 62
     7
 10
97.062783999999994
 20
207.61864899999989
 30
0.0
 40
0.198615
 50
296.00025799999997
 51
312.058266
  0
ARC
  5
260
  8
0
 62
     7
 10
97.138593999999998
 20
207.53593299999989
 30
0.0
 40
0.086422
 50
311.47780599999987
 51
358.85652799999991
  0
ARC
  5
261
  8
0
 62
     7
 10
97.135281000000006
 20
207.5318429999999
 30
0.0
 40
0.089749
 50
1.510510999999999
 51
18.866949000000002
  0
ARC
  5
262
  8
0
 62
     7
 10
97.058796999999998
 20
207.50667799999991
 30
0.0
 40
0.170264
 50
18.557559000000001
 51
34.068260999999993
  0
ARC
  5
263
  8
0
 62
     7
 10
96.959898999999993
 20
207.4413209999999
 30
0.0
 40
0.288802
 50
33.818024999999999
 51
55.111047999999997
  0
ARC
  5
264
  8
0
 62
     7
 10
96.955605000000006
 20
207.43757400000001
 30
0.0
 40
0.294335
 50
54.842522999999993
 51
76.789818999999994
  0
ARC
  5
265
  8
0
 62
     7
 10
96.841132000000002
 20
207.09712999999999
 30
0.0
 40
0.652798
 50
73.835624999999993
 51
78.331430999999995
  0
ARC
  5
266
  8
0
 62
     7
 10
93.361463999999998
 20
186.26548399999999
 30
0.0
 40
22.120339000000001
 50
83.545799000000002
 51
84.683704000000006
  0
ARC
  5
267
  8
0
 62
     7
 10
84.206947
 20
97.341441000000003
 30
0.0
 40
111.513507
 50
84.23360799999999
 51
84.385801000000015
  0
ARC
  5
268
  8
0
 62
     7
 10
94.591727000000006
 20
203.23018400000001
 30
0.0
 40
5.1168110000000002
 50
84.116359000000003
 51
86.062807999999976
  0
ARC
  5
269
  8
0
 62
     7
 10
94.888718000000011
 20
207.264454
 30
0.0
 40
1.0718430000000001
 50
87.093838000000034
 51
100.3053399999999
  0
ARC
  5
26A
  8
0
 62
     7
 10
94.829234
 20
207.634096
 30
0.0
 40
0.6975630000000002
 50
100.92976399999991
 51
113.7238139999999
  0
ARC
  5
26B
  8
0
 62
     7
 10
94.637183999999991
 20
208.088401
 30
0.0
 40
0.204501
 50
115.67387600000001
 51
131.37550399999989
  0
ARC
  5
26C
  8
0
 62
     7
 10
94.559790000000007
 20
208.17480599999999
 30
0.0
 40
0.088512
 50
130.75219899999991
 51
178.31290300000001
  0
ARC
  5
26D
  8
0
 62
     7
 10
94.562632999999991
 20
208.18101699999991
 30
0.0
 40
0.091388
 50
182.261055
 51
199.3521999999999
  0
ARC
  5
26E
  8
0
 62
     7
 10
94.641844999999989
 20
208.20757800000001
 30
0.0
 40
0.174929
 50
198.96292399999999
 51
214.119381
  0
ARC
  5
26F
  8
0
 62
     7
 10
94.737220999999991
 20
208.27033299999999
 30
0.0
 40
0.289093
 50
213.813096
 51
235.04007300000001
  0
ARC
  5
270
  8
0
 62
     7
 10
94.741282999999996
 20
208.27522699999989
 30
0.0
 40
0.295432
 50
234.93817000000001
 51
257.46895000000001
  0
ARC
  5
271
  8
0
 62
     7
 10
94.870121999999995
 20
208.66783699999999
 30
0.0
 40
0.707808
 50
254.18184699999989
 51
257.98757799999998
  0
ARC
  5
272
  8
0
 62
     7
 10
98.412587000000002
 20
231.002072
 30
0.0
 40
22.900503
 50
263.57003399999991
 51
264.70040799999992
  0
ARC
  5
273
  8
0
 62
     7
 10
109.10516199999989
 20
335.22742299999987
 30
0.0
 40
127.67200800000001
 50
264.24255099999988
 51
264.370341
  0
ARC
  5
274
  8
0
 62
     7
 10
97.089481000000006
 20
213.0904589999999
 30
0.0
 40
4.9454820000000002
 50
264.09581200000002
 51
266.06890399999997
  0
ARC
  5
275
  8
0
 62
     7
 10
96.806245000000004
 20
209.23820499999991
 30
0.0
 40
1.083032
 50
267.04612099999991
 51
280.28896800000001
  0
ARC
  5
276
  8
0
 62
     7
 10
96.866593999999992
 20
208.85880499999999
 30
0.0
 40
0.699005
 50
280.97642300000001
 51
293.90557799999988
  0
ARC
  5
277
  8
0
 62
     7
 10
97.062783999999994
 20
208.39827899999989
 30
0.0
 40
0.198615
 50
296.00025799999997
 51
312.058266
  0
ARC
  5
278
  8
0
 62
     7
 10
97.138593999999998
 20
208.31556299999991
 30
0.0
 40
0.086422
 50
311.47780599999987
 51
358.85652799999991
  0
ARC
  5
279
  8
0
 62
     7
 10
97.135107000000005
 20
208.311465
 30
0.0
 40
0.089923
 50
1.512537
 51
18.848821000000001
  0
ARC
  5
27A
  8
0
 62
     7
 10
97.058886000000015
 20
208.286621
 30
0.0
 40
0.170087
 50
18.473672000000001
 51
34.033389999999997
  0
ARC
  5
27B
  8
0
 62
     7
 10
96.960009000000014
 20
208.221856
 30
0.0
 40
0.288279
 50
33.702078
 51
55.065264999999997
  0
ARC
  5
27C
  8
0
 62
     7
 10
96.953654
 20
208.21140299999999
 30
0.0
 40
0.300489
 50
55.213203
 51
76.919367000000008
  0
ARC
  5
27D
  8
0
 62
     7
 10
96.836382999999998
 20
207.85771600000001
 30
0.0
 40
0.6724100000000001
 50
74.005572999999998
 51
78.263326000000021
  0
ARC
  5
27E
  8
0
 62
     7
 10
98.412587000000002
 20
231.781702
 30
0.0
 40
22.900503
 50
263.57003399999991
 51
264.70040799999992
  0
ARC
  5
27F
  8
0
 62
     7
 10
109.10516199999989
 20
336.00705299999993
 30
0.0
 40
127.67200800000001
 50
264.24255099999988
 51
264.370341
  0
ARC
  5
280
  8
0
 62
     7
 10
97.082021999999995
 20
213.79773299999999
 30
0.0
 40
4.8727429999999989
 50
264.09554100000003
 51
266.09804600000001
  0
ARC
  5
281
  8
0
 62
     7
 10
96.805599000000001
 20
210.008037
 30
0.0
 40
1.07317
 50
267.05348099999998
 51
280.41961700000002
  0
ARC
  5
282
  8
0
 62
     7
 10
96.828777000000002
 20
209.8323729999999
 30
0.0
 40
0.8962569999999999
 50
280.99330800000001
 51
286.00185199999999
  0
ARC
  5
283
  8
0
 62
     7
 10
96.953700999999995
 20
209.39703299999991
 30
0.0
 40
0.4433470000000001
 50
285.99227599999989
 51
296.25915600000002
  0
ARC
  5
284
  8
0
 62
     7
 10
97.061053999999999
 20
209.18099699999991
 30
0.0
 40
0.20211
 50
296.06281999999999
 51
311.27896600000003
  0
ARC
  5
285
  8
0
 62
     7
 10
97.137129000000002
 20
209.0958
 30
0.0
 40
0.0879
 50
310.65020800000002
 51
358.48041499999999
  0
ARC
  5
286
  8
0
 62
     7
 10
97.135107000000005
 20
209.091095
 30
0.0
 40
0.089923
 50
1.512537
 51
18.848821000000001
  0
ARC
  5
287
  8
0
 62
     7
 10
97.058886000000015
 20
209.06625099999999
 30
0.0
 40
0.170087
 50
18.473672000000001
 51
34.033389999999997
  0
ARC
  5
288
  8
0
 62
     7
 10
96.960009000000014
 20
209.001486
 30
0.0
 40
0.288279
 50
33.702078
 51
55.065264999999997
  0
ARC
  5
289
  8
0
 62
     7
 10
96.952797000000004
 20
208.98979099999991
 30
0.0
 40
0.301998
 50
55.214078999999991
 51
76.818879999999993
  0
ARC
  5
28A
  8
0
 62
     7
 10
96.825388000000004
 20
208.6065449999999
 30
0.0
 40
0.705154
 50
73.838709999999992
 51
77.903323999999998
  0
ARC
  5
28B
  8
0
 62
     7
 10
92.177401000000003
 20
176.5661189999999
 30
0.0
 40
32.666018000000001
 50
83.548206999999991
 51
84.838320999999979
  0
ARC
  5
28C
  8
0
 62
     7
 10
94.591727000000006
 20
204.00981400000001
 30
0.0
 40
5.1168110000000002
 50
84.116359000000003
 51
86.062807999999976
  0
ARC
  5
28D
  8
0
 62
     7
 10
94.888718000000011
 20
208.044084
 30
0.0
 40
1.0718430000000001
 50
87.093838000000034
 51
100.3053399999999
  0
ARC
  5
28E
  8
0
 62
     7
 10
94.831424999999996
 20
208.40246999999999
 30
0.0
 40
0.7090320000000001
 50
100.9311579999999
 51
113.510153
  0
ARC
  5
28F
  8
0
 62
     7
 10
94.636618999999996
 20
208.869079
 30
0.0
 40
0.203583
 50
115.62153600000001
 51
131.39101699999989
  0
ARC
  5
290
  8
0
 62
     7
 10
94.559791000000004
 20
208.954758
 30
0.0
 40
0.088513
 50
130.75203999999999
 51
178.29819499999991
  0
ARC
  5
291
  8
0
 62
     7
 10
94.563585999999987
 20
208.96100200000001
 30
0.0
 40
0.09234
 50
182.24406699999989
 51
199.2506009999999
  0
ARC
  5
292
  8
0
 62
     7
 10
94.641326000000007
 20
208.98683700000001
 30
0.0
 40
0.174256
 50
198.842781
 51
214.096508
  0
ARC
  5
293
  8
0
 62
     7
 10
94.736238999999983
 20
209.04886499999989
 30
0.0
 40
0.287631
 50
213.72952799999999
 51
235.07500699999991
  0
ARC
  5
294
  8
0
 62
     7
 10
94.741282999999996
 20
209.054857
 30
0.0
 40
0.295432
 50
234.93817000000001
 51
257.46895000000001
  0
ARC
  5
295
  8
0
 62
     7
 10
94.870121999999995
 20
209.4474669999999
 30
0.0
 40
0.707808
 50
254.18184699999989
 51
257.98757799999998
  0
ARC
  5
296
  8
0
 62
     7
 10
98.412587000000002
 20
232.56133199999991
 30
0.0
 40
22.900503
 50
263.57003399999991
 51
264.70040799999992
  0
ARC
  5
297
  8
0
 62
     7
 10
109.10516199999989
 20
336.78668299999998
 30
0.0
 40
127.67200800000001
 50
264.24255099999988
 51
264.370341
  0
ARC
  5
298
  8
0
 62
     7
 10
97.029965000000004
 20
214.07242400000001
 30
0.0
 40
4.3651279999999986
 50
264.09340099999991
 51
266.41239200000001
  0
ARC
  5
299
  8
0
 62
     7
 10
96.807512000000017
 20
210.7977689999999
 30
0.0
 40
1.0831049999999991
 50
267.31733500000001
 51
280.22013700000002
  0
ARC
  5
29A
  8
0
 62
     7
 10
96.866593999999992
 20
210.4180659999999
 30
0.0
 40
0.699005
 50
280.97642300000001
 51
293.90557799999988
  0
ARC
  5
29B
  8
0
 62
     7
 10
97.062783999999994
 20
209.957539
 30
0.0
 40
0.198615
 50
296.00025799999997
 51
312.058266
  0
ARC
  5
29C
  8
0
 62
     7
 10
97.138593999999998
 20
209.87482299999991
 30
0.0
 40
0.086422
 50
311.47780599999987
 51
358.85652799999991
  0
ARC
  5
29D
  8
0
 62
     7
 10
97.135107000000005
 20
209.87072499999991
 30
0.0
 40
0.089923
 50
1.512537
 51
18.848821000000001
  0
ARC
  5
29E
  8
0
 62
     7
 10
97.058886000000015
 20
209.84588099999991
 30
0.0
 40
0.170087
 50
18.473672000000001
 51
34.033389999999997
  0
ARC
  5
29F
  8
0
 62
     7
 10
96.960009000000014
 20
209.781116
 30
0.0
 40
0.288279
 50
33.702078
 51
55.065264999999997
  0
ARC
  5
2A0
  8
0
 62
     7
 10
96.951408999999998
 20
209.76741000000001
 30
0.0
 40
0.304442
 50
55.215488000000001
 51
76.658255000000011
  0
ARC
  5
2A1
  8
0
 62
     7
 10
96.840006000000002
 20
209.4353879999999
 30
0.0
 40
0.653982
 50
73.872973000000002
 51
78.252116000000001
  0
ARC
  5
2A2
  8
0
 62
     7
 10
93.380989999999997
 20
187.99754899999991
 30
0.0
 40
21.946433999999989
 50
83.545738999999998
 51
84.572219999999987
  0
ARC
  5
2A3
  8
0
 62
     7
 10
85.984042000000002
 20
116.8254469999999
 30
0.0
 40
93.501233999999997
 50
84.185213000000005
 51
84.395015999999984
  0
ARC
  5
2A4
  8
0
 62
     7
 10
94.648782999999995
 20
205.34513200000001
 30
0.0
 40
4.5585440000000004
 50
84.114203000000003
 51
86.338812000000004
  0
ARC
  5
2A5
  8
0
 62
     7
 10
94.888975000000002
 20
208.82228599999999
 30
0.0
 40
1.0732939999999991
 50
87.281816000000006
 51
100.30518599999991
  0
ARC
  5
2A6
  8
0
 62
     7
 10
94.830476000000004
 20
209.18697299999991
 30
0.0
 40
0.7040670000000001
 50
100.930559
 51
113.601754
  0
ARC
  5
2A7
  8
0
 62
     7
 10
94.637183999999991
 20
209.64783299999999
 30
0.0
 40
0.204501
 50
115.67387600000001
 51
131.37550399999989
  0
ARC
  5
2A8
  8
0
 62
     7
 10
94.559638000000007
 20
209.73430400000001
 30
0.0
 40
0.088363
 50
130.7051679999999
 51
178.240768
  0
ARC
  5
2A9
  8
0
 62
     7
 10
94.563401999999996
 20
209.740622
 30
0.0
 40
0.092156
 50
182.2420149999999
 51
199.2695149999999
  0
ARC
  5
2AA
  8
0
 62
     7
 10
94.641032999999993
 20
209.76654599999989
 30
0.0
 40
0.173997
 50
198.89180500000001
 51
214.14274900000001
  0
ARC
  5
2AB
  8
0
 62
     7
 10
94.739523999999989
 20
209.83148199999999
 30
0.0
 40
0.291962
 50
213.84150099999991
 51
234.882069
  0
ARC
  5
2AC
  8
0
 62
     7
 10
94.741282999999996
 20
209.834487
 30
0.0
 40
0.295432
 50
234.93817000000001
 51
257.46895000000001
  0
ARC
  5
2AD
  8
0
 62
     7
 10
94.870121999999995
 20
210.22709699999999
 30
0.0
 40
0.707808
 50
254.18184699999989
 51
257.98757799999998
  0
LINE
  5
2AE
  8
0
 62
     7
 10
146.911
 20
98.433899999999994
 30
0.0
 11
147.5029999999999
 21
98.433899999999994
 31
0.0
  0
LINE
  5
2AF
  8
0
 62
     7
 10
137.595
 20
98.433899999999994
 30
0.0
 11
137.0029999999999
 21
98.433899999999994
 31
0.0
  0
LINE
  5
2B0
  8
0
 62
     7
 10
55.506
 20
98.433899999999994
 30
0.0
 11
56.098199999999999
 21
98.433899999999994
 31
0.0
  0
LINE
  5
2B1
  8
0
 62
     7
 10
46.190100000000001
 20
98.433899999999994
 30
0.0
 11
45.598199999999999
 21
98.433899999999994
 31
0.0
  0
LINE
  5
2B2
  8
0
 62
     7
 10
171.672
 20
110.0589999999999
 30
0.0
 11
171.672
 21
105.94499999999999
 31
0.0
  0
LINE
  5
2B3
  8
0
 62
     7
 10
172.2529999999999
 20
112.3089999999999
 30
0.0
 11
172.2529999999999
 21
114.4339999999999
 31
0.0
  0
LINE
  5
2B4
  8
0
 62
     7
 10
169.2529999999999
 20
110.0589999999999
 30
0.0
 11
177.405
 21
110.0589999999999
 31
0.0
  0
LINE
  5
2B5
  8
0
 62
     7
 10
172.2529999999999
 20
107.9339999999999
 30
0.0
 11
172.2529999999999
 21
106.526
 31
0.0
  0
LINE
  5
2B6
  8
0
 62
     7
 10
172.2529999999999
 20
106.526
 30
0.0
 11
171.672
 21
105.94499999999999
 31
0.0
  0
LINE
  5
2B7
  8
0
 62
     7
 10
172.2529999999999
 20
115.842
 30
0.0
 11
172.2529999999999
 21
114.4339999999999
 31
0.0
  0
LINE
  5
2B8
  8
0
 62
     7
 10
171.672
 20
116.4229999999999
 30
0.0
 11
172.2529999999999
 21
115.842
 31
0.0
  0
LINE
  5
2B9
  8
0
 62
     7
 10
171.672
 20
116.4229999999999
 30
0.0
 11
171.672
 21
112.3089999999999
 31
0.0
  0
LINE
  5
2BA
  8
0
 62
     7
 10
172.2529999999999
 20
107.9339999999999
 30
0.0
 11
172.2529999999999
 21
110.0589999999999
 31
0.0
  0
LINE
  5
2BB
  8
0
 62
     7
 10
169.2529999999999
 20
116.4229999999999
 30
0.0
 11
171.672
 21
116.4229999999999
 31
0.0
  0
LINE
  5
2BC
  8
0
 62
     7
 10
172.2529999999999
 20
115.842
 30
0.0
 11
169.2529999999999
 21
115.842
 31
0.0
  0
LINE
  5
2BD
  8
0
 62
     7
 10
171.672
 20
105.94499999999999
 30
0.0
 11
169.2529999999999
 21
105.94499999999999
 31
0.0
  0
LINE
  5
2BE
  8
0
 62
     7
 10
172.2529999999999
 20
106.526
 30
0.0
 11
169.2529999999999
 21
106.526
 31
0.0
  0
LINE
  5
2BF
  8
0
 62
     7
 10
146.911
 20
98.433899999999994
 30
0.0
 11
147.5029999999999
 21
99.459800000000001
 31
0.0
  0
LINE
  5
2C0
  8
0
 62
     7
 10
146.911
 20
93.683800000000005
 30
0.0
 11
146.911
 21
98.433899999999994
 31
0.0
  0
LINE
  5
2C1
  8
0
 62
     7
 10
137.0029999999999
 20
94.273600000000002
 30
0.0
 11
147.5029999999999
 21
94.273600000000002
 31
0.0
  0
LINE
  5
2C2
  8
0
 62
     7
 10
137.595
 20
98.433899999999994
 30
0.0
 11
137.595
 21
93.683800000000005
 31
0.0
  0
LINE
  5
2C3
  8
0
 62
     7
 10
146.911
 20
98.433899999999994
 30
0.0
 11
137.595
 21
98.433899999999994
 31
0.0
  0
LINE
  5
2C4
  8
0
 62
     7
 10
137.0029999999999
 20
99.459800000000001
 30
0.0
 11
137.595
 21
98.433899999999994
 31
0.0
  0
LINE
  5
2C5
  8
0
 62
     7
 10
169.2529999999999
 20
117.684
 30
0.0
 11
169.2529999999999
 21
125.184
 31
0.0
  0
LINE
  5
2C6
  8
0
 62
     7
 10
177.405
 20
112.307
 30
0.0
 11
177.405
 21
112.3089999999999
 31
0.0
  0
LINE
  5
2C7
  8
0
 62
     7
 10
177.405
 20
110.0589999999999
 30
0.0
 11
179.35299999999989
 21
111.1839999999999
 31
0.0
  0
LINE
  5
2C8
  8
0
 62
     7
 10
179.35299999999989
 20
111.1839999999999
 30
0.0
 11
177.405
 21
112.3089999999999
 31
0.0
  0
LINE
  5
2C9
  8
0
 62
     7
 10
177.405
 20
112.3089999999999
 30
0.0
 11
169.2529999999999
 21
112.3089999999999
 31
0.0
  0
LINE
  5
2CA
  8
0
 62
     7
 10
169.2529999999999
 20
104.6839999999999
 30
0.0
 11
169.2529999999999
 21
117.684
 31
0.0
  0
LINE
  5
2CB
  8
0
 62
     7
 10
163.65299999999999
 20
126.184
 30
0.0
 11
167.2529999999999
 21
126.184
 31
0.0
  0
ARC
  5
2CC
  8
0
 62
     7
 10
151.33996999999991
 20
120.770203
 30
0.0
 40
0.4140680000000001
 50
6.2719860000000001
 51
88.202363000000005
  0
ARC
  5
2CD
  8
0
 62
     7
 10
137.99874800000001
 20
119.017984
 30
0.0
 40
0.4162430000000001
 50
92.100395999999989
 51
177.751587
  0
LINE
  5
2CE
  8
0
 62
     7
 10
137.983
 20
119.4339999999999
 30
0.0
 11
142.2529999999999
 21
119.4339999999999
 31
0.0
  0
LINE
  5
2CF
  8
0
 62
     7
 10
137.583
 20
119.03399999999991
 30
0.0
 11
137.583
 21
103.334
 31
0.0
  0
ARC
  5
2D0
  8
0
 62
     7
 10
153.29592
 20
120.987058
 30
0.0
 40
1.5538670000000001
 50
186.34103899999999
 51
268.21171800000002
  0
LINE
  5
2D1
  8
0
 62
     7
 10
142.2529999999999
 20
119.4339999999999
 30
0.0
 11
163.2529999999999
 21
119.4339999999999
 31
0.0
  0
LINE
  5
2D2
  8
0
 62
     7
 10
167.2529999999999
 20
126.184
 30
0.0
 11
167.2529999999999
 21
125.78399999999991
 31
0.0
  0
ARC
  5
2D3
  8
0
 62
     7
 10
163.66870900000001
 20
125.76868399999999
 30
0.0
 40
0.4159080000000001
 50
92.108656000000025
 51
177.89131399999999
  0
LINE
  5
2D4
  8
0
 62
     7
 10
167.2529999999999
 20
125.184
 30
0.0
 11
169.2529999999999
 21
125.184
 31
0.0
  0
ARC
  5
2D5
  8
0
 62
     7
 10
133.1684149999999
 20
120.7691379999999
 30
0.0
 40
0.415212
 50
92.114703000000006
 51
177.983968
  0
LINE
  5
2D6
  8
0
 62
     7
 10
133.15299999999991
 20
121.184
 30
0.0
 11
151.35299999999989
 21
121.184
 31
0.0
  0
LINE
  5
2D7
  8
0
 62
     7
 10
167.2529999999999
 20
96.5839
 30
0.0
 11
167.2529999999999
 21
96.183499999999995
 31
0.0
  0
ARC
  5
2D8
  8
0
 62
     7
 10
163.66872900000001
 20
96.599186000000003
 30
0.0
 40
0.415928
 50
182.11133100000001
 51
267.88869899999997
  0
LINE
  5
2D9
  8
0
 62
     7
 10
167.2529999999999
 20
96.183499999999995
 30
0.0
 11
163.65299999999999
 21
96.183499999999995
 31
0.0
  0
ARC
  5
2DA
  8
0
 62
     7
 10
151.33951899999991
 20
101.5981339999999
 30
0.0
 40
0.414569
 50
271.85775999999993
 51
353.667891
  0
LINE
  5
2DB
  8
0
 62
     7
 10
147.5029999999999
 20
99.459800000000001
 30
0.0
 11
147.5029999999999
 21
100.184
 31
0.0
  0
ARC
  5
2DC
  8
0
 62
     7
 10
148.54176799999991
 20
100.145042
 30
0.0
 40
1.039458999999999
 50
92.128725000000017
 51
177.851505
  0
LINE
  5
2DD
  8
0
 62
     7
 10
146.9129999999999
 20
93.683800000000005
 30
0.0
 11
147.5029999999999
 21
94.273600000000002
 31
0.0
  0
LINE
  5
2DE
  8
0
 62
     7
 10
147.5029999999999
 20
94.273600000000002
 30
0.0
 11
147.5029999999999
 21
99.459800000000001
 31
0.0
  0
ARC
  5
2DF
  8
0
 62
     7
 10
135.96493099999989
 20
100.1453319999999
 30
0.0
 40
1.0391449999999991
 50
2.133124
 51
87.906339000000017
  0
LINE
  5
2E0
  8
0
 62
     7
 10
137.0029999999999
 20
100.184
 30
0.0
 11
137.0029999999999
 21
99.459800000000001
 31
0.0
  0
LINE
  5
2E1
  8
0
 62
     7
 10
142.2529999999999
 20
102.9339999999999
 30
0.0
 11
137.983
 21
102.9339999999999
 31
0.0
  0
LINE
  5
2E2
  8
0
 62
     7
 10
137.0029999999999
 20
94.273600000000002
 30
0.0
 11
137.5929999999999
 21
93.683800000000005
 31
0.0
  0
LINE
  5
2E3
  8
0
 62
     7
 10
137.0029999999999
 20
99.459800000000001
 30
0.0
 11
137.0029999999999
 21
94.273600000000002
 31
0.0
  0
LINE
  5
2E4
  8
0
 62
     7
 10
137.0029999999999
 20
99.459800000000001
 30
0.0
 11
147.5029999999999
 21
99.459800000000001
 31
0.0
  0
LINE
  5
2E5
  8
0
 62
     7
 10
137.0029999999999
 20
94.273600000000002
 30
0.0
 11
147.5029999999999
 21
94.273600000000002
 31
0.0
  0
LINE
  5
2E6
  8
0
 62
     7
 10
146.9129999999999
 20
93.683800000000005
 30
0.0
 11
137.5929999999999
 21
93.683800000000005
 31
0.0
  0
LINE
  5
2E7
  8
0
 62
     7
 10
163.2529999999999
 20
102.9339999999999
 30
0.0
 11
142.2529999999999
 21
102.9339999999999
 31
0.0
  0
LINE
  5
2E8
  8
0
 62
     7
 10
167.2529999999999
 20
97.183999999999997
 30
0.0
 11
169.2529999999999
 21
97.183999999999997
 31
0.0
  0
ARC
  5
2E9
  8
0
 62
     7
 10
133.168386
 20
101.598709
 30
0.0
 40
0.415208
 50
182.1107759999999
 51
267.88925399999999
  0
LINE
  5
2EA
  8
0
 62
     7
 10
151.35299999999989
 20
101.184
 30
0.0
 11
133.15299999999991
 21
101.184
 31
0.0
  0
LINE
  5
2EB
  8
0
 62
     7
 10
132.7529999999999
 20
120.78400000000001
 30
0.0
 11
132.7529999999999
 21
101.583
 31
0.0
  0
ARC
  5
2EC
  8
0
 62
     7
 10
153.29674399999999
 20
101.3798989999999
 30
0.0
 40
1.554786
 50
91.817641999999992
 51
173.62960200000001
  0
ARC
  5
2ED
  8
0
 62
     7
 10
137.99846199999999
 20
103.3495529999999
 30
0.0
 40
0.41592
 50
182.11198200000001
 51
267.93733399999991
  0
LINE
  5
2EE
  8
0
 62
     7
 10
169.2529999999999
 20
97.183999999999997
 30
0.0
 11
169.2529999999999
 21
104.6839999999999
 31
0.0
  0
LINE
  5
2EF
  8
0
 62
     7
 10
167.2529999999999
 20
96.5839
 30
0.0
 11
167.2529999999999
 21
125.78399999999991
 31
0.0
  0
LINE
  5
2F0
  8
0
 62
     7
 10
163.2529999999999
 20
96.5839
 30
0.0
 11
163.2529999999999
 21
125.78399999999991
 31
0.0
  0
LINE
  5
2F1
  8
0
 62
     7
 10
96.973200000000006
 20
202.1459999999999
 30
0.0
 11
96.973200000000006
 21
210.298
 31
0.0
  0
LINE
  5
2F2
  8
0
 62
     7
 10
95.847999999999985
 20
119.184
 30
0.0
 11
95.847999999999985
 21
119.059
 31
0.0
  0
LINE
  5
2F3
  8
0
 62
     7
 10
95.847999999999985
 20
119.184
 30
0.0
 11
98.305700000000016
 21
119.184
 31
0.0
  0
LINE
  5
2F4
  8
0
 62
     7
 10
91.293499999999995
 20
119.184
 30
0.0
 11
93.165999999999997
 21
119.184
 31
0.0
  0
LINE
  5
2F5
  8
0
 62
     7
 10
90.899799999999999
 20
119.184
 30
0.0
 11
91.293499999999995
 21
119.184
 31
0.0
  0
LINE
  5
2F6
  8
0
 62
     7
 10
90.197299999999998
 20
119.184
 30
0.0
 11
90.899799999999999
 21
119.184
 31
0.0
  0
ARC
  5
2F7
  8
0
 62
     7
 10
90.592251000000005
 20
118.8060399999999
 30
0.0
 40
0.256197
 50
0.6625550000000001
 51
57.130271999999991
  0
ARC
  5
2F8
  8
0
 62
     7
 10
90.573706000000001
 20
118.55361599999991
 30
0.0
 40
0.5061020000000001
 50
82.158124999999998
 51
87.212765000000005
  0
ARC
  5
2F9
  8
0
 62
     7
 10
90.599660999999998
 20
118.81657
 30
0.0
 40
0.242278
 50
69.342348000000001
 51
79.753613999999999
  0
ARC
  5
2FA
  8
0
 62
     7
 10
90.608481999999995
 20
118.831182
 30
0.0
 40
0.225515
 50
59.777915999999991
 51
70.129667999999995
  0
ARC
  5
2FB
  8
0
 62
     7
 10
90.739327999999986
 20
119.0480909999999
 30
0.0
 40
0.028043
 50
231.8254299999999
 51
253.35944499999999
  0
LINE
  5
2FC
  8
0
 62
     7
 10
90.501499999999993
 20
119.059
 30
0.0
 11
90.598299999999995
 21
119.059
 31
0.0
  0
ARC
  5
2FD
  8
0
 62
     7
 10
89.283665999999997
 20
118.727737
 30
0.0
 40
1.218086
 50
2.6243089999999998
 51
8.9144360000000002
  0
ARC
  5
2FE
  8
0
 62
     7
 10
90.101291999999987
 20
118.834718
 30
0.0
 40
0.394319
 50
11.968612
 51
33.477471999999999
  0
ARC
  5
2FF
  8
0
 62
     7
 10
90.129222999999996
 20
118.850779
 30
0.0
 40
0.362167
 50
33.795580999999999
 51
52.386104000000003
  0
ARC
  5
300
  8
0
 62
     7
 10
90.211209999999994
 20
118.9511219999999
 30
0.0
 40
0.232672
 50
53.297810999999989
 51
77.546841000000001
  0
ARC
  5
301
  8
0
 62
     7
 10
90.233198999999999
 20
118.946122
 30
0.0
 40
0.233902
 50
83.079189
 51
95.340318999999994
  0
LINE
  5
302
  8
0
 62
     7
 10
93.165999999999997
 20
119.184
 30
0.0
 11
93.390199999999993
 21
119.184
 31
0.0
  0
LINE
  5
303
  8
0
 62
     7
 10
88.248699999999999
 20
119.184
 30
0.0
 11
89.561299999999989
 21
119.184
 31
0.0
  0
ARC
  5
304
  8
0
 62
     7
 10
88.263991000000004
 20
118.7678779999999
 30
0.0
 40
0.416233
 50
92.099075000000013
 51
177.75290799999999
  0
LINE
  5
305
  8
0
 62
     7
 10
89.561299999999989
 20
119.184
 30
0.0
 11
90.211100000000002
 21
119.184
 31
0.0
  0
LINE
  5
306
  8
0
 62
     7
 10
93.390199999999993
 20
119.184
 30
0.0
 11
95.847999999999985
 21
119.184
 31
0.0
  0
ARC
  5
307
  8
0
 62
     7
 10
90.591695000000016
 20
103.062586
 30
0.0
 40
0.256767
 50
302.93535099999991
 51
359.1140299999999
  0
ARC
  5
308
  8
0
 62
     7
 10
90.563245999999992
 20
103.135723
 30
0.0
 40
0.333995
 50
292.16732799999988
 51
300.20890700000001
  0
ARC
  5
309
  8
0
 62
     7
 10
90.617545999999976
 20
102.98256599999991
 30
0.0
 40
0.171834
 50
276.8144529999999
 51
294.66964300000001
  0
ARC
  5
30A
  8
0
 62
     7
 10
90.602935999999985
 20
103.0289149999999
 30
0.0
 40
0.219774
 50
268.79546699999992
 51
279.16331700000001
  0
LINE
  5
30B
  8
0
 62
     7
 10
90.598299999999995
 20
102.8089999999999
 30
0.0
 11
90.501499999999993
 21
102.8089999999999
 31
0.0
  0
LINE
  5
30C
  8
0
 62
     7
 10
90.211399999999998
 20
102.68899999999989
 30
0.0
 11
90.263499999999979
 21
102.6899999999999
 31
0.0
  0
ARC
  5
30D
  8
0
 62
     7
 10
90.242835999999997
 20
102.831779
 30
0.0
 40
0.143282
 50
278.271953
 51
294.78044599999998
  0
ARC
  5
30E
  8
0
 62
     7
 10
90.198681999999991
 20
102.9264009999999
 30
0.0
 40
0.247698
 50
294.87950499999999
 51
306.73156799999998
  0
ARC
  5
30F
  8
0
 62
     7
 10
90.178652999999997
 20
102.969555
 30
0.0
 40
0.294424
 50
304.83261499999998
 51
323.40458699999999
  0
ARC
  5
310
  8
0
 62
     7
 10
90.110467999999997
 20
103.0243
 30
0.0
 40
0.381819
 50
322.90878900000001
 51
341.02351399999998
  0
ARC
  5
311
  8
0
 62
     7
 10
90.023066
 20
103.0673509999999
 30
0.0
 40
0.478628
 50
339.55221299999988
 51
357.30372199999999
  0
ARC
  5
312
  8
0
 62
     7
 10
90.050449999999998
 20
103.05657099999991
 30
0.0
 40
0.4508670000000001
 50
358.50843700000001
 51
3.501735
  0
LINE
  5
313
  8
0
 62
     7
 10
89.561299999999989
 20
102.6839999999999
 30
0.0
 11
88.248699999999999
 21
102.6839999999999
 31
0.0
  0
ARC
  5
314
  8
0
 62
     7
 10
88.263715999999988
 20
103.0994369999999
 30
0.0
 40
0.41592
 50
182.11198200000001
 51
267.93733399999991
  0
LINE
  5
315
  8
0
 62
     7
 10
90.211100000000002
 20
102.6839999999999
 30
0.0
 11
89.561299999999989
 21
102.6839999999999
 31
0.0
  0
LINE
  5
316
  8
0
 62
     7
 10
87.848100000000002
 20
118.78400000000001
 30
0.0
 11
87.848100000000002
 21
103.0839999999999
 31
0.0
  0
LINE
  5
317
  8
0
 62
     7
 10
90.848399999999984
 20
118.809
 30
0.0
 11
90.848399999999984
 21
103.0589999999999
 31
0.0
  0
LINE
  5
318
  8
0
 62
     7
 10
90.502899999999997
 20
103.0839999999999
 30
0.0
 11
90.502899999999997
 21
118.78400000000001
 31
0.0
  0
ARC
  5
319
  8
0
 62
     7
 10
95.853497000000004
 20
110.91072699999999
 30
0.0
 40
2.887697999999999
 50
0.013681
 51
90.013650999999996
  0
ARC
  5
31A
  8
0
 62
     7
 10
95.852808999999979
 20
110.9114159999999
 30
0.0
 40
2.887008999999999
 50
90.0
 51
179.99996999999991
  0
ARC
  5
31B
  8
0
 62
     7
 10
95.853153000000006
 20
110.91107099999989
 30
0.0
 40
2.887351999999999
 50
179.993134
 51
269.99318299999999
  0
ARC
  5
31C
  8
0
 62
     7
 10
95.853153000000006
 20
110.911761
 30
0.0
 40
2.888042
 50
269.99318499999998
 51
359.993155
  0
LINE
  5
31D
  8
0
 62
     7
 10
101.852
 20
170.59399999999999
 30
0.0
 11
101.238
 21
171.208
 31
0.0
  0
ARC
  5
31E
  8
0
 62
     7
 10
101.3512469999999
 20
171.314877
 30
0.0
 40
0.155657
 50
146.80578199999999
 51
223.4349279999999
  0
ARC
  5
31F
  8
0
 62
     7
 10
90.345735999999988
 20
171.31484800000001
 30
0.0
 40
0.155402
 50
316.49084800000003
 51
33.268442
  0
ARC
  5
320
  8
0
 62
     7
 10
89.565082000000004
 20
170.8968439999999
 30
0.0
 40
0.4148290000000001
 50
216.26367300000001
 51
302.17102
  0
ARC
  5
321
  8
0
 62
     7
 10
89.566601999999989
 20
170.87374199999999
 30
0.0
 40
0.394618
 50
303.77051999999998
 51
314.77158900000001
  0
LINE
  5
322
  8
0
 62
     7
 10
90.458399999999997
 20
171.208
 30
0.0
 11
89.844499999999996
 21
170.59399999999999
 31
0.0
  0
ARC
  5
323
  8
0
 62
     7
 10
102.1354969999999
 20
170.89805999999999
 30
0.0
 40
0.41569
 50
227.0910329999999
 51
312.90898700000002
  0
ARC
  5
324
  8
0
 62
     7
 10
102.140562
 20
170.8723149999999
 30
0.0
 40
0.393627
 50
314.92077599999999
 51
325.87181699999991
  0
LINE
  5
325
  8
0
 62
     7
 10
109.848
 20
200.1459999999999
 30
0.0
 11
109.848
 21
202.1459999999999
 31
0.0
  0
LINE
  5
326
  8
0
 62
     7
 10
104.848
 20
202.1459999999999
 30
0.0
 11
109.848
 21
202.1459999999999
 31
0.0
  0
LINE
  5
327
  8
0
 62
     7
 10
110.8489999999999
 20
200.1459999999999
 30
0.0
 11
109.848
 21
200.1459999999999
 31
0.0
  0
LINE
  5
328
  8
0
 62
     7
 10
95.847999999999985
 20
212.2459999999999
 30
0.0
 11
94.722800000000007
 21
210.298
 31
0.0
  0
LINE
  5
329
  8
0
 62
     7
 10
96.973200000000006
 20
210.298
 30
0.0
 11
95.847999999999985
 21
212.2459999999999
 31
0.0
  0
LINE
  5
32A
  8
0
 62
     7
 10
97.347999999999985
 20
202.1459999999999
 30
0.0
 11
96.973200000000006
 21
202.1459999999999
 31
0.0
  0
LINE
  5
32B
  8
0
 62
     7
 10
96.973200000000006
 20
202.1459999999999
 30
0.0
 11
88.084800000000016
 21
202.1459999999999
 31
0.0
  0
LINE
  5
32C
  8
0
 62
     7
 10
104.848
 20
202.1459999999999
 30
0.0
 11
97.347999999999985
 21
202.1459999999999
 31
0.0
  0
ARC
  5
32D
  8
0
 62
     7
 10
110.43199199999999
 20
196.56312500000001
 30
0.0
 40
0.4170600000000001
 50
272.20631099999991
 51
357.69508300000001
  0
LINE
  5
32E
  8
0
 62
     7
 10
103.848
 20
189.47399999999999
 30
0.0
 11
103.848
 21
196.1459999999999
 31
0.0
  0
LINE
  5
32F
  8
0
 62
     7
 10
110.44799999999989
 20
196.1459999999999
 30
0.0
 11
102.2239999999999
 21
196.1459999999999
 31
0.0
  0
LINE
  5
330
  8
0
 62
     7
 10
103.848
 20
189.47399999999999
 30
0.0
 11
103.848
 21
175.1459999999999
 31
0.0
  0
ARC
  5
331
  8
0
 62
     7
 10
95.794783999999993
 20
175.16233600000001
 30
0.0
 40
8.0534689999999998
 50
325.93629099999998
 51
359.88603000000001
  0
LINE
  5
332
  8
0
 62
     7
 10
87.848100000000002
 20
196.1459999999999
 30
0.0
 11
89.598500000000016
 21
196.1459999999999
 31
0.0
  0
LINE
  5
333
  8
0
 62
     7
 10
87.848100000000002
 20
196.1459999999999
 30
0.0
 11
87.848100000000002
 21
189.61199999999991
 31
0.0
  0
ARC
  5
334
  8
0
 62
     7
 10
95.836565000000007
 20
175.129402
 30
0.0
 40
6.570358999999999
 50
47.203356999999997
 51
66.367565999999997
  0
LINE
  5
335
  8
0
 62
     7
 10
98.833500000000001
 20
180.97599999999991
 30
0.0
 11
98.722899999999996
 21
180.97599999999991
 31
0.0
  0
ARC
  5
336
  8
0
 62
     7
 10
93.904668000000001
 20
170.47532899999999
 30
0.0
 40
11.608952999999991
 50
66.840327000000002
 51
68.009653
  0
ARC
  5
337
  8
0
 62
     7
 10
99.249675000000011
 20
180.862212
 30
0.0
 40
0.151212
 50
191.60508200000001
 51
239.01737700000001
  0
LINE
  5
338
  8
0
 62
     7
 10
98.857600000000005
 20
180.9079999999999
 30
0.0
 11
98.901700000000005
 21
180.94099999999989
 31
0.0
  0
ARC
  5
339
  8
0
 62
     7
 10
96.149319999999989
 20
175.44811899999991
 30
0.0
 40
6.1240230000000002
 50
42.215226999999999
 51
47.324558000000003
  0
ARC
  5
33A
  8
0
 62
     7
 10
95.842493000000005
 20
175.11555599999991
 30
0.0
 40
6.5809649999999991
 50
68.526011999999994
 51
89.952170999999993
  0
ARC
  5
33B
  8
0
 62
     7
 10
94.763497999999984
 20
169.15635099999989
 30
0.0
 40
11.867044999999999
 50
77.441338000000002
 51
79.351737999999997
  0
ARC
  5
33C
  8
0
 62
     7
 10
96.504376000000008
 20
177.30515299999999
 30
0.0
 40
3.535423999999999
 50
64.334342000000007
 51
76.264029000000008
  0
ARC
  5
33D
  8
0
 62
     7
 10
95.279426999999998
 20
174.35192000000001
 30
0.0
 40
6.7301060000000001
 50
63.050883999999989
 51
65.824418000000009
  0
ARC
  5
33E
  8
0
 62
     7
 10
96.680126999999999
 20
177.1349909999999
 30
0.0
 40
3.6144759999999998
 50
58.814998000000003
 51
62.849761999999998
  0
ARC
  5
33F
  8
0
 62
     7
 10
96.930272000000016
 20
177.5605459999999
 30
0.0
 40
3.1208949999999991
 50
55.619036999999999
 51
58.698343000000008
  0
ARC
  5
340
  8
0
 62
     7
 10
98.472669999999994
 20
179.81965999999991
 30
0.0
 40
0.385475
 50
44.545327
 51
55.208475
  0
ARC
  5
341
  8
0
 62
     7
 10
98.744350999999995
 20
180.0894909999999
 30
0.0
 40
0.003098
 50
246.62709899999999
 51
10.58685
  0
ARC
  5
342
  8
0
 62
     7
 10
98.776126000000005
 20
180.2497679999999
 30
0.0
 40
0.166427
 50
244.27601399999989
 51
258.56190800000002
  0
ARC
  5
343
  8
0
 62
     7
 10
99.419444999999996
 20
181.76225199999999
 30
0.0
 40
1.809874999999999
 50
244.075616
 51
246.7115179999999
  0
ARC
  5
344
  8
0
 62
     7
 10
94.873565999999997
 20
172.34941299999991
 30
0.0
 40
8.6431970000000007
 50
64.25269200000001
 51
66.817152000000021
  0
ARC
  5
345
  8
0
 62
     7
 10
95.686736999999994
 20
173.897391
 30
0.0
 40
6.9014769999999999
 50
67.963915
 51
70.999801000000005
  0
ARC
  5
346
  8
0
 62
     7
 10
96.092810000000014
 20
174.90115499999999
 30
0.0
 40
6.8961629999999996
 50
132.93715900000001
 51
137.4720649999999
  0
ARC
  5
347
  8
0
 62
     7
 10
95.853604000000004
 20
175.138238
 30
0.0
 40
6.5596619999999994
 50
113.61141000000001
 51
132.8181679999999
  0
LINE
  5
348
  8
0
 62
     7
 10
92.974100000000007
 20
180.97599999999991
 30
0.0
 11
92.862399999999994
 21
180.97599999999991
 31
0.0
  0
ARC
  5
349
  8
0
 62
     7
 10
97.129001000000002
 20
172.08397699999989
 30
0.0
 40
9.869218
 50
111.92021
 51
113.293825
  0
ARC
  5
34A
  8
0
 62
     7
 10
92.446612000000016
 20
180.86247599999999
 30
0.0
 40
0.15163
 50
301.05192499999993
 51
348.32565599999998
  0
LINE
  5
34B
  8
0
 62
     7
 10
92.794600000000003
 20
180.94099999999989
 30
0.0
 11
92.839699999999993
 21
180.9079999999999
 31
0.0
  0
ARC
  5
34C
  8
0
 62
     7
 10
95.842042000000006
 20
175.14277799999999
 30
0.0
 40
6.5456469999999989
 50
153.366435
 51
161.22453200000001
  0
ARC
  5
34D
  8
0
 62
     7
 10
95.854226999999995
 20
175.1449639999999
 30
0.0
 40
6.5555630000000003
 50
137.6329189999999
 51
153.43124800000001
  0
ARC
  5
34E
  8
0
 62
     7
 10
95.849262999999993
 20
175.13954799999999
 30
0.0
 40
6.5569699999999989
 50
90.011150999999984
 51
111.5136399999999
  0
ARC
  5
34F
  8
0
 62
     7
 10
95.848205000000007
 20
185.11538300000001
 30
0.0
 40
5.1800809999999986
 50
244.62884299999999
 51
295.52194400000002
  0
ARC
  5
350
  8
0
 62
     7
 10
108.052261
 20
145.35077599999991
 30
0.0
 40
37.879305000000002
 50
112.158339
 51
113.045107
  0
ARC
  5
351
  8
0
 62
     7
 10
96.839349999999996
 20
172.25163499999999
 30
0.0
 40
8.7384409999999981
 50
114.43798700000001
 51
115.65977100000001
  0
ARC
  5
352
  8
0
 62
     7
 10
92.432505000000006
 20
181.46442399999989
 30
0.0
 40
1.4741749999999989
 50
291.09339899999998
 51
294.99381199999999
  0
ARC
  5
353
  8
0
 62
     7
 10
92.954564000000005
 20
180.112435
 30
0.0
 40
0.024897
 50
255.33982
 51
289.91453899999999
  0
ARC
  5
354
  8
0
 62
     7
 10
92.964084
 20
180.0848949999999
 30
0.0
 40
0.016193
 50
122.562257
 51
167.68952200000001
  0
ARC
  5
355
  8
0
 62
     7
 10
93.262259999999998
 20
179.75479899999991
 30
0.0
 40
0.460807
 50
123.206079
 51
131.75812500000001
  0
ARC
  5
356
  8
0
 62
     7
 10
94.159053
 20
178.49204199999991
 30
0.0
 40
2.0093540000000001
 50
121.3969869999999
 51
124.883009
  0
ARC
  5
357
  8
0
 62
     7
 10
95.051107999999999
 20
177.06475399999991
 30
0.0
 40
3.692428
 50
118.383348
 51
121.67429299999991
  0
ARC
  5
358
  8
0
 62
     7
 10
95.519196999999991
 20
176.25595899999999
 30
0.0
 40
4.6265910000000003
 50
111.205626
 51
118.7219629999999
  0
ARC
  5
359
  8
0
 62
     7
 10
96.360637000000011
 20
173.96565200000001
 30
0.0
 40
7.0663169999999988
 50
107.4509139999999
 51
110.849046
  0
ARC
  5
35A
  8
0
 62
     7
 10
96.385343000000006
 20
173.92367400000001
 30
0.0
 40
7.1137809999999986
 50
105.901532
 51
107.5393549999999
  0
ARC
  5
35B
  8
0
 62
     7
 10
95.182939000000005
 20
178.0823729999999
 30
0.0
 40
2.7848290000000002
 50
100.201059
 51
105.552357
  0
ARC
  5
35C
  8
0
 62
     7
 10
93.528266000000002
 20
187.97333
 30
0.0
 40
7.2438690000000001
 50
279.22654899999998
 51
279.52758999999998
  0
LINE
  5
35D
  8
0
 62
     7
 10
87.848100000000002
 20
175.1459999999999
 30
0.0
 11
87.848100000000002
 21
189.61199999999991
 31
0.0
  0
LINE
  5
35E
  8
0
 62
     7
 10
102.0979999999999
 20
196.1459999999999
 30
0.0
 11
85.4499
 21
196.1459999999999
 31
0.0
  0
ARC
  5
35F
  8
0
 62
     7
 10
98.847377000000023
 20
173.09067099999999
 30
0.0
 40
2.9141180000000002
 50
324.54012699999993
 51
325.96630699999992
  0
ARC
  5
360
  8
0
 62
     7
 10
92.307481999999979
 20
177.47930600000001
 30
0.0
 40
10.790043000000001
 50
326.09030599999988
 51
327.02643799999993
  0
LINE
  5
361
  8
0
 62
     7
 10
100.848
 20
171.90700000000001
 30
0.0
 11
100.848
 21
172.18999999999991
 31
0.0
  0
LINE
  5
362
  8
0
 62
     7
 10
100.848
 20
172.18999999999991
 30
0.0
 11
100.848
 21
172.50999999999991
 31
0.0
  0
LINE
  5
363
  8
0
 62
     7
 10
100.875
 20
172.62200000000001
 30
0.0
 11
100.875
 21
172.62200000000001
 31
0.0
  0
LINE
  5
364
  8
0
 62
     7
 10
100.848
 20
172.50999999999991
 30
0.0
 11
100.8489999999999
 21
172.51900000000001
 31
0.0
  0
ARC
  5
365
  8
0
 62
     7
 10
100.985679
 20
172.519822
 30
0.0
 40
0.136762
 50
170.89507
 51
180.170613
  0
ARC
  5
366
  8
0
 62
     7
 10
101.04515000000001
 20
172.51641699999999
 30
0.0
 40
0.196116
 50
161.4324949999999
 51
172.662565
  0
ARC
  5
367
  8
0
 62
     7
 10
101.9180489999999
 20
172.21994699999991
 30
0.0
 40
1.1179859999999999
 50
158.937557
 51
161.27421100000001
  0
LINE
  5
368
  8
0
 62
     7
 10
100.965
 20
171.429
 30
0.0
 11
100.848
 21
171.547
 31
0.0
  0
ARC
  5
369
  8
0
 62
     7
 10
101.21114900000001
 20
171.73615899999999
 30
0.0
 40
0.393365
 50
231.3303159999999
 51
238.6856709999999
  0
ARC
  5
36A
  8
0
 62
     7
 10
101.0651799999999
 20
171.51243799999989
 30
0.0
 40
0.12665
 50
242.50238799999991
 51
266.92276699999991
  0
LINE
  5
36B
  8
0
 62
     7
 10
101.05800000000001
 20
171.38599999999991
 30
0.0
 11
101.0979999999999
 21
171.38800000000001
 31
0.0
  0
LINE
  5
36C
  8
0
 62
     7
 10
100.848
 20
171.547
 30
0.0
 11
100.848
 21
171.90700000000001
 31
0.0
  0
ARC
  5
36D
  8
0
 62
     7
 10
101.06986999999999
 20
171.5382239999999
 30
0.0
 40
0.153199
 50
280.71136299999989
 51
324.86209600000001
  0
ARC
  5
36E
  8
0
 62
     7
 10
96.444333999999998
 20
175.55836899999991
 30
0.0
 40
7.2743699999999993
 50
212.90296199999989
 51
214.29077699999991
  0
ARC
  5
36F
  8
0
 62
     7
 10
98.199400999999995
 20
176.77103600000001
 30
0.0
 40
9.4076039999999992
 50
214.3705589999999
 51
214.81405100000001
  0
LINE
  5
370
  8
0
 62
     7
 10
90.848399999999984
 20
172.50999999999991
 30
0.0
 11
90.848399999999984
 21
172.18999999999991
 31
0.0
  0
LINE
  5
371
  8
0
 62
     7
 10
90.848399999999984
 20
172.18999999999991
 30
0.0
 11
90.848399999999984
 21
171.90700000000001
 31
0.0
  0
ARC
  5
372
  8
0
 62
     7
 10
90.284211999999997
 20
172.41171900000001
 30
0.0
 40
0.5769300000000001
 50
12.996231
 51
21.347409999999989
  0
ARC
  5
373
  8
0
 62
     7
 10
90.651719999999997
 20
172.51209399999999
 30
0.0
 40
0.196848
 50
2.1312250000000001
 51
8.5804240000000007
  0
LINE
  5
374
  8
0
 62
     7
 10
90.848399999999984
 20
172.51900000000001
 30
0.0
 11
90.848399999999984
 21
172.50999999999991
 31
0.0
  0
LINE
  5
375
  8
0
 62
     7
 10
90.821600000000004
 20
172.62200000000001
 30
0.0
 11
90.821600000000004
 21
172.62200000000001
 31
0.0
  0
LINE
  5
376
  8
0
 62
     7
 10
90.598299999999995
 20
171.38800000000001
 30
0.0
 11
90.642799999999994
 21
171.38599999999991
 31
0.0
  0
ARC
  5
377
  8
0
 62
     7
 10
90.625488000000004
 20
171.53533999999991
 30
0.0
 40
0.150022
 50
276.61020000000002
 51
293.42653799999988
  0
ARC
  5
378
  8
0
 62
     7
 10
90.619450999999998
 20
171.541752
 30
0.0
 40
0.158334
 50
294.50864100000001
 51
310.36443300000002
  0
LINE
  5
379
  8
0
 62
     7
 10
90.721999999999994
 20
171.42099999999999
 30
0.0
 11
90.731300000000005
 21
171.429
 31
0.0
  0
LINE
  5
37A
  8
0
 62
     7
 10
90.848399999999984
 20
171.547
 30
0.0
 11
90.731300000000005
 21
171.429
 31
0.0
  0
LINE
  5
37B
  8
0
 62
     7
 10
90.848399999999984
 20
171.90700000000001
 30
0.0
 11
90.848399999999984
 21
171.547
 31
0.0
  0
ARC
  5
37C
  8
0
 62
     7
 10
90.624959000000004
 20
171.53538199999991
 30
0.0
 40
0.150072
 50
214.65289100000001
 51
259.77368899999988
  0
ARC
  5
37D
  8
0
 62
     7
 10
95.901938999999999
 20
175.16348400000001
 30
0.0
 40
8.0538790000000002
 50
180.12215199999989
 51
214.07161499999989
  0
ARC
  5
37E
  8
0
 62
     7
 10
95.962568000000005
 20
175.16066499999999
 30
0.0
 40
6.6542349999999999
 50
161.70437299999989
 51
212.2812319999999
  0
ARC
  5
37F
  8
0
 62
     7
 10
95.848133999999988
 20
175.1465969999999
 30
0.0
 40
5.6247949999999989
 50
111.74391299999991
 51
201.74161000000001
  0
ARC
  5
380
  8
0
 62
     7
 10
96.174099999999996
 20
175.29152199999999
 30
0.0
 40
5.9812719999999988
 50
201.874483
 51
206.50657200000001
  0
LINE
  5
381
  8
0
 62
     7
 10
102.0979999999999
 20
196.1459999999999
 30
0.0
 11
103.848
 21
196.1459999999999
 31
0.0
  0
ARC
  5
382
  8
0
 62
     7
 10
95.606842
 20
175.125744
 30
0.0
 40
6.7435770000000002
 50
328.54551400000003
 51
41.146827000000002
  0
ARC
  5
383
  8
0
 62
     7
 10
95.559692999999996
 20
175.05090000000001
 30
0.0
 40
5.8437199999999994
 50
335.441058
 51
61.226385000000001
  0
ARC
  5
384
  8
0
 62
     7
 10
95.919824000000006
 20
175.30293999999989
 30
0.0
 40
5.4529149999999991
 50
63.268886000000002
 51
68.350080000000005
  0
ARC
  5
385
  8
0
 62
     7
 10
95.848143999999991
 20
175.146423
 30
0.0
 40
6.5002820000000003
 50
325.343998
 51
55.339444999999991
  0
ARC
  5
386
  8
0
 62
     7
 10
95.848522999999986
 20
175.14603299999999
 30
0.0
 40
6.5003880000000001
 50
55.344150999999997
 51
145.34272599999991
  0
ARC
  5
387
  8
0
 62
     7
 10
96.053091000000009
 20
175.1463169999999
 30
0.0
 40
6.669516999999999
 50
146.3441489999999
 51
213.6558509999999
  0
LINE
  5
388
  8
0
 62
     7
 10
110.8489999999999
 20
196.54599999999999
 30
0.0
 11
110.8489999999999
 21
200.1459999999999
 31
0.0
  0
LINE
  5
389
  8
0
 62
     7
 10
94.722800000000007
 20
210.298
 30
0.0
 11
94.722800000000007
 21
202.1459999999999
 31
0.0
  0
ARC
  5
38A
  8
0
 62
     7
 10
110.43307799999999
 20
125.76866
 30
0.0
 40
0.41592
 50
2.1119789999999998
 51
87.937297000000001
  0
ARC
  5
38B
  8
0
 62
     7
 10
103.43331000000001
 20
118.768905
 30
0.0
 40
0.415208
 50
2.110773
 51
87.889217000000016
  0
ARC
  5
38C
  8
0
 62
     7
 10
103.433272
 20
103.098726
 30
0.0
 40
0.4152220000000001
 50
272.116062
 51
357.98264899999998
  0
LINE
  5
38D
  8
0
 62
     7
 10
103.848
 20
103.0839999999999
 30
0.0
 11
103.848
 21
118.78400000000001
 31
0.0
  0
ARC
  5
38E
  8
0
 62
     7
 10
110.432754
 20
96.599514999999997
 30
0.0
 40
0.416256
 50
272.10567900000001
 51
357.84504500000003
  0
LINE
  5
38F
  8
0
 62
     7
 10
98.305700000000016
 20
119.184
 30
0.0
 11
100.40299999999991
 21
119.184
 31
0.0
  0
LINE
  5
390
  8
0
 62
     7
 10
101.486
 20
119.184
 30
0.0
 11
102.13499999999991
 21
119.184
 31
0.0
  0
LINE
  5
391
  8
0
 62
     7
 10
100.40299999999991
 20
119.184
 30
0.0
 11
100.79600000000001
 21
119.184
 31
0.0
  0
LINE
  5
392
  8
0
 62
     7
 10
100.79600000000001
 20
119.184
 30
0.0
 11
101.4899999999999
 21
119.184
 31
0.0
  0
ARC
  5
393
  8
0
 62
     7
 10
101.1067069999999
 20
118.80435199999999
 30
0.0
 40
0.258865
 50
123.09415300000001
 51
178.970493
  0
ARC
  5
394
  8
0
 62
     7
 10
101.20322999999991
 20
118.5818409999999
 30
0.0
 40
0.499636
 50
113.1623159999999
 51
118.429711
  0
ARC
  5
395
  8
0
 62
     7
 10
101.10190900000001
 20
118.800702
 30
0.0
 40
0.25866
 50
99.687947999999992
 51
111.59652199999989
  0
LINE
  5
396
  8
0
 62
     7
 10
101.05800000000001
 20
119.056
 30
0.0
 11
101.0979999999999
 21
119.059
 31
0.0
  0
LINE
  5
397
  8
0
 62
     7
 10
101.0979999999999
 20
119.059
 30
0.0
 11
101.19499999999989
 21
119.059
 31
0.0
  0
ARC
  5
398
  8
0
 62
     7
 10
101.468642
 20
118.81852499999989
 30
0.0
 40
0.360849
 50
87.419910000000002
 51
95.635120000000015
  0
ARC
  5
399
  8
0
 62
     7
 10
101.462906
 20
119.0011639999999
 30
0.0
 40
0.178947
 50
99.552536000000003
 51
128.90292999999991
  0
ARC
  5
39A
  8
0
 62
     7
 10
101.5203419999999
 20
118.8951909999999
 30
0.0
 40
0.298289
 50
124.7012159999999
 51
143.26823099999999
  0
ARC
  5
39B
  8
0
 62
     7
 10
101.597775
 20
118.838178
 30
0.0
 40
0.394445
 50
143.3580179999999
 51
160.86450199999999
  0
ARC
  5
39C
  8
0
 62
     7
 10
101.661931
 20
118.8016439999999
 30
0.0
 40
0.4672270000000001
 50
159.21065999999999
 51
177.491389
  0
ARC
  5
39D
  8
0
 62
     7
 10
101.7123339999999
 20
118.8219279999999
 30
0.0
 40
0.517182
 50
179.981526
 51
184.183604
  0
LINE
  5
39E
  8
0
 62
     7
 10
90.598299999999995
 20
119.059
 30
0.0
 11
101.0979999999999
 21
119.059
 31
0.0
  0
LINE
  5
39F
  8
0
 62
     7
 10
102.13499999999991
 20
102.6839999999999
 30
0.0
 11
101.486
 21
102.6839999999999
 31
0.0
  0
LINE
  5
3A0
  8
0
 62
     7
 10
101.238
 20
103.0839999999999
 30
0.0
 11
101.194
 21
103.0839999999999
 31
0.0
  0
ARC
  5
3A1
  8
0
 62
     7
 10
101.1024449999999
 20
103.061605
 30
0.0
 40
0.254579
 50
180.67285799999999
 51
237.420536
  0
ARC
  5
3A2
  8
0
 62
     7
 10
101.0987639999999
 20
103.10748199999991
 30
0.0
 40
0.2982929999999999
 50
261.28323899999998
 51
269.91937100000001
  0
ARC
  5
3A3
  8
0
 62
     7
 10
101.0945049999999
 20
103.028819
 30
0.0
 40
0.220029
 50
247.84448800000001
 51
259.27477699999997
  0
ARC
  5
3A4
  8
0
 62
     7
 10
101.090457
 20
103.05275399999999
 30
0.0
 40
0.241008
 50
241.19190299999991
 51
250.8831439999999
  0
ARC
  5
3A5
  8
0
 62
     7
 10
101.09782
 20
103.0522949999999
 30
0.0
 40
0.244245
 50
237.158805
 51
239.62621699999991
  0
LINE
  5
3A6
  8
0
 62
     7
 10
101.19499999999989
 20
102.8089999999999
 30
0.0
 11
101.0979999999999
 21
102.8089999999999
 31
0.0
  0
ARC
  5
3A7
  8
0
 62
     7
 10
102.687692
 20
103.17420899999991
 30
0.0
 40
1.494912999999999
 50
183.4553479999999
 51
188.60882199999989
  0
ARC
  5
3A8
  8
0
 62
     7
 10
101.609106
 20
103.04024699999989
 30
0.0
 40
0.409455
 50
192.670028
 51
213.194208
  0
ARC
  5
3A9
  8
0
 62
     7
 10
101.5588179999999
 20
103.0072319999999
 30
0.0
 40
0.349298
 50
213.17844699999989
 51
232.544218
  0
ARC
  5
3AA
  8
0
 62
     7
 10
101.48377600000001
 20
102.9136529999999
 30
0.0
 40
0.229392
 50
233.2085249999999
 51
257.97002099999992
  0
LINE
  5
3AB
  8
0
 62
     7
 10
101.43600000000001
 20
102.68899999999989
 30
0.0
 11
101.486
 21
102.68899999999989
 31
0.0
  0
LINE
  5
3AC
  8
0
 62
     7
 10
101.485
 20
102.6839999999999
 30
0.0
 11
90.207000000000008
 21
102.6839999999999
 31
0.0
  0
LINE
  5
3AD
  8
0
 62
     7
 10
101.0979999999999
 20
102.8089999999999
 30
0.0
 11
90.598299999999995
 21
102.8089999999999
 31
0.0
  0
LINE
  5
3AE
  8
0
 62
     7
 10
100.848
 20
106.559
 30
0.0
 11
90.848399999999984
 21
106.559
 31
0.0
  0
LINE
  5
3AF
  8
0
 62
     7
 10
100.848
 20
103.0589999999999
 30
0.0
 11
100.848
 21
118.809
 31
0.0
  0
LINE
  5
3B0
  8
0
 62
     7
 10
101.194
 20
118.78400000000001
 30
0.0
 11
101.194
 21
103.0839999999999
 31
0.0
  0
LINE
  5
3B1
  8
0
 62
     7
 10
103.4489999999999
 20
102.6839999999999
 30
0.0
 11
102.13499999999991
 21
102.6839999999999
 31
0.0
  0
LINE
  5
3B2
  8
0
 62
     7
 10
102.13499999999991
 20
119.184
 30
0.0
 11
103.4489999999999
 21
119.184
 31
0.0
  0
LINE
  5
3B3
  8
0
 62
     7
 10
110.8489999999999
 20
125.78399999999991
 30
0.0
 11
110.8489999999999
 21
96.5839
 31
0.0
  0
LINE
  5
3B4
  8
0
 62
     7
 10
54.098300000000002
 20
205.14599999999999
 30
0.0
 11
55.506
 21
205.14599999999999
 31
0.0
  0
LINE
  5
3B5
  8
0
 62
     7
 10
55.506
 20
205.14599999999999
 30
0.0
 11
56.087200000000003
 21
204.565
 31
0.0
  0
LINE
  5
3B6
  8
0
 62
     7
 10
45.609200000000001
 20
204.565
 30
0.0
 11
46.190100000000001
 21
205.14599999999999
 31
0.0
  0
LINE
  5
3B7
  8
0
 62
     7
 10
46.190100000000001
 20
205.14599999999999
 30
0.0
 11
47.598399999999991
 21
205.14599999999999
 31
0.0
  0
LINE
  5
3B8
  8
0
 62
     7
 10
36.848300000000002
 20
200.1459999999999
 30
0.0
 11
36.848300000000002
 21
202.1459999999999
 31
0.0
  0
LINE
  5
3B9
  8
0
 62
     7
 10
44.348300000000002
 20
202.1459999999999
 30
0.0
 11
36.848300000000002
 21
202.1459999999999
 31
0.0
  0
LINE
  5
3BA
  8
0
 62
     7
 10
54.098300000000002
 20
205.14599999999999
 30
0.0
 11
47.598399999999991
 21
205.14599999999999
 31
0.0
  0
LINE
  5
3BB
  8
0
 62
     7
 10
45.609200000000001
 20
204.565
 30
0.0
 11
56.087200000000003
 21
204.565
 31
0.0
  0
LINE
  5
3BC
  8
0
 62
     7
 10
35.848199999999999
 20
200.1459999999999
 30
0.0
 11
36.248100000000001
 21
200.1459999999999
 31
0.0
  0
ARC
  5
3BD
  8
0
 62
     7
 10
29.668278999999998
 20
155.47852399999999
 30
0.0
 40
38.399531000000003
 50
42.554957999999999
 51
43.264741000000001
  0
ARC
  5
3BE
  8
0
 62
     7
 10
52.272618000000001
 20
176.3067439999999
 30
0.0
 40
7.6626560000000001
 50
39.710559000000003
 51
42.140576000000003
  0
ARC
  5
3BF
  8
0
 62
     7
 10
54.035915000000003
 20
177.74938299999999
 30
0.0
 40
5.3844940000000001
 50
38.213365000000003
 51
39.889226999999998
  0
ARC
  5
3C0
  8
0
 62
     7
 10
60.606350999999997
 20
180.240982
 30
0.0
 40
1.508122
 50
180.06643700000001
 51
207.51094999999989
  0
LINE
  5
3C1
  8
0
 62
     7
 10
59.098199999999991
 20
180.239
 30
0.0
 11
59.098199999999991
 21
196.1459999999999
 31
0.0
  0
ARC
  5
3C2
  8
0
 62
     7
 10
41.079603000000013
 20
180.24288100000001
 30
0.0
 40
1.5185869999999999
 50
332.61385699999988
 51
359.86238800000001
  0
ARC
  5
3C3
  8
0
 62
     7
 10
73.575676000000001
 20
153.27752199999989
 30
0.0
 40
41.038522999999991
 50
135.97833799999989
 51
136.257282
  0
ARC
  5
3C4
  8
0
 62
     7
 10
55.847003999999998
 20
170.5177459999999
 30
0.0
 40
16.311346
 50
136.9501919999999
 51
137.6532939999999
  0
ARC
  5
3C5
  8
0
 62
     7
 10
51.213569999999997
 20
174.80279400000001
 30
0.0
 40
10.000489
 50
137.9160029999999
 51
139.0626169999999
  0
ARC
  5
3C6
  8
0
 62
     7
 10
51.365879
 20
174.6798719999999
 30
0.0
 40
10.196092999999991
 50
139.10160999999999
 51
140.2292469999999
  0
ARC
  5
3C7
  8
0
 62
     7
 10
51.45973
 20
174.64457200000001
 30
0.0
 40
10.29086199999999
 50
140.41245900000001
 51
141.29050799999999
  0
LINE
  5
3C8
  8
0
 62
     7
 10
42.598199999999999
 20
180.239
 30
0.0
 11
42.598199999999999
 21
196.1459999999999
 31
0.0
  0
ARC
  5
3C9
  8
0
 62
     7
 10
50.848376000000002
 20
175.14618200000001
 30
0.0
 40
9.5001179999999987
 50
141.3453669999999
 51
231.342479
  0
ARC
  5
3CA
  8
0
 62
     7
 10
50.848103999999999
 20
175.14553100000001
 30
0.0
 40
9.4994390000000006
 50
231.34130400000001
 51
321.34656200000001
  0
ARC
  5
3CB
  8
0
 62
     7
 10
50.474366000000003
 20
175.14614399999991
 30
0.0
 40
9.7944600000000008
 50
322.70946600000002
 51
37.290534000000001
  0
ARC
  5
3CC
  8
0
 62
     7
 10
36.263444
 20
196.56164899999999
 30
0.0
 40
0.415558
 50
182.10972899999999
 51
267.89030000000002
  0
ARC
  5
3CD
  8
0
 62
     7
 10
36.263463000000002
 20
125.76902800000001
 30
0.0
 40
0.415565
 50
92.112336999999997
 51
177.93696199999999
  0
LINE
  5
3CE
  8
0
 62
     7
 10
35.848199999999999
 20
196.54599999999999
 30
0.0
 11
35.848199999999999
 21
200.1459999999999
 31
0.0
  0
ARC
  5
3CF
  8
0
 62
     7
 10
59.932515000000002
 20
120.7684899999999
 30
0.0
 40
0.4158840000000001
 50
2.1020929999999991
 51
87.799195999999995
  0
ARC
  5
3D0
  8
0
 62
     7
 10
59.933197999999997
 20
101.5987039999999
 30
0.0
 40
0.415203
 50
272.11011999999999
 51
357.88988899999998
  0
LINE
  5
3D1
  8
0
 62
     7
 10
60.348100000000002
 20
101.583
 30
0.0
 11
60.348100000000002
 21
120.78400000000001
 31
0.0
  0
ARC
  5
3D2
  8
0
 62
     7
 10
41.763597999999988
 20
120.76877899999999
 30
0.0
 40
0.41557
 50
92.112998000000005
 51
177.93630099999999
  0
LINE
  5
3D3
  8
0
 62
     7
 10
41.7483
 20
121.184
 30
0.0
 11
50.848199999999999
 21
121.184
 31
0.0
  0
ARC
  5
3D4
  8
0
 62
     7
 10
41.763234999999987
 20
101.59873399999989
 30
0.0
 40
0.41522
 50
182.1140769999999
 51
267.93532399999998
  0
LINE
  5
3D5
  8
0
 62
     7
 10
50.848199999999999
 20
101.184
 30
0.0
 11
41.7483
 21
101.184
 31
0.0
  0
LINE
  5
3D6
  8
0
 62
     7
 10
41.348300000000002
 20
120.78400000000001
 30
0.0
 11
41.348300000000002
 21
101.583
 31
0.0
  0
LINE
  5
3D7
  8
0
 62
     7
 10
59.948500000000003
 20
101.184
 30
0.0
 11
50.848199999999999
 21
101.184
 31
0.0
  0
LINE
  5
3D8
  8
0
 62
     7
 10
50.848199999999999
 20
121.184
 30
0.0
 11
59.948500000000003
 21
121.184
 31
0.0
  0
LINE
  5
3D9
  8
0
 62
     7
 10
55.506
 20
98.433899999999994
 30
0.0
 11
56.098199999999999
 21
99.459800000000001
 31
0.0
  0
LINE
  5
3DA
  8
0
 62
     7
 10
56.098199999999999
 20
99.459800000000001
 30
0.0
 11
56.098199999999999
 21
100.184
 31
0.0
  0
LINE
  5
3DB
  8
0
 62
     7
 10
55.508400000000002
 20
93.683800000000005
 30
0.0
 11
56.098199999999999
 21
94.273600000000002
 31
0.0
  0
LINE
  5
3DC
  8
0
 62
     7
 10
55.506
 20
93.683800000000005
 30
0.0
 11
55.506
 21
98.433899999999994
 31
0.0
  0
LINE
  5
3DD
  8
0
 62
     7
 10
56.098199999999999
 20
94.273600000000002
 30
0.0
 11
56.098199999999999
 21
99.459800000000001
 31
0.0
  0
LINE
  5
3DE
  8
0
 62
     7
 10
45.598199999999999
 20
99.459800000000001
 30
0.0
 11
46.190100000000001
 21
98.433899999999994
 31
0.0
  0
LINE
  5
3DF
  8
0
 62
     7
 10
45.598199999999999
 20
100.184
 30
0.0
 11
45.598199999999999
 21
99.459800000000001
 31
0.0
  0
LINE
  5
3E0
  8
0
 62
     7
 10
45.598199999999999
 20
99.459800000000001
 30
0.0
 11
50.848199999999999
 21
99.459800000000001
 31
0.0
  0
LINE
  5
3E1
  8
0
 62
     7
 10
45.598199999999999
 20
94.273600000000002
 30
0.0
 11
46.188299999999991
 21
93.683800000000005
 31
0.0
  0
LINE
  5
3E2
  8
0
 62
     7
 10
46.190100000000001
 20
98.433899999999994
 30
0.0
 11
46.190100000000001
 21
93.683800000000005
 31
0.0
  0
LINE
  5
3E3
  8
0
 62
     7
 10
45.598199999999999
 20
99.459800000000001
 30
0.0
 11
45.598199999999999
 21
94.273600000000002
 31
0.0
  0
LINE
  5
3E4
  8
0
 62
     7
 10
55.506
 20
98.433899999999994
 30
0.0
 11
46.190100000000001
 21
98.433899999999994
 31
0.0
  0
LINE
  5
3E5
  8
0
 62
     7
 10
45.598199999999999
 20
94.273600000000002
 30
0.0
 11
56.098199999999999
 21
94.273600000000002
 31
0.0
  0
LINE
  5
3E6
  8
0
 62
     7
 10
55.508400000000002
 20
93.683800000000005
 30
0.0
 11
46.188299999999991
 21
93.683800000000005
 31
0.0
  0
LINE
  5
3E7
  8
0
 62
     7
 10
50.848199999999999
 20
99.459800000000001
 30
0.0
 11
56.098199999999999
 21
99.459800000000001
 31
0.0
  0
ARC
  5
3E8
  8
0
 62
     7
 10
57.137276
 20
100.14470300000001
 30
0.0
 40
1.039796999999999
 50
92.126972999999978
 51
177.83352400000001
  0
ARC
  5
3E9
  8
0
 62
     7
 10
44.560183000000002
 20
100.14577199999989
 30
0.0
 40
1.0387150000000001
 50
2.1096710000000001
 51
87.890318999999991
  0
ARC
  5
3EA
  8
0
 62
     7
 10
36.263803000000003
 20
96.599160999999995
 30
0.0
 40
0.415916
 50
182.108036
 51
267.84266500000001
  0
LINE
  5
3EB
  8
0
 62
     7
 10
45.598199999999999
 20
96.183499999999995
 30
0.0
 11
36.248100000000001
 21
96.183499999999995
 31
0.0
  0
LINE
  5
3EC
  8
0
 62
     7
 10
35.848199999999999
 20
96.5839
 30
0.0
 11
35.848199999999999
 21
125.78399999999991
 31
0.0
  0
LINE
  5
3ED
  8
0
 62
     7
 10
110.44799999999989
 20
96.183499999999995
 30
0.0
 11
56.098199999999999
 21
96.183499999999995
 31
0.0
  0
LINE
  5
3EE
  8
0
 62
     7
 10
36.248100000000001
 20
126.184
 30
0.0
 11
110.44799999999989
 21
126.184
 31
0.0
  0
LINE
  5
3EF
  8
0
 62
     7
 10
85.4499
 20
196.1459999999999
 30
0.0
 11
36.248100000000001
 21
196.1459999999999
 31
0.0
  0
LINE
  5
3F0
  8
0
 62
     7
 10
109.848
 20
200.1459999999999
 30
0.0
 11
36.248100000000001
 21
200.1459999999999
 31
0.0
  0
LINE
  5
3F1
  8
0
 62
     7
 10
88.084800000000016
 20
202.1459999999999
 30
0.0
 11
44.348300000000002
 21
202.1459999999999
 31
0.0
  0
LINE
  5
3F2
  8
0
 62
     7
 10
134.96399999999991
 20
74.885099999999994
 30
0.0
 11
132.7529999999999
 21
74.292599999999993
 31
0.0
  0
LINE
  5
3F3
  8
0
 62
     7
 10
132.7529999999999
 20
74.292599999999993
 30
0.0
 11
134.96399999999991
 21
73.700000000000003
 31
0.0
  0
LINE
  5
3F4
  8
0
 62
     7
 10
134.96399999999991
 20
73.700000000000003
 30
0.0
 11
134.96399999999991
 21
74.885099999999994
 31
0.0
  0
LINE
  5
3F5
  8
0
 62
     7
 10
165.04199999999989
 20
73.714500000000001
 30
0.0
 11
167.25399999999999
 21
74.307000000000002
 31
0.0
  0
LINE
  5
3F6
  8
0
 62
     7
 10
167.25399999999999
 20
74.307000000000002
 30
0.0
 11
165.04199999999989
 21
74.899600000000007
 31
0.0
  0
LINE
  5
3F7
  8
0
 62
     7
 10
165.04199999999989
 20
74.899600000000007
 30
0.0
 11
165.04199999999989
 21
73.714500000000001
 31
0.0
  0
LINE
  5
3F8
  8
0
 62
     7
 10
132.7529999999999
 20
74.299800000000005
 30
0.0
 11
167.2529999999999
 21
74.299800000000005
 31
0.0
  0
LINE
  5
3F9
  8
0
 62
     7
 10
144.46399999999991
 20
86.127200000000016
 30
0.0
 11
142.25200000000001
 21
85.534700000000001
 31
0.0
  0
LINE
  5
3FA
  8
0
 62
     7
 10
142.25200000000001
 20
85.534700000000001
 30
0.0
 11
144.46399999999991
 21
84.942099999999996
 31
0.0
  0
LINE
  5
3FB
  8
0
 62
     7
 10
144.46399999999991
 20
84.942099999999996
 30
0.0
 11
144.46399999999991
 21
86.127200000000016
 31
0.0
  0
LINE
  5
3FC
  8
0
 62
     7
 10
165.04199999999989
 20
84.956599999999995
 30
0.0
 11
167.25399999999999
 21
85.549199999999999
 31
0.0
  0
LINE
  5
3FD
  8
0
 62
     7
 10
167.25399999999999
 20
85.549199999999999
 30
0.0
 11
165.04199999999989
 21
86.141699999999986
 31
0.0
  0
LINE
  5
3FE
  8
0
 62
     7
 10
165.04199999999989
 20
86.141699999999986
 30
0.0
 11
165.04199999999989
 21
84.956599999999995
 31
0.0
  0
LINE
  5
3FF
  8
0
 62
     7
 10
142.2529999999999
 20
85.541899999999998
 30
0.0
 11
167.2529999999999
 21
85.541899999999998
 31
0.0
  0
LINE
  5
400
  8
0
 62
     7
 10
142.2529999999999
 20
91.133700000000005
 30
0.0
 11
142.2529999999999
 21
84.841899999999995
 31
0.0
  0
LINE
  5
401
  8
0
 62
     7
 10
53.876800000000003
 20
213.16200000000001
 30
0.0
 11
56.087899999999991
 21
213.75399999999999
 31
0.0
  0
LINE
  5
402
  8
0
 62
     7
 10
56.087899999999991
 20
213.75399999999999
 30
0.0
 11
53.876800000000003
 21
214.34700000000001
 31
0.0
  0
LINE
  5
403
  8
0
 62
     7
 10
53.876800000000003
 20
214.34700000000001
 30
0.0
 11
53.876800000000003
 21
213.16200000000001
 31
0.0
  0
LINE
  5
404
  8
0
 62
     7
 10
47.819600000000001
 20
214.33199999999999
 30
0.0
 11
45.608499999999999
 21
213.7399999999999
 31
0.0
  0
LINE
  5
405
  8
0
 62
     7
 10
45.608499999999999
 20
213.7399999999999
 30
0.0
 11
47.819600000000001
 21
213.14699999999999
 31
0.0
  0
LINE
  5
406
  8
0
 62
     7
 10
47.819600000000001
 20
213.14699999999999
 30
0.0
 11
47.819600000000001
 21
214.33199999999999
 31
0.0
  0
LINE
  5
407
  8
0
 62
     7
 10
56.087200000000003
 20
213.7469999999999
 30
0.0
 11
45.609200000000001
 21
213.7469999999999
 31
0.0
  0
LINE
  5
408
  8
0
 62
     7
 10
45.609200000000001
 20
205.86500000000001
 30
0.0
 11
45.609200000000001
 21
214.447
 31
0.0
  0
LINE
  5
409
  8
0
 62
     7
 10
56.087200000000003
 20
205.86500000000001
 30
0.0
 11
56.087200000000003
 21
214.447
 31
0.0
  0
LINE
  5
40A
  8
0
 62
     7
 10
104.3989999999999
 20
102.6839999999999
 30
0.0
 11
119.32899999999989
 21
102.6839999999999
 31
0.0
  0
LINE
  5
40B
  8
0
 62
     7
 10
104.3989999999999
 20
119.184
 30
0.0
 11
119.32899999999989
 21
119.184
 31
0.0
  0
LINE
  5
40C
  8
0
 62
     7
 10
139.79300000000001
 20
80.506200000000007
 30
0.0
 11
137.58199999999999
 21
79.913600000000002
 31
0.0
  0
LINE
  5
40D
  8
0
 62
     7
 10
137.58199999999999
 20
79.913600000000002
 30
0.0
 11
139.79300000000001
 21
79.321100000000001
 31
0.0
  0
LINE
  5
40E
  8
0
 62
     7
 10
139.79300000000001
 20
79.321100000000001
 30
0.0
 11
139.79300000000001
 21
80.506200000000007
 31
0.0
  0
LINE
  5
40F
  8
0
 62
     7
 10
165.04199999999989
 20
79.335499999999996
 30
0.0
 11
167.25399999999999
 21
79.928100000000001
 31
0.0
  0
LINE
  5
410
  8
0
 62
     7
 10
167.25399999999999
 20
79.928100000000001
 30
0.0
 11
165.04199999999989
 21
80.520700000000005
 31
0.0
  0
LINE
  5
411
  8
0
 62
     7
 10
165.04199999999989
 20
80.520700000000005
 30
0.0
 11
165.04199999999989
 21
79.335499999999996
 31
0.0
  0
LINE
  5
412
  8
0
 62
     7
 10
137.583
 20
79.920900000000003
 30
0.0
 11
167.2529999999999
 21
79.920900000000003
 31
0.0
  0
LINE
  5
413
  8
0
 62
     7
 10
132.7529999999999
 20
100.428
 30
0.0
 11
132.7529999999999
 21
73.599800000000002
 31
0.0
  0
LINE
  5
414
  8
0
  6
AIGENLINE002
 62
     7
 10
167.2529999999999
 20
143.886
 30
0.0
 11
167.2529999999999
 21
90.062600000000003
 31
0.0
  0
LINE
  5
415
  8
0
 62
     7
 10
167.2529999999999
 20
89.3626
 30
0.0
 11
167.2529999999999
 21
73.599800000000002
 31
0.0
  0
LINE
  5
416
  8
0
 62
     7
 10
137.583
 20
102.383
 30
0.0
 11
137.583
 21
79.220799999999997
 31
0.0
  0
LINE
  5
417
  8
0
 62
     7
 10
124.88200000000001
 20
98.394599999999997
 30
0.0
 11
125.47499999999999
 21
96.183499999999995
 31
0.0
  0
LINE
  5
418
  8
0
 62
     7
 10
125.47499999999999
 20
96.183499999999995
 30
0.0
 11
126.06699999999999
 21
98.394599999999997
 31
0.0
  0
LINE
  5
419
  8
0
 62
     7
 10
126.06699999999999
 20
98.394599999999997
 30
0.0
 11
124.88200000000001
 21
98.394599999999997
 31
0.0
  0
LINE
  5
41A
  8
0
 62
     7
 10
126.0529999999999
 20
123.9739999999999
 30
0.0
 11
125.45999999999989
 21
126.185
 31
0.0
  0
LINE
  5
41B
  8
0
 62
     7
 10
125.45999999999989
 20
126.185
 30
0.0
 11
124.86799999999999
 21
123.9739999999999
 31
0.0
  0
LINE
  5
41C
  8
0
 62
     7
 10
124.86799999999999
 20
123.9739999999999
 30
0.0
 11
126.0529999999999
 21
123.9739999999999
 31
0.0
  0
LINE
  5
41D
  8
0
 62
     7
 10
125.467
 20
96.184200000000004
 30
0.0
 11
125.467
 21
126.184
 31
0.0
  0
LINE
  5
41E
  8
0
 62
     7
 10
95.847999999999985
 20
130.09200000000001
 30
0.0
 11
95.847999999999985
 21
136.1629999999999
 31
0.0
  0
LINE
  5
41F
  8
0
 62
     7
 10
73.347899999999996
 20
129.98799999999989
 30
0.0
 11
73.347899999999996
 21
136.1629999999999
 31
0.0
  0
LINE
  5
420
  8
0
 62
     7
 10
50.848199999999999
 20
129.14799999999991
 30
0.0
 11
50.848199999999999
 21
136.1629999999999
 31
0.0
  0
LINE
  5
421
  8
0
 62
     7
 10
118.04299999999991
 20
104.89399999999991
 30
0.0
 11
118.636
 21
102.68299999999989
 31
0.0
  0
LINE
  5
422
  8
0
 62
     7
 10
118.636
 20
102.68299999999989
 30
0.0
 11
119.22799999999999
 21
104.89399999999991
 31
0.0
  0
LINE
  5
423
  8
0
 62
     7
 10
119.22799999999999
 20
104.89399999999991
 30
0.0
 11
118.04299999999991
 21
104.89399999999991
 31
0.0
  0
LINE
  5
424
  8
0
 62
     7
 10
119.2139999999999
 20
123.9739999999999
 30
0.0
 11
118.621
 21
126.185
 31
0.0
  0
LINE
  5
425
  8
0
 62
     7
 10
118.621
 20
126.185
 30
0.0
 11
118.029
 21
123.9739999999999
 31
0.0
  0
LINE
  5
426
  8
0
 62
     7
 10
118.029
 20
123.9739999999999
 30
0.0
 11
119.2139999999999
 21
123.9739999999999
 31
0.0
  0
LINE
  5
427
  8
0
 62
     7
 10
118.6279999999999
 20
102.6839999999999
 30
0.0
 11
118.6279999999999
 21
126.184
 31
0.0
  0
LINE
  5
428
  8
0
 62
     7
 10
111.399
 20
96.184200000000004
 30
0.0
 11
126.167
 21
96.184200000000004
 31
0.0
  0
LINE
  5
429
  8
0
 62
     7
 10
111.399
 20
126.184
 30
0.0
 11
126.167
 21
126.184
 31
0.0
  0
LINE
  5
42A
  8
0
 62
     7
 10
31.435300000000002
 20
193.935
 30
0.0
 11
30.8428
 21
196.1459999999999
 31
0.0
  0
LINE
  5
42B
  8
0
 62
     7
 10
30.8428
 20
196.1459999999999
 30
0.0
 11
30.2502
 21
193.935
 31
0.0
  0
LINE
  5
42C
  8
0
 62
     7
 10
30.2502
 20
193.935
 30
0.0
 11
31.435300000000002
 21
193.935
 31
0.0
  0
LINE
  5
42D
  8
0
 62
     7
 10
30.2502
 20
202.35799999999989
 30
0.0
 11
30.8428
 21
200.1459999999999
 31
0.0
  0
LINE
  5
42E
  8
0
 62
     7
 10
30.8428
 20
200.1459999999999
 30
0.0
 11
31.435300000000002
 21
202.35799999999989
 31
0.0
  0
LINE
  5
42F
  8
0
 62
     7
 10
31.435300000000002
 20
202.35799999999989
 30
0.0
 11
30.2502
 21
202.35799999999989
 31
0.0
  0
LINE
  5
430
  8
0
 62
     7
 10
30.8428
 20
203.553
 30
0.0
 11
30.8428
 21
192.8309999999999
 31
0.0
  0
LINE
  5
431
  8
0
 62
     7
 10
35.298000000000002
 20
196.1459999999999
 30
0.0
 11
30.142700000000001
 21
196.1459999999999
 31
0.0
  0
LINE
  5
432
  8
0
 62
     7
 10
34.898299999999992
 20
200.1459999999999
 30
0.0
 11
30.142700000000001
 21
200.1459999999999
 31
0.0
  0
LINE
  5
433
  8
0
 62
     7
 10
28.933
 20
101.184
 30
0.0
 11
40.452099999999987
 21
101.184
 31
0.0
  0
LINE
  5
434
  8
0
 62
     7
 10
53.887799999999999
 20
84.598600000000005
 30
0.0
 11
56.0989
 21
85.191199999999995
 31
0.0
  0
LINE
  5
435
  8
0
 62
     7
 10
56.0989
 20
85.191199999999995
 30
0.0
 11
53.887799999999999
 21
85.783800000000014
 31
0.0
  0
LINE
  5
436
  8
0
 62
     7
 10
53.887799999999999
 20
85.783800000000014
 30
0.0
 11
53.887799999999999
 21
84.598600000000005
 31
0.0
  0
LINE
  5
437
  8
0
 62
     7
 10
47.808599999999991
 20
85.769300000000001
 30
0.0
 11
45.597499999999997
 21
85.176699999999997
 31
0.0
  0
LINE
  5
438
  8
0
 62
     7
 10
45.597499999999997
 20
85.176699999999997
 30
0.0
 11
47.808599999999991
 21
84.584199999999996
 31
0.0
  0
LINE
  5
439
  8
0
 62
     7
 10
47.808599999999991
 20
84.584199999999996
 30
0.0
 11
47.808599999999991
 21
85.769300000000001
 31
0.0
  0
LINE
  5
43A
  8
0
 62
     7
 10
56.098199999999999
 20
85.183999999999983
 30
0.0
 11
45.598199999999999
 21
85.183999999999983
 31
0.0
  0
LINE
  5
43B
  8
0
 62
     7
 10
45.598199999999999
 20
93.324100000000016
 30
0.0
 11
45.598199999999999
 21
84.483900000000006
 31
0.0
  0
LINE
  5
43C
  8
0
 62
     7
 10
56.098199999999999
 20
93.324100000000016
 30
0.0
 11
56.098199999999999
 21
84.483900000000006
 31
0.0
  0
LINE
  5
43D
  8
0
 62
     7
 10
28.933
 20
93.683800000000005
 30
0.0
 11
45.159299999999988
 21
93.683800000000005
 31
0.0
  0
LINE
  5
43E
  8
0
 62
     7
 10
118.036
 20
121.395
 30
0.0
 11
118.6279999999999
 21
119.184
 31
0.0
  0
LINE
  5
43F
  8
0
 62
     7
 10
118.6279999999999
 20
119.184
 30
0.0
 11
119.221
 21
121.395
 31
0.0
  0
LINE
  5
440
  8
0
 62
     7
 10
119.221
 20
121.395
 30
0.0
 11
118.036
 21
121.395
 31
0.0
  0
LINE
  5
441
  8
0
 62
     7
 10
119.221
 20
116.9729999999999
 30
0.0
 11
118.6279999999999
 21
119.184
 31
0.0
  0
LINE
  5
442
  8
0
 62
     7
 10
118.6279999999999
 20
119.184
 30
0.0
 11
118.036
 21
116.9729999999999
 31
0.0
  0
LINE
  5
443
  8
0
 62
     7
 10
118.036
 20
116.9729999999999
 30
0.0
 11
119.221
 21
116.9729999999999
 31
0.0
  0
LINE
  5
444
  8
0
 62
     7
 10
29.165199999999999
 20
123.3949999999999
 30
0.0
 11
29.7577
 21
121.184
 31
0.0
  0
LINE
  5
445
  8
0
 62
     7
 10
29.7577
 20
121.184
 30
0.0
 11
30.350300000000001
 21
123.3949999999999
 31
0.0
  0
LINE
  5
446
  8
0
 62
     7
 10
30.350300000000001
 20
123.3949999999999
 30
0.0
 11
29.165199999999999
 21
123.3949999999999
 31
0.0
  0
LINE
  5
447
  8
0
 62
     7
 10
29.165199999999999
 20
103.3949999999999
 30
0.0
 11
29.7577
 21
101.184
 31
0.0
  0
LINE
  5
448
  8
0
 62
     7
 10
29.7577
 20
101.184
 30
0.0
 11
30.350300000000001
 21
103.3949999999999
 31
0.0
  0
LINE
  5
449
  8
0
 62
     7
 10
30.350300000000001
 20
103.3949999999999
 30
0.0
 11
29.165199999999999
 21
103.3949999999999
 31
0.0
  0
LINE
  5
44A
  8
0
 62
     7
 10
29.172399999999989
 20
95.894199999999998
 30
0.0
 11
29.765000000000001
 21
93.683099999999996
 31
0.0
  0
LINE
  5
44B
  8
0
 62
     7
 10
29.765000000000001
 20
93.683099999999996
 30
0.0
 11
30.357500000000002
 21
95.894199999999998
 31
0.0
  0
LINE
  5
44C
  8
0
 62
     7
 10
30.357500000000002
 20
95.894199999999998
 30
0.0
 11
29.172399999999989
 21
95.894199999999998
 31
0.0
  0
LINE
  5
44D
  8
0
 62
     7
 10
30.350300000000001
 20
98.972700000000003
 30
0.0
 11
29.7577
 21
101.184
 31
0.0
  0
LINE
  5
44E
  8
0
 62
     7
 10
29.7577
 20
101.184
 30
0.0
 11
29.165199999999999
 21
98.972700000000003
 31
0.0
  0
LINE
  5
44F
  8
0
 62
     7
 10
29.165199999999999
 20
98.972700000000003
 30
0.0
 11
30.350300000000001
 21
98.972700000000003
 31
0.0
  0
LINE
  5
450
  8
0
 62
     7
 10
30.350300000000001
 20
118.9729999999999
 30
0.0
 11
29.7577
 21
121.184
 31
0.0
  0
LINE
  5
451
  8
0
 62
     7
 10
29.7577
 20
121.184
 30
0.0
 11
29.165199999999999
 21
118.9729999999999
 31
0.0
  0
LINE
  5
452
  8
0
 62
     7
 10
29.165199999999999
 20
118.9729999999999
 30
0.0
 11
30.350300000000001
 21
118.9729999999999
 31
0.0
  0
LINE
  5
453
  8
0
 62
     7
 10
30.343
 20
123.9739999999999
 30
0.0
 11
29.750499999999992
 21
126.185
 31
0.0
  0
LINE
  5
454
  8
0
 62
     7
 10
29.750499999999992
 20
126.185
 30
0.0
 11
29.157900000000001
 21
123.9739999999999
 31
0.0
  0
LINE
  5
455
  8
0
 62
     7
 10
29.157900000000001
 20
123.9739999999999
 30
0.0
 11
30.343
 21
123.9739999999999
 31
0.0
  0
LINE
  5
456
  8
0
 62
     7
 10
29.7577
 20
93.683800000000005
 30
0.0
 11
29.7577
 21
126.184
 31
0.0
  0
LINE
  5
457
  8
0
 62
     7
 10
28.933
 20
126.184
 30
0.0
 11
35.148099999999999
 21
126.184
 31
0.0
  0
LINE
  5
458
  8
0
 62
     7
 10
28.933
 20
121.184
 30
0.0
 11
40.452099999999987
 21
121.184
 31
0.0
  0
LINE
  5
459
  8
0
 62
     7
 10
98.059799999999996
 20
136.05500000000001
 30
0.0
 11
95.847999999999985
 21
135.46299999999999
 31
0.0
  0
LINE
  5
45A
  8
0
 62
     7
 10
95.847999999999985
 20
135.46299999999999
 30
0.0
 11
98.059799999999996
 21
134.87
 31
0.0
  0
LINE
  5
45B
  8
0
 62
     7
 10
98.059799999999996
 20
134.87
 30
0.0
 11
98.059799999999996
 21
136.05500000000001
 31
0.0
  0
LINE
  5
45C
  8
0
 62
     7
 10
93.636899999999997
 20
134.87
 30
0.0
 11
95.847999999999985
 21
135.46299999999999
 31
0.0
  0
LINE
  5
45D
  8
0
 62
     7
 10
95.847999999999985
 20
135.46299999999999
 30
0.0
 11
93.636899999999997
 21
136.05500000000001
 31
0.0
  0
LINE
  5
45E
  8
0
 62
     7
 10
93.636899999999997
 20
136.05500000000001
 30
0.0
 11
93.636899999999997
 21
134.87
 31
0.0
  0
LINE
  5
45F
  8
0
 62
     7
 10
75.559700000000007
 20
136.05500000000001
 30
0.0
 11
73.347899999999996
 21
135.46299999999999
 31
0.0
  0
LINE
  5
460
  8
0
 62
     7
 10
73.347899999999996
 20
135.46299999999999
 30
0.0
 11
75.559700000000007
 21
134.87
 31
0.0
  0
LINE
  5
461
  8
0
 62
     7
 10
75.559700000000007
 20
134.87
 30
0.0
 11
75.559700000000007
 21
136.05500000000001
 31
0.0
  0
LINE
  5
462
  8
0
 62
     7
 10
71.136799999999994
 20
134.87
 30
0.0
 11
73.347899999999996
 21
135.46299999999999
 31
0.0
  0
LINE
  5
463
  8
0
 62
     7
 10
73.347899999999996
 20
135.46299999999999
 30
0.0
 11
71.136799999999994
 21
136.05500000000001
 31
0.0
  0
LINE
  5
464
  8
0
 62
     7
 10
71.136799999999994
 20
136.05500000000001
 30
0.0
 11
71.136799999999994
 21
134.87
 31
0.0
  0
LINE
  5
465
  8
0
 62
     7
 10
53.060000000000002
 20
136.05500000000001
 30
0.0
 11
50.848199999999999
 21
135.46299999999999
 31
0.0
  0
LINE
  5
466
  8
0
 62
     7
 10
50.848199999999999
 20
135.46299999999999
 30
0.0
 11
53.060000000000002
 21
134.87
 31
0.0
  0
LINE
  5
467
  8
0
 62
     7
 10
53.060000000000002
 20
134.87
 30
0.0
 11
53.060000000000002
 21
136.05500000000001
 31
0.0
  0
LINE
  5
468
  8
0
 62
     7
 10
38.058900000000001
 20
136.048
 30
0.0
 11
35.84709999999999
 21
135.45599999999999
 31
0.0
  0
LINE
  5
469
  8
0
 62
     7
 10
35.84709999999999
 20
135.45599999999999
 30
0.0
 11
38.058900000000001
 21
134.86299999999989
 31
0.0
  0
LINE
  5
46A
  8
0
 62
     7
 10
38.058900000000001
 20
134.86299999999989
 30
0.0
 11
38.058900000000001
 21
136.048
 31
0.0
  0
LINE
  5
46B
  8
0
 62
     7
 10
48.637099999999997
 20
134.87
 30
0.0
 11
50.848199999999999
 21
135.46299999999999
 31
0.0
  0
LINE
  5
46C
  8
0
 62
     7
 10
50.848199999999999
 20
135.46299999999999
 30
0.0
 11
48.637099999999997
 21
136.05500000000001
 31
0.0
  0
LINE
  5
46D
  8
0
 62
     7
 10
48.637099999999997
 20
136.05500000000001
 30
0.0
 11
48.637099999999997
 21
134.87
 31
0.0
  0
LINE
  5
46E
  8
0
 62
     7
 10
108.63799999999991
 20
134.8779999999999
 30
0.0
 11
110.8489999999999
 21
135.47
 31
0.0
  0
LINE
  5
46F
  8
0
 62
     7
 10
110.8489999999999
 20
135.47
 30
0.0
 11
108.63799999999991
 21
136.06299999999999
 31
0.0
  0
LINE
  5
470
  8
0
 62
     7
 10
108.63799999999991
 20
136.06299999999999
 30
0.0
 11
108.63799999999991
 21
134.8779999999999
 31
0.0
  0
LINE
  5
471
  8
0
 62
     7
 10
35.848199999999999
 20
135.46299999999999
 30
0.0
 11
110.8489999999999
 21
135.46299999999999
 31
0.0
  0
LINE
  5
472
  8
0
 62
     7
 10
38.058900000000001
 20
143.08500000000001
 30
0.0
 11
35.84709999999999
 21
142.49199999999999
 31
0.0
  0
LINE
  5
473
  8
0
 62
     7
 10
35.84709999999999
 20
142.49199999999999
 30
0.0
 11
38.058900000000001
 21
141.90000000000001
 31
0.0
  0
LINE
  5
474
  8
0
 62
     7
 10
38.058900000000001
 20
141.90000000000001
 30
0.0
 11
38.058900000000001
 21
143.08500000000001
 31
0.0
  0
LINE
  5
475
  8
0
 62
     7
 10
108.63799999999991
 20
141.9139999999999
 30
0.0
 11
110.8489999999999
 21
142.50700000000001
 31
0.0
  0
LINE
  5
476
  8
0
 62
     7
 10
110.8489999999999
 20
142.50700000000001
 30
0.0
 11
108.63799999999991
 21
143.0989999999999
 31
0.0
  0
LINE
  5
477
  8
0
 62
     7
 10
108.63799999999991
 20
143.0989999999999
 30
0.0
 11
108.63799999999991
 21
141.9139999999999
 31
0.0
  0
LINE
  5
478
  8
0
 62
     7
 10
35.848199999999999
 20
142.5
 30
0.0
 11
110.8489999999999
 21
142.5
 31
0.0
  0
LINE
  5
479
  8
0
 62
     7
 10
110.8489999999999
 20
126.7339999999999
 30
0.0
 11
110.8489999999999
 21
143.1999999999999
 31
0.0
  0
LINE
  5
47A
  8
0
 62
     7
 10
35.848199999999999
 20
126.7339999999999
 30
0.0
 11
35.848199999999999
 21
143.1999999999999
 31
0.0
  0
LINE
  5
47B
  8
0
  6
AIGENLINE001
 62
     7
 10
34.440100000000001
 20
111.1839999999999
 30
0.0
 11
111.80499999999989
 21
111.1839999999999
 31
0.0
  0
LINE
  5
47C
  8
0
  6
AIGENLINE001
 62
     7
 10
73.347899999999996
 20
129.2879999999999
 30
0.0
 11
73.347899999999996
 21
93.445400000000006
 31
0.0
  0
LINE
  5
47D
  8
0
  6
AIGENLINE001
 62
     7
 10
142.2529999999999
 20
91.833699999999993
 30
0.0
 11
142.2529999999999
 21
123.41200000000001
 31
0.0
  0
LINE
  5
47E
  8
0
  6
AIGENLINE001
 62
     7
 10
131.6699999999999
 20
111.1839999999999
 30
0.0
 11
180.68599999999989
 21
111.1839999999999
 31
0.0
  0
LINE
  5
47F
  8
0
  6
AIGENLINE001
 62
     7
 10
95.847999999999985
 20
129.39199999999991
 30
0.0
 11
95.847999999999985
 21
92.825199999999995
 31
0.0
  0
LINE
  5
480
  8
0
  6
AIGENLINE001
 62
     7
 10
85.098200000000006
 20
175.1459999999999
 30
0.0
 11
106.52200000000001
 21
175.1459999999999
 31
0.0
  0
LINE
  5
481
  8
0
  6
AIGENLINE001
 62
     7
 10
95.847999999999985
 20
169.554
 30
0.0
 11
95.847999999999985
 21
211.87899999999999
 31
0.0
  0
LINE
  5
482
  8
0
  6
AIGENLINE001
 62
     7
 10
40.098100000000002
 20
175.1459999999999
 30
0.0
 11
61.522199999999991
 21
175.1459999999999
 31
0.0
  0
LINE
  5
483
  8
0
  6
AIGENLINE001
 62
     7
 10
50.848199999999999
 20
164.19799999999989
 30
0.0
 11
50.848199999999999
 21
206.68199999999999
 31
0.0
  0
LINE
  5
484
  8
0
  6
AIGENLINE001
 62
     7
 10
50.848199999999999
 20
128.44799999999989
 30
0.0
 11
50.848199999999999
 21
90.465299999999999
 31
0.0
  0
LINE
  5
485
  8
_________2
 62
     7
 10
205.30099999999999
 20
127.411
 30
0.0
 11
183.55000000000001
 21
127.411
 31
0.0
  0
LINE
  5
486
  8
_________2
 62
     7
 10
100.2999999999999
 20
-4.0910799999999998
 30
0.0
 11
100.2999999999999
 21
-21.071400000000001
 31
0.0
  0
LINE
  5
487
  8
_________2
 62
     7
 10
100.2999999999999
 20
275.93000000000001
 30
0.0
 11
100.2999999999999
 21
258.911
 31
0.0
  0
LINE
  5
488
  8
_________2
 62
     7
 10
17.049499999999998
 20
127.411
 30
0.0
 11
-4.70052
 21
127.411
 31
0.0
  0
LINE
  5
489
  8
_________2
 62
     7
 10
76.741
 20
29.8047
 30
0.0
 11
74.554699999999997
 21
29.8047
 31
0.0
  0
LINE
  5
48A
  8
_________2
 62
     7
 10
77.233699999999999
 20
29.8047
 30
0.0
 11
76.981499999999997
 21
29.8047
 31
0.0
  0
LINE
  5
48B
  8
_________2
 62
     7
 10
77.726299999999995
 20
29.8047
 30
0.0
 11
80.651200000000003
 21
29.8047
 31
0.0
  0
LINE
  5
48C
  8
_________2
 62
     7
 10
77.233699999999999
 20
29.8047
 30
0.0
 11
77.485500000000002
 21
29.8047
 31
0.0
  0
LINE
  5
48D
  8
_________2
 62
     7
 10
70.837100000000007
 20
29.8047
 30
0.0
 11
68.650499999999994
 21
29.8047
 31
0.0
  0
LINE
  5
48E
  8
_________2
 62
     7
 10
71.329400000000007
 20
29.8047
 30
0.0
 11
71.077600000000004
 21
29.8047
 31
0.0
  0
LINE
  5
48F
  8
_________2
 62
     7
 10
71.329400000000007
 20
30.2974
 30
0.0
 11
71.329400000000007
 21
32.484400000000001
 31
0.0
  0
LINE
  5
490
  8
_________2
 62
     7
 10
71.329400000000007
 20
29.8047
 30
0.0
 11
71.329400000000007
 21
30.056899999999992
 31
0.0
  0
LINE
  5
491
  8
_________2
 62
     7
 10
71.822100000000006
 20
29.8047
 30
0.0
 11
74.009
 21
29.8047
 31
0.0
  0
LINE
  5
492
  8
_________2
 62
     7
 10
71.329400000000007
 20
29.8047
 30
0.0
 11
71.581599999999995
 21
29.8047
 31
0.0
  0
LINE
  5
493
  8
_________2
 62
     7
 10
71.329400000000007
 20
29.312799999999999
 30
0.0
 11
71.329400000000007
 21
27.125800000000002
 31
0.0
  0
LINE
  5
494
  8
_________2
 62
     7
 10
71.329400000000007
 20
29.8047
 30
0.0
 11
71.329400000000007
 21
29.5532
 31
0.0
  0
LINE
  5
495
  8
_________2
 62
     7
 10
75.040499999999994
 20
28.5852
 30
0.0
 11
80.218500000000006
 21
27.720400000000001
 31
0.0
  0
LINE
  5
496
  8
_________2
 62
     7
 10
75.040499999999994
 20
31.0243
 30
0.0
 11
80.218500000000006
 21
31.889700000000001
 31
0.0
  0
LINE
  5
497
  8
_________2
 62
     7
 10
80.218500000000006
 20
27.720400000000001
 30
0.0
 11
80.218500000000006
 21
31.889700000000001
 31
0.0
  0
LINE
  5
498
  8
_________2
 62
     7
 10
75.040499999999994
 20
28.5852
 30
0.0
 11
75.040499999999994
 21
31.0243
 31
0.0
  0
ARC
  5
499
  8
_________2
 62
     7
 10
71.28285600000001
 20
29.757811
 30
0.0
 40
1.2673589999999999
 50
2.122214
 51
87.893958999999995
  0
ARC
  5
49A
  8
_________2
 62
     7
 10
71.375959999999992
 20
29.758213000000001
 30
0.0
 40
1.2669559999999991
 50
92.104701000000006
 51
177.8952689999999
  0
ARC
  5
49B
  8
_________2
 62
     7
 10
71.376357999999996
 20
29.851671
 30
0.0
 40
1.2673680000000001
 50
182.12203600000001
 51
267.877993
  0
ARC
  5
49C
  8
_________2
 62
     7
 10
71.282531999999989
 20
29.851998999999989
 30
0.0
 40
1.267695999999999
 50
272.12015300000002
 51
357.863674
  0
ARC
  5
49D
  8
_________2
 62
     7
 10
71.329430000000002
 20
29.804742999999998
 30
0.0
 40
2.0849849999999992
 50
0.00001
 51
89.999980000000008
  0
ARC
  5
49E
  8
_________2
 62
     7
 10
71.329603000000006
 20
29.804915000000001
 30
0.0
 40
2.084813
 50
90.004733999999999
 51
180.00474399999999
  0
ARC
  5
49F
  8
_________2
 62
     7
 10
71.409106000000008
 20
29.884775999999999
 30
0.0
 40
2.1657950000000001
 50
182.11776599999999
 51
267.89173399999999
  0
ARC
  5
4A0
  8
_________2
 62
     7
 10
71.249459000000002
 20
29.885429999999989
 30
0.0
 40
2.1664590000000001
 50
272.11546800000002
 51
357.86560400000002
  0
TEXT
  5
4A1
  8
_________2
 62
     7
 10
104.605
 20
1.6794899999999999
 30
0.0
 40
3.660169999999999
  1
図番
 41
0.5
  0
LINE
  5
4A2
  8
_________2
 62
     7
 10
103.55
 20
5.9087199999999989
 30
0.0
 11
183.55099999999999
 21
5.9087199999999989
 31
0.0
  0
TEXT
  5
4A3
  8
_________2
 62
     7
 10
104.605
 20
11.679299999999991
 30
0.0
 40
3.660169999999999
  1
品番
 41
0.5
  0
TEXT
  5
4A4
  8
_________2
 62
     7
 10
104.605
 20
31.818100000000001
 30
0.0
 40
3.660169999999999
  1
名称
 41
0.5
  0
TEXT
  5
4A5
  8
_________2
 62
     7
 10
91.565445833333328
 20
26.821999999999989
 30
0.0
 40
4.3256500000000004
  1
mm
 41
0.5
 72
     1
 11
93.367800000000003
 21
26.821999999999989
 31
0.0
  0
TEXT
  5
4A6
  8
_________2
 62
     7
 10
85.643199999999993
 20
31.818100000000001
 30
0.0
 40
3.660169999999999
  1
単位
 41
0.5
  0
TEXT
  5
4A7
  8
_________2
 62
     7
 10
85.643199999999993
 20
19.410799999999991
 30
0.0
 40
3.660169999999999
  1
尺度
 41
0.5
  0
TEXT
  5
4A8
  8
_________2
 62
     7
 10
89.922426666666667
 20
13.2179
 30
0.0
 40
4.3256500000000004
  1
1 ： 2
 41
0.5
 72
     1
 11
93.959699999999998
 21
13.2179
 31
0.0
  0
TEXT
  5
4A9
  8
_________2
 62
     7
 10
136.3683154166666
 20
9.1078600000000005
 30
0.0
 40
4.6583899999999989
  1
CET8061
 41
0.5
 72
     1
 11
143.55000000000001
 21
9.1078600000000005
 31
0.0
  0
TEXT
  5
4AA
  8
_________2
 62
     7
 10
136.3683154166666
 20
-0.8926299999999999
 30
0.0
 40
4.6583899999999989
  1
CET8061
 41
0.5
 72
     1
 11
143.55000000000001
 21
-0.8926299999999999
 31
0.0
  0
TEXT
  5
4AB
  8
_________2
 62
     7
 10
24.5868
 20
0.707283
 30
0.0
 40
4.6583899999999989
  1
逆止弁付
 41
0.5
  0
TEXT
  5
4AC
  8
_________2
 62
     7
 10
109.179
 20
24.2257
 30
0.0
 40
4.6583899999999989
  1
C1 取出金具付シャワーホルダー
 41
0.5
  0
TEXT
  5
4AD
  8
_________2
 62
     7
 10
39.078580833333334
 20
13.603
 30
0.0
 40
4.3256500000000004
  1
早川
 41
0.5
 72
     1
 11
41.313499999999998
 21
13.603
 31
0.0
  0
TEXT
  5
4AE
  8
_________2
 62
     7
 10
20.504280833333329
 20
13.603
 30
0.0
 40
4.3256500000000004
  1
西田
 41
0.5
 72
     1
 11
22.73919999999999
 21
13.603
 31
0.0
  0
TEXT
  5
4AF
  8
_________2
 62
     7
 10
67.785399999999996
 20
13.2179
 30
0.0
 40
4.3256500000000004
  1
15.01.06
 41
0.5
  0
TEXT
  5
4B0
  8
_________2
 62
     7
 10
66.593100000000007
 20
19.410799999999991
 30
0.0
 40
3.660169999999999
  1
日付
 41
0.5
  0
TEXT
  5
4B1
  8
_________2
 62
     7
 10
29.639399999999998
 20
19.410799999999991
 30
0.0
 40
3.660169999999999
  1
検図
 41
0.5
  0
TEXT
  5
4B2
  8
_________2
 62
     7
 10
18.021100000000001
 20
5.21143
 30
0.0
 40
3.660169999999999
  1
備考
 41
0.5
  0
TEXT
  5
4B3
  8
_________2
 62
     7
 10
18.021100000000001
 20
19.410799999999991
 30
0.0
 40
3.660169999999999
  1
製図
 41
0.5
  0
TEXT
  5
4B4
  8
_________2
 62
     7
 10
20.594830666666681
 20
27.936800000000002
 30
0.0
 40
5.3238799999999991
  1
セラトレーディング株式会社
 41
0.5
 72
     1
 11
41.180500000000002
 21
27.936800000000002
 31
0.0
  0
LINE
  5
4B5
  8
_________2
 62
     7
 10
183.55099999999999
 20
-4.0910799999999998
 30
0.0
 11
17.049499999999998
 21
-4.0910799999999998
 31
0.0
  0
LINE
  5
4B6
  8
_________2
 62
     7
 10
17.049499999999998
 20
-4.0910799999999998
 30
0.0
 11
17.049499999999998
 21
258.911
 31
0.0
  0
LINE
  5
4B7
  8
_________2
 62
     7
 10
17.049499999999998
 20
258.911
 30
0.0
 11
183.55099999999999
 21
258.911
 31
0.0
  0
LINE
  5
4B8
  8
_________2
 62
     7
 10
183.55099999999999
 20
258.911
 30
0.0
 11
183.55099999999999
 21
-4.0910799999999998
 31
0.0
  0
LINE
  5
4B9
  8
_________2
 62
     7
 10
65.549599999999998
 20
9.4089600000000004
 30
0.0
 11
65.549599999999998
 21
35.908799999999999
 31
0.0
  0
LINE
  5
4BA
  8
_________2
 62
     7
 10
84.549700000000016
 20
9.4089600000000004
 30
0.0
 11
84.549700000000016
 21
35.908799999999999
 31
0.0
  0
LINE
  5
4BB
  8
_________2
 62
     7
 10
103.55
 20
-4.0910799999999998
 30
0.0
 11
103.55
 21
35.908799999999999
 31
0.0
  0
LINE
  5
4BC
  8
_________2
 62
     7
 10
28.549299999999992
 20
9.4089600000000004
 30
0.0
 11
28.549299999999992
 21
23.409199999999998
 31
0.0
  0
LINE
  5
4BD
  8
_________2
 62
     7
 10
17.049499999999998
 20
9.4089600000000004
 30
0.0
 11
103.55
 21
9.4089600000000004
 31
0.0
  0
LINE
  5
4BE
  8
_________2
 62
     7
 10
17.049499999999998
 20
23.409199999999998
 30
0.0
 11
103.55
 21
23.409199999999998
 31
0.0
  0
LINE
  5
4BF
  8
_________2
 62
     7
 10
103.55
 20
15.9085
 30
0.0
 11
183.55099999999999
 21
15.9085
 31
0.0
  0
LINE
  5
4C0
  8
_________2
 62
     7
 10
17.049499999999998
 20
35.908799999999999
 30
0.0
 11
183.55099999999999
 21
35.908799999999999
 31
0.0
  0
ENDSEC
  0
EOF
